  0
SECTION
  2
HEADER
  0
ENDSEC
  0
SECTION
  2
TABLES
  0
TABLE
  2
LTYPE
 70
    22
  0
LTYPE
  2
CONTINUOUS
 70
    64
  3
Solid line
 72
    65
 73
     0
 40
0.000000
  0
LTYPE
  2
DASHED
 70
    64
  3
__ __ __ __ __ __ __ __ __ __ __ __ __ __ __
 72
    65
 73
     2
 40
3.500000
 49
2.000000
 49
-1.500000
  0
LTYPE
  2
CENTER
 70
    64
  3
____ _ ____ _ ____ _ ____ _ ____ _ ____ _ ____
 72
    65
 73
     4
 40
17.500000
 49
13.000000
 49
-1.500000
 49
1.500000
 49
-1.500000
  0
LTYPE
  2
PHANTOM
 70
    64
  3
_____ _ _ _____ _ _ _____ _ _ _____ _ _ ____  
 72
    65
 73
     6
 40
15.500000
 49
8.000000
 49
-1.500000
 49
1.500000
 49
-1.500000
 49
1.500000
 49
-1.500000
  0
LTYPE
  2
DOT
 70
    64
  3
. . . . . . . . . . . . . . . . . . . . . . . .
 72
    65
 73
     2
 40
0.25
 49
0.0
 49
-0.25
  0
ENDTAB
  0
TABLE
  2
LAYER
 70
     1
  0
LAYER
  2
0
 70
     0
 62
     7
  6
CONTINUOUS
  0
ENDTAB
  0
TABLE
  2
STYLE
 70
     1
  0
STYLE
  2
STANDARD
 70
     0
 40
0.000000
 41
1.000000
 50
0.000000
 71
     0
 42
0.200000
  3
txt
  0
ENDTAB
  0
TABLE
  2
VIEW
 70
     0
  0
ENDTAB
  0
ENDSEC
  0
SECTION
  2
BLOCKS
  0
ENDSEC
  0
SECTION
  2
ENTITIES
  0
LINE
  8
0
  6
CONTINUOUS
 62
     3
 10
-46.6823844909668
 20
29.5820140838623
 11
247.3176116943359
 21
29.5820140838623
  0
LINE
  8
0
  6
CONTINUOUS
 62
     7
 10
162.3176116943359
 20
122.0820159912109
 11
162.3176116943359
 21
-62.91798782348633
  0
LINE
  8
0
  6
CONTINUOUS
 62
     7
 10
112.3176116943359
 20
122.0820159912109
 11
112.3176116943359
 21
-62.91798782348633
  0
LINE
  8
0
  6
CONTINUOUS
 62
     7
 10
116.3176116943359
 20
-65.41798400878906
 11
158.3176116943359
 21
-65.41798400878906
  0
LINE
  8
0
  6
CONTINUOUS
 62
     7
 10
116.3176116943359
 20
124.5820159912109
 11
158.3176116943359
 21
124.5820159912109
  0
LINE
  8
0
  6
CONTINUOUS
 62
     7
 10
116.3176422119141
 20
124.5819778442383
 11
112.3176574707031
 21
120.5819931030273
  0
LINE
  8
0
  6
CONTINUOUS
 62
     7
 10
112.3176116943359
 20
-61.41792678833008
 11
116.3176193237305
 21
-65.41793060302734
  0
LINE
  8
0
  6
CONTINUOUS
 62
     7
 10
158.3176116943359
 20
-65.41799926757813
 11
162.317626953125
 21
-61.41799545288086
  0
LINE
  8
0
  6
CONTINUOUS
 62
     7
 10
162.3176116943359
 20
120.5820007324219
 11
158.3176116943359
 21
124.5820083618164
  0
LINE
  8
0
  6
CONTINUOUS
 62
     7
 10
116.3176116943359
 20
67.23588562011719
 11
158.3176116943359
 21
67.23588562011719
  0
LINE
  8
0
  6
CONTINUOUS
 62
     7
 10
116.3176116943359
 20
55.7943229675293
 11
158.3176116943359
 21
55.7943229675293
  0
LINE
  8
0
  6
CONTINUOUS
 62
     7
 10
116.3176116943359
 20
46.0507926940918
 11
158.3176116943359
 21
46.0507926940918
  0
LINE
  8
0
  6
CONTINUOUS
 62
     7
 10
116.3176116943359
 20
34.58149337768555
 11
158.3176116943359
 21
34.58149337768555
  0
LINE
  8
0
  6
CONTINUOUS
 62
     7
 10
116.3176116943359
 20
24.5818920135498
 11
158.3176116943359
 21
24.5818920135498
  0
LINE
  8
0
  6
CONTINUOUS
 62
     7
 10
116.3176116943359
 20
13.11256122589111
 11
158.3176116943359
 21
13.11256122589111
  0
LINE
  8
0
  6
CONTINUOUS
 62
     7
 10
116.3176116943359
 20
3.369549989700317
 11
158.3176116943359
 21
3.369549989700317
  0
LINE
  8
0
  6
CONTINUOUS
 62
     7
 10
116.3176116943359
 20
-8.071703910827637
 11
158.3176116943359
 21
-8.071703910827637
  0
LINE
  8
0
  6
CONTINUOUS
 62
     7
 10
116.3176116943359
 20
-27.12471199035645
 11
158.3176116943359
 21
-27.12471199035645
  0
LINE
  8
0
  6
CONTINUOUS
 62
     7
 10
116.3176116943359
 20
-36.38978958129883
 11
158.3176116943359
 21
-36.38978958129883
  0
LINE
  8
0
  6
CONTINUOUS
 62
     7
 10
116.3176116943359
 20
-43.2111701965332
 11
158.3176116943359
 21
-43.2111701965332
  0
LINE
  8
0
  6
CONTINUOUS
 62
     7
 10
116.3176116943359
 20
-50.07646560668945
 11
158.3176116943359
 21
-50.07646560668945
  0
LINE
  8
0
  6
CONTINUOUS
 62
     7
 10
116.3176116943359
 20
-55.07670974731445
 11
158.3176116943359
 21
-55.07670974731445
  0
LINE
  8
0
  6
CONTINUOUS
 62
     7
 10
116.3176116943359
 20
-59.67921829223633
 11
158.3176116943359
 21
-59.67921829223633
  0
LINE
  8
0
  6
CONTINUOUS
 62
     7
 10
23.3176155090332
 20
-95.41798400878906
 11
23.3176155090332
 21
-8.055071830749512
  0
LINE
  8
0
  6
CONTINUOUS
 62
     7
 10
23.3176155090332
 20
-95.41798400878906
 11
41.3176155090332
 21
-95.41798400878906
  0
LINE
  8
0
  6
CONTINUOUS
 62
     7
 10
41.3176155090332
 20
-95.41798400878906
 11
41.3176155090332
 21
154.5820159912109
  0
LINE
  8
0
  6
CONTINUOUS
 62
     7
 10
97.31761932373047
 20
-62.91798782348633
 11
97.31761932373047
 21
91.59611511230469
  0
LINE
  8
0
  6
CONTINUOUS
 62
     7
 10
97.31761932373047
 20
-62.91798782348633
 11
112.3176116943359
 21
-62.91798782348633
  0
LINE
  8
0
  6
CONTINUOUS
 62
     7
 10
23.3176155090332
 20
154.5820159912109
 11
41.3176155090332
 21
154.5820159912109
  0
LINE
  8
0
  6
CONTINUOUS
 62
     7
 10
97.31761932373047
 20
122.0820159912109
 11
112.3176116943359
 21
122.0820159912109
  0
LINE
  8
0
  6
CONTINUOUS
 62
     7
 10
41.3176155090332
 20
69.45957946777344
 11
88.79161834716797
 21
69.45957946777344
  0
LINE
  8
0
  6
CONTINUOUS
 62
     7
 10
88.79161071777344
 20
69.4595947265625
 11
97.31761169433594
 21
73.77799224853516
  0
LINE
  8
0
  6
CONTINUOUS
 62
     7
 10
41.3176155090332
 20
-10.29555034637451
 11
88.79161834716797
 21
-10.29555034637451
  0
LINE
  8
0
  6
CONTINUOUS
 62
     7
 10
88.79161834716797
 20
-10.29557514190674
 11
97.31760406494141
 21
-14.61397075653076
  0
LINE
  8
0
  6
CONTINUOUS
 62
     7
 10
41.31756591796875
 20
-47.7398681640625
 11
97.31758880615234
 21
-29.06548500061035
  0
LINE
  8
0
  6
CONTINUOUS
 62
     7
 10
41.31758880615234
 20
-54.55975341796875
 11
97.31761932373047
 21
-35.88533782958984
  0
LINE
  8
0
  6
CONTINUOUS
 62
     7
 10
41.31753158569336
 20
106.9037857055664
 11
82.31761169433594
 21
94.42173767089844
  0
LINE
  8
0
  6
CONTINUOUS
 62
     7
 10
41.31763458251953
 20
113.7238159179687
 11
79.14451599121094
 21
102.3846435546875
  0
LINE
  8
0
  6
CONTINUOUS
 62
     7
 10
82.31761932373047
 20
94.42173767089844
 11
95.32543182373047
 21
94.42173767089844
  0
LINE
  8
0
  6
CONTINUOUS
 62
     7
 10
-31.6823844909668
 20
10.58201313018799
 11
-31.6823844909668
 21
51.58201217651367
  0
LINE
  8
0
  6
CONTINUOUS
 62
     7
 10
19.3176155090332
 20
-60.41798782348633
 11
19.3176155090332
 21
-10.70454692840576
  0
LINE
  8
0
  6
CONTINUOUS
 62
     7
 10
19.3176155090332
 20
-60.41798782348633
 11
23.3176155090332
 21
-60.41798782348633
  0
LINE
  8
0
  6
CONTINUOUS
 62
     7
 10
19.3176155090332
 20
119.5820159912109
 11
23.3176155090332
 21
119.5820159912109
  0
LINE
  8
0
  6
CONTINUOUS
 62
     7
 10
-31.6823844909668
 20
48.58201217651367
 11
23.3176155090332
 21
48.58201217651367
  0
LINE
  8
0
  6
CONTINUOUS
 62
     7
 10
-31.6823844909668
 20
10.58201313018799
 11
23.3176155090332
 21
10.58201313018799
  0
LINE
  8
0
  6
CONTINUOUS
 62
     7
 10
23.3176155090332
 20
7.082013130187988
 11
23.3176155090332
 21
52.08201217651367
  0
LINE
  8
0
  6
CONTINUOUS
 62
     7
 10
23.3176155090332
 20
7.082013130187988
 11
30.9534797668457
 21
7.082013130187988
  0
LINE
  8
0
  6
CONTINUOUS
 62
     7
 10
23.3176155090332
 20
52.08201217651367
 11
31.78715896606445
 21
52.08201217651367
  0
LINE
  8
0
  6
CONTINUOUS
 62
     7
 10
19.3176155090332
 20
91.52677917480469
 11
19.3176155090332
 21
119.5820159912109
  0
LINE
  8
0
  6
CONTINUOUS
 62
     7
 10
23.3176155090332
 20
89.98362731933594
 11
23.3176155090332
 21
154.5820159912109
  0
LINE
  8
0
  6
CONTINUOUS
 62
     7
 10
-31.6823844909668
 20
51.58201217651367
 11
13.3176155090332
 21
51.58201217651367
  0
LINE
  8
0
  6
CONTINUOUS
 62
     7
 10
13.3176155090332
 20
48.58201217651367
 11
13.3176155090332
 21
51.58201217651367
  0
LINE
  8
0
  6
CONTINUOUS
 62
     7
 10
97.31761932373047
 20
115.8768157958984
 11
97.31761932373047
 21
122.0820159912109
  0
LINE
  8
0
  6
CONTINUOUS
 62
     7
 10
81.57816314697266
 20
103.5635147094727
 11
82.79350280761719
 21
106.630126953125
  0
LINE
  8
0
  6
CONTINUOUS
 62
     3
 10
-46.6823844909668
 20
379.5820007324219
 11
247.3176727294922
 21
379.5820007324219
  0
LINE
  8
0
  6
CONTINUOUS
 62
     7
 10
162.3176727294922
 20
472.0820007324219
 11
162.3176727294922
 21
403.3634643554688
  0
LINE
  8
0
  6
CONTINUOUS
 62
     7
 10
162.3176727294922
 20
393.8294067382813
 11
162.3176727294922
 21
287.0820007324219
  0
LINE
  8
0
  6
CONTINUOUS
 62
     7
 10
116.3176116943359
 20
284.5820007324219
 11
158.3176116943359
 21
284.5820007324219
  0
LINE
  8
0
  6
CONTINUOUS
 62
     7
 10
116.3176116943359
 20
474.5820007324219
 11
158.3176116943359
 21
474.5820007324219
  0
LINE
  8
0
  6
CONTINUOUS
 62
     7
 10
116.3177795410156
 20
474.5819091796875
 11
112.3177795410156
 21
470.5819091796875
  0
LINE
  8
0
  6
CONTINUOUS
 62
     7
 10
112.3176040649414
 20
288.5820922851562
 11
116.3176116943359
 21
284.5820922851562
  0
LINE
  8
0
  6
CONTINUOUS
 62
     7
 10
158.3176879882812
 20
284.5819702148437
 11
162.3176879882813
 21
288.5819702148437
  0
LINE
  8
0
  6
CONTINUOUS
 62
     7
 10
162.3175964355469
 20
470.5820617675781
 11
158.3175964355469
 21
474.5820617675781
  0
LINE
  8
0
  6
CONTINUOUS
 62
     7
 10
116.3175811767578
 20
466.8009643554688
 11
158.3177032470703
 21
466.8009643554688
  0
LINE
  8
0
  6
CONTINUOUS
 62
     7
 10
116.3175811767578
 20
455.80078125
 11
158.3177032470703
 21
455.80078125
  0
LINE
  8
0
  6
CONTINUOUS
 62
     7
 10
116.3175811767578
 20
447.9386291503906
 11
158.3177032470703
 21
447.9386291503906
  0
LINE
  8
0
  6
CONTINUOUS
 62
     7
 10
116.3175811767578
 20
440.6256408691406
 11
158.3177032470703
 21
440.6256408691406
  0
LINE
  8
0
  6
CONTINUOUS
 62
     7
 10
116.3175811767578
 20
431.3464965820313
 11
158.3177032470703
 21
431.3464965820313
  0
LINE
  8
0
  6
CONTINUOUS
 62
     7
 10
116.3175811767578
 20
422.6864318847656
 11
158.3177032470703
 21
422.6864318847656
  0
LINE
  8
0
  6
CONTINUOUS
 62
     7
 10
116.3175811767578
 20
412.1006469726563
 11
158.3177032470703
 21
412.1006469726563
  0
LINE
  8
0
  6
CONTINUOUS
 62
     7
 10
116.3175811767578
 20
402.5377502441406
 11
158.3177032470703
 21
402.5377502441406
  0
LINE
  8
0
  6
CONTINUOUS
 62
     7
 10
116.3175811767578
 20
390.5820617675781
 11
158.3177032470703
 21
390.5820617675781
  0
LINE
  8
0
  6
CONTINUOUS
 62
     7
 10
116.3175811767578
 20
292.3627014160156
 11
158.3177032470703
 21
292.3627014160156
  0
LINE
  8
0
  6
CONTINUOUS
 62
     7
 10
23.3176155090332
 20
504.58203125
 11
23.3176155090332
 21
413.1738586425781
  0
LINE
  8
0
  6
CONTINUOUS
 62
     7
 10
23.3176155090332
 20
504.58203125
 11
41.3176155090332
 21
504.58203125
  0
LINE
  8
0
  6
CONTINUOUS
 62
     7
 10
41.3176155090332
 20
504.58203125
 11
41.3176155090332
 21
254.5819854736328
  0
LINE
  8
0
  6
CONTINUOUS
 62
     7
 10
112.3176116943359
 20
472.08203125
 11
112.3176116943359
 21
287.0819702148438
  0
LINE
  8
0
  6
CONTINUOUS
 62
     7
 10
97.31761932373047
 20
472.08203125
 11
97.31761932373047
 21
341.6007690429688
  0
LINE
  8
0
  6
CONTINUOUS
 62
     7
 10
97.31761932373047
 20
472.08203125
 11
112.3176116943359
 21
472.08203125
  0
LINE
  8
0
  6
CONTINUOUS
 62
     7
 10
23.3176155090332
 20
254.5819854736328
 11
41.3176155090332
 21
254.5819854736328
  0
LINE
  8
0
  6
CONTINUOUS
 62
     7
 10
97.31761932373047
 20
287.0819702148438
 11
112.3176116943359
 21
287.0819702148438
  0
LINE
  8
0
  6
CONTINUOUS
 62
     7
 10
97.31761932373047
 20
311.4515380859375
 11
97.31761932373047
 21
287.0819702148438
  0
LINE
  8
0
  6
CONTINUOUS
 62
     7
 10
46.31761932373047
 20
393.0166931152344
 11
92.31761932373047
 21
393.0166931152344
  0
LINE
  8
0
  6
CONTINUOUS
 62
     7
 10
41.3176155090332
 20
458.5223999023438
 11
97.31761932373047
 21
444.1822814941406
  0
LINE
  8
0
  6
CONTINUOUS
 62
     7
 10
41.31763076782227
 20
451.2088928222656
 11
97.31763458251953
 21
436.8687744140625
  0
LINE
  8
0
  6
CONTINUOUS
 62
     7
 10
41.3176155090332
 20
343.1585693359375
 11
77.04430389404297
 21
343.1585693359375
  0
LINE
  8
0
  6
CONTINUOUS
 62
     7
 10
46.31761932373047
 20
419.6967468261719
 11
92.31761932373047
 21
419.6967468261719
  0
LINE
  8
0
  6
CONTINUOUS
 62
     7
 10
77.48192596435547
 20
340.7330017089844
 11
82.771728515625
 21
323.5256958007812
  0
LINE
  8
0
  6
CONTINUOUS
 62
     7
 10
83.23491668701172
 20
322.2952270507813
 11
82.31761932373047
 21
322.2952270507813
  0
LINE
  8
0
  6
CONTINUOUS
 62
     7
 10
92.17967987060547
 20
314.981689453125
 11
82.31761932373047
 21
314.981689453125
  0
LINE
  8
0
  6
CONTINUOUS
 62
     7
 10
41.3176383972168
 20
307.9551391601563
 11
82.31767272949219
 21
322.2952270507813
  0
LINE
  8
0
  6
CONTINUOUS
 62
     7
 10
41.31759643554688
 20
300.6416015625
 11
82.31757354736328
 21
314.981689453125
  0
LINE
  8
0
  6
CONTINUOUS
 62
     7
 10
19.3176155090332
 20
469.58203125
 11
23.3176155090332
 21
469.58203125
  0
LINE
  8
0
  6
CONTINUOUS
 62
     7
 10
19.3176155090332
 20
289.5820007324219
 11
23.3176155090332
 21
289.5820007324219
  0
LINE
  8
0
  6
CONTINUOUS
 62
     7
 10
19.3176155090332
 20
469.58203125
 11
19.3176155090332
 21
417.0820007324219
  0
LINE
  8
0
  6
CONTINUOUS
 62
     7
 10
-31.6823844909668
 20
398.5820007324219
 11
-31.6823844909668
 21
360.5820007324219
  0
LINE
  8
0
  6
CONTINUOUS
 62
     7
 10
-31.6823844909668
 20
360.5820007324219
 11
23.3176155090332
 21
360.5820007324219
  0
LINE
  8
0
  6
CONTINUOUS
 62
     7
 10
-31.6823844909668
 20
398.5820007324219
 11
23.3176155090332
 21
398.5820007324219
  0
LINE
  8
0
  6
CONTINUOUS
 62
     7
 10
23.3176155090332
 20
402.0820007324219
 11
23.3176155090332
 21
357.0820007324219
  0
LINE
  8
0
  6
CONTINUOUS
 62
     7
 10
23.3176155090332
 20
402.0820007324219
 11
28.94670486450195
 21
402.0820007324219
  0
LINE
  8
0
  6
CONTINUOUS
 62
     7
 10
23.3176155090332
 20
357.0820007324219
 11
28.19057083129883
 21
357.0820007324219
  0
LINE
  8
0
  6
CONTINUOUS
 62
     7
 10
19.3176155090332
 20
342.0820007324219
 11
19.3176155090332
 21
289.5820007324219
  0
LINE
  8
0
  6
CONTINUOUS
 62
     7
 10
23.3176155090332
 20
345.6583557128906
 11
23.3176155090332
 21
254.5819854736328
  0
LINE
  8
0
  6
CONTINUOUS
 62
     7
 10
-31.6823844909668
 20
384.5820007324219
 11
16.3176155090332
 21
384.5820007324219
  0
LINE
  8
0
  6
CONTINUOUS
 62
     7
 10
-31.6823844909668
 20
374.5820007324219
 11
16.3176155090332
 21
374.5820007324219
  0
LINE
  8
0
  6
CONTINUOUS
 62
     7
 10
13.3176155090332
 20
384.5820007324219
 11
13.3176155090332
 21
374.5820007324219
  0
LINE
  8
0
  6
CONTINUOUS
 62
     7
 10
88.79166412353516
 20
355.7314147949219
 11
97.31765747070313
 21
353.826904296875
  0
LINE
  8
0
  6
CONTINUOUS
 62
     3
 10
-451.682373046875
 20
29.5820140838623
 11
-171.682373046875
 21
29.5820140838623
  0
LINE
  8
0
  6
CONTINUOUS
 62
     7
 10
-306.682373046875
 20
43.58201217651367
 11
-306.682373046875
 21
51.58201217651367
  0
LINE
  8
0
  6
CONTINUOUS
 62
     7
 10
-316.682373046875
 20
43.58201217651367
 11
-316.682373046875
 21
51.58201217651367
  0
LINE
  8
0
  6
CONTINUOUS
 62
     7
 10
-316.682373046875
 20
43.58201217651367
 11
-306.682373046875
 21
43.58201217651367
  0
LINE
  8
0
  6
CONTINUOUS
 62
     7
 10
-316.682373046875
 20
51.58201217651367
 11
-306.682373046875
 21
51.58201217651367
  0
LINE
  8
0
  6
CONTINUOUS
 62
     3
 10
-311.682373046875
 20
169.5820159912109
 11
-311.682373046875
 21
-110.4179840087891
  0
LINE
  8
0
  6
CONTINUOUS
 62
     3
 10
-333.1699829101563
 20
151.4443054199219
 11
-333.8603820800781
 21
155.3597564697266
  0
LINE
  8
0
  6
CONTINUOUS
 62
     7
 10
162.3176116943359
 20
-62.91798400878906
 11
180.3176116943359
 21
-62.91798400878906
  0
LINE
  8
0
  6
CONTINUOUS
 62
     7
 10
217.3176116943359
 20
129.5820159912109
 11
217.3176116943359
 21
-70.41798400878906
  0
LINE
  8
0
  6
CONTINUOUS
 62
     7
 10
217.3176116943359
 20
129.5820159912109
 11
232.3176116943359
 21
129.5820159912109
  0
LINE
  8
0
  6
CONTINUOUS
 62
     7
 10
180.3176116943359
 20
122.0820159912109
 11
180.3176116943359
 21
-62.91798400878906
  0
LINE
  8
0
  6
CONTINUOUS
 62
     7
 10
217.3176116943359
 20
-70.41798400878906
 11
232.3176116943359
 21
-70.41798400878906
  0
LINE
  8
0
  6
CONTINUOUS
 62
     7
 10
232.3176116943359
 20
129.5820159912109
 11
232.3176116943359
 21
-70.41798400878906
  0
LINE
  8
0
  6
CONTINUOUS
 62
     7
 10
180.3176116943359
 20
102.5820159912109
 11
217.3176116943359
 21
102.5820159912109
  0
LINE
  8
0
  6
CONTINUOUS
 62
     7
 10
185.3176116943359
 20
-20.4179859161377
 11
212.3176116943359
 21
-20.4179859161377
  0
LINE
  8
0
  6
CONTINUOUS
 62
     7
 10
185.3176116943359
 20
79.58201599121094
 11
212.3176116943359
 21
79.58201599121094
  0
LINE
  8
0
  6
CONTINUOUS
 62
     7
 10
180.3176116943359
 20
34.58201599121094
 11
217.3176116943359
 21
34.58201599121094
  0
LINE
  8
0
  6
CONTINUOUS
 62
     7
 10
180.3176116943359
 20
24.5820140838623
 11
217.3176116943359
 21
24.5820140838623
  0
LINE
  8
0
  6
CONTINUOUS
 62
     7
 10
180.3176116943359
 20
-43.41798400878906
 11
217.3176116943359
 21
-43.41798400878906
  0
LINE
  8
0
  6
CONTINUOUS
 62
     7
 10
162.3176116943359
 20
122.0820159912109
 11
180.3176116943359
 21
122.0820159912109
  0
LINE
  8
0
  6
CONTINUOUS
 62
     7
 10
171.3176116943359
 20
159.1014251708984
 11
171.3176116943359
 21
118.4484710693359
  0
LINE
  8
0
  6
CONTINUOUS
 62
     7
 10
151.5616302490234
 20
139.1883392333984
 11
191.0691375732422
 21
139.1883392333984
  0
LINE
  8
0
  6
CONTINUOUS
 62
     7
 10
163.3175811767578
 20
122.1884002685547
 11
163.9078063964844
 21
125.5356903076172
  0
LINE
  8
0
  6
CONTINUOUS
 62
     7
 10
178.7273559570312
 20
125.5357437133789
 11
179.3175811767578
 21
122.1884536743164
  0
LINE
  8
0
  6
CONTINUOUS
 62
     7
 10
165.8774261474609
 20
127.1883392333984
 11
176.7577972412109
 21
127.1883392333984
  0
LINE
  8
0
  6
CONTINUOUS
 62
     7
 10
165.1873168945312
 20
127.0654983520508
 11
170.9773712158203
 21
129.1941375732422
  0
LINE
  8
0
  6
CONTINUOUS
 62
     7
 10
171.6578674316406
 20
129.1941528320313
 11
177.4478759765625
 21
127.0655364990234
  0
LINE
  8
0
  6
CONTINUOUS
 62
     7
 10
217.3176727294922
 20
479.5820007324219
 11
232.3176727294922
 21
479.5820007324219
  0
LINE
  8
0
  6
CONTINUOUS
 62
     7
 10
217.3176727294922
 20
479.5820007324219
 11
217.3176727294922
 21
279.5820007324219
  0
LINE
  8
0
  6
CONTINUOUS
 62
     7
 10
162.3176727294922
 20
287.0820007324219
 11
180.3176727294922
 21
287.0820007324219
  0
LINE
  8
0
  6
CONTINUOUS
 62
     7
 10
180.3176727294922
 20
452.5820007324219
 11
217.3176727294922
 21
452.5820007324219
  0
LINE
  8
0
  6
CONTINUOUS
 62
     7
 10
180.3176727294922
 20
472.0820007324219
 11
180.3176727294922
 21
403.7587585449219
  0
LINE
  8
0
  6
CONTINUOUS
 62
     7
 10
217.3176727294922
 20
279.5820007324219
 11
232.3176727294922
 21
279.5820007324219
  0
LINE
  8
0
  6
CONTINUOUS
 62
     7
 10
232.3176727294922
 20
479.5820007324219
 11
232.3176727294922
 21
279.5820007324219
  0
LINE
  8
0
  6
CONTINUOUS
 62
     7
 10
185.3176727294922
 20
329.5820007324219
 11
212.3176727294922
 21
329.5820007324219
  0
LINE
  8
0
  6
CONTINUOUS
 62
     7
 10
180.3176727294922
 20
374.5820007324219
 11
217.3176727294922
 21
374.5820007324219
  0
LINE
  8
0
  6
CONTINUOUS
 62
     7
 10
185.3176727294922
 20
429.5820007324219
 11
212.3176727294922
 21
429.5820007324219
  0
LINE
  8
0
  6
CONTINUOUS
 62
     7
 10
180.3176727294922
 20
384.5820007324219
 11
217.3176727294922
 21
384.5820007324219
  0
LINE
  8
0
  6
CONTINUOUS
 62
     7
 10
180.3176727294922
 20
306.5820007324219
 11
217.3176727294922
 21
306.5820007324219
  0
LINE
  8
0
  6
CONTINUOUS
 62
     7
 10
162.3176727294922
 20
472.0820007324219
 11
180.3176727294922
 21
472.0820007324219
  0
LINE
  8
0
  6
CONTINUOUS
 62
     7
 10
180.3176727294922
 20
394.2247009277344
 11
180.3176727294922
 21
287.0820007324219
  0
ARC
  8
0
  6
CONTINUOUS
 62
     7
 10
94.31761932373047
 20
91.59611511230469
 40
3
 50
0
 51
83.32966025161127
  0
ARC
  8
0
  6
CONTINUOUS
 62
     7
 10
95.31761932373047
 20
115.8768157958984
 40
1.999999999999997
 50
274.6009085430909
 51
0
  0
ARC
  8
0
  6
CONTINUOUS
 62
     7
 10
79.71880340576172
 20
104.3003997802734
 40
2.000000000000004
 50
253.3131076927504
 51
338.3808769183058
  0
ARC
  8
0
  6
CONTINUOUS
 62
     7
 10
46.31761932373047
 20
424.6967468261719
 40
5
 50
179.999991348578
 51
270.0000006832453
  0
ARC
  8
0
  6
CONTINUOUS
 62
     7
 10
92.31761932373047
 20
424.6967468261719
 40
5.000000000000004
 50
269.9999974955218
 51
0
  0
ARC
  8
0
  6
CONTINUOUS
 62
     7
 10
46.31761932373047
 20
398.0166931152344
 40
5
 50
179.999991348578
 51
270.0000006832453
  0
ARC
  8
0
  6
CONTINUOUS
 62
     7
 10
92.31761932373047
 20
398.0166931152344
 40
5.000000000000004
 50
269.9999974955218
 51
0
  0
ARC
  8
0
  6
CONTINUOUS
 62
     7
 10
16.3176155090332
 20
379.5820007324219
 40
5.000000000000019
 50
270.0000179860893
 51
89.99998201391064
  0
ARC
  8
0
  6
CONTINUOUS
 62
     7
 10
94.31758880615234
 20
341.6007690429688
 40
3.000000000000009
 50
278.1266590228406
 51
0
  0
ARC
  8
0
  6
CONTINUOUS
 62
     7
 10
94.31768035888672
 20
311.4515380859375
 40
3
 50
0
 51
81.87301312807932
  0
CIRCLE
  8
0
  6
CONTINUOUS
 62
     7
 10
-311.682373046875
 20
29.5820140838623
 40
125
  0
ARC
  8
0
  6
CONTINUOUS
 62
     7
 10
-311.682373046875
 20
29.5820140838623
 40
19
 50
105.2575386196412
 51
74.74246957703878
  0
CIRCLE
  8
0
  6
CONTINUOUS
 62
     7
 10
-311.682373046875
 20
29.5820140838623
 40
90
  0
CIRCLE
  8
0
  6
CONTINUOUS
 62
     7
 10
-311.682373046875
 20
29.5820140838623
 40
85
  0
ARC
  8
0
  6
CONTINUOUS
 62
     3
 10
-311.682373046875
 20
29.5820140838623
 40
107.5
 50
355.0920924398065
 51
5.110231423787635
  0
CIRCLE
  8
0
  6
CONTINUOUS
 62
     7
 10
-204.1823883056641
 20
29.5820140838623
 40
7.5
  0
CIRCLE
  8
0
  6
CONTINUOUS
 62
     7
 10
-311.682373046875
 20
137.0820159912109
 40
7.5
  0
ARC
  8
0
  6
CONTINUOUS
 62
     3
 10
-311.682373046875
 20
29.5820140838623
 40
107.5
 50
85.09208128390628
 51
95.11021343769831
  0
CIRCLE
  8
0
  6
CONTINUOUS
 62
     7
 10
-419.182373046875
 20
29.5820140838623
 40
7.5
  0
ARC
  8
0
  6
CONTINUOUS
 62
     3
 10
-311.682373046875
 20
29.5820140838623
 40
107.5
 50
175.0920906185736
 51
185.1102022817981
  0
CIRCLE
  8
0
  6
CONTINUOUS
 62
     7
 10
-311.682373046875
 20
-77.91798400878906
 40
7.5
  0
ARC
  8
0
  6
CONTINUOUS
 62
     3
 10
-311.682373046875
 20
29.5820140838623
 40
107.5
 50
265.0920967655175
 51
275.1102357494987
  0
ARC
  8
0
  6
CONTINUOUS
 62
     7
 10
-333.1325378417969
 20
151.2319793701172
 40
3.150014162063622
 50
37.24395944966359
 51
162.7560313171001
  0
ARC
  8
0
  6
CONTINUOUS
 62
     7
 10
185.3176116943359
 20
-25.4179859161377
 40
5.000000000000001
 50
90.00000250447815
 51
180.0000050089563
  0
ARC
  8
0
  6
CONTINUOUS
 62
     7
 10
185.3176116943359
 20
84.58201599121094
 40
5
 50
179.999991348578
 51
270.0000006832453
  0
ARC
  8
0
  6
CONTINUOUS
 62
     7
 10
212.3176116943359
 20
84.58201599121094
 40
5.000000000000004
 50
269.9999974955218
 51
0
  0
ARC
  8
0
  6
CONTINUOUS
 62
     7
 10
212.3176116943359
 20
-25.4179859161377
 40
5
 50
0
 51
90.00000250447815
  0
ARC
  8
0
  6
CONTINUOUS
 62
     7
 10
183.2743988037109
 20
122.7833099365234
 40
3.999999999999994
 50
126.0864395502159
 51
188.5540383028319
  0
ARC
  8
0
  6
CONTINUOUS
 62
     7
 10
159.3608245849609
 20
122.7833099365234
 40
3.999999999999995
 50
351.4459282863103
 51
53.91357911911859
  0
ARC
  8
0
  6
CONTINUOUS
 62
     7
 10
171.3176116943359
 20
139.1883392333984
 40
16.29999923706054
 50
306.086414050692
 51
233.91354314694
  0
CIRCLE
  8
0
  6
CONTINUOUS
 62
     7
 10
171.3176116943359
 20
139.1883392333984
 40
10
  0
ARC
  8
0
  6
CONTINUOUS
 62
     7
 10
165.8774261474609
 20
125.1883392333984
 40
1.999999999999999
 50
89.99998201391097
 51
170.0000206677891
  0
ARC
  8
0
  6
CONTINUOUS
 62
     7
 10
176.7577972412109
 20
125.1883392333984
 40
2.000000000000004
 50
10.00000397796132
 51
89.99998201391097
  0
ARC
  8
0
  6
CONTINUOUS
 62
     7
 10
185.3176727294922
 20
324.5820007324219
 40
5.000000000000004
 50
90.00000250447815
 51
180.0000050089563
  0
ARC
  8
0
  6
CONTINUOUS
 62
     7
 10
185.3176727294922
 20
434.5820007324219
 40
5
 50
179.999991348578
 51
270.0000006832453
  0
ARC
  8
0
  6
CONTINUOUS
 62
     7
 10
212.3176727294922
 20
324.5820007324219
 40
5
 50
0
 51
90.00000250447815
  0
ARC
  8
0
  6
CONTINUOUS
 62
     7
 10
212.3176727294922
 20
434.5820007324219
 40
5.000000000000004
 50
269.9999974955218
 51
0
  0
POLYLINE
  8
0
  6
CONTINUOUS
 62
     7
 66
     1
 10
0
 20
0
  0
VERTEX
  8
0
  6
CONTINUOUS
 62
     7
 10
95.47731556105957
 20
113.8831946513524
 42
0.02444455299013896
  0
VERTEX
  8
0
  6
CONTINUOUS
 62
     7
 10
93.31955891370544
 20
113.603639747449
 42
0.02619721464163485
  0
VERTEX
  8
0
  6
CONTINUOUS
 62
     7
 10
91.20032850538161
 20
113.1078222472764
 42
0.02921848921714019
  0
VERTEX
  8
0
  6
CONTINUOUS
 62
     7
 10
89.14874780226691
 20
112.3815006749599
 42
0.03402552945619206
  0
VERTEX
  8
0
  6
CONTINUOUS
 62
     7
 10
87.20496034076265
 20
111.4034639867408
 42
0.04144723957013422
  0
VERTEX
  8
0
  6
CONTINUOUS
 62
     7
 10
85.42985886557496
 20
110.1461916515208
 42
0.05253318997150667
  0
VERTEX
  8
0
  6
CONTINUOUS
 62
     7
 10
83.9201196834286
 20
108.5821886030595
 42
0.06742981254505377
  0
VERTEX
  8
0
  6
CONTINUOUS
 62
     7
 10
82.82467331708943
 20
106.7076259760415
 42
0.08166844053917882
  0
VERTEX
  8
0
  6
CONTINUOUS
 62
     7
 10
82.33064059333196
 20
104.5963959744337
 42
0.08459477638469633
  0
VERTEX
  8
0
  6
CONTINUOUS
 62
     7
 10
82.55963272828616
 20
102.4420147517209
 42
0.07329270125282146
  0
VERTEX
  8
0
  6
CONTINUOUS
 62
     7
 10
83.450961432009
 20
100.4649752223319
 42
0.05772545257188925
  0
VERTEX
  8
0
  6
CONTINUOUS
 62
     7
 10
84.82484216448293
 20
98.78322645131638
 42
0.04511839437265185
  0
VERTEX
  8
0
  6
CONTINUOUS
 62
     7
 10
86.5135754807899
 20
97.41383794695845
 42
0.03644358498484498
  0
VERTEX
  8
0
  6
CONTINUOUS
 62
     7
 10
88.40203295733912
 20
96.33456871092037
 42
0.0307795477214448
  0
VERTEX
  8
0
  6
CONTINUOUS
 62
     7
 10
90.41854933196075
 20
95.51642896970566
 42
0.02716362609666264
  0
VERTEX
  8
0
  6
CONTINUOUS
 62
     7
 10
92.51618382328598
 20
94.93590259877733
 42
0.0249862099646096
  0
VERTEX
  8
0
  6
CONTINUOUS
 62
     7
 10
94.66319320546128
 20
94.57613814828434
 42
0
  0
SEQEND
  8
0
  0
POLYLINE
  8
0
  6
CONTINUOUS
 62
     7
 66
     1
 10
0
 20
0
  0
VERTEX
  8
0
  6
CONTINUOUS
 62
     7
 10
19.31767520581221
 20
91.52673020834173
 42
-0.2442633211874997
  0
VERTEX
  8
0
  6
CONTINUOUS
 62
     7
 10
27.20717260886988
 20
85.59238925437818
 42
-0.06190651072605304
  0
VERTEX
  8
0
  6
CONTINUOUS
 62
     7
 10
30.41308048815754
 20
75.89444757222756
 42
-0.03500334931562529
  0
VERTEX
  8
0
  6
CONTINUOUS
 62
     7
 10
32.00453910331587
 20
65.78396265174405
 42
-0.03772116661454021
  0
VERTEX
  8
0
  6
CONTINUOUS
 62
     7
 10
32.10362208415076
 20
55.55158259747773
 42
-0.03573576742919673
  0
VERTEX
  8
0
  6
CONTINUOUS
 62
     7
 10
30.69186147161886
 20
45.41545754571845
 42
-0.0001822504582268402
  0
VERTEX
  8
0
  6
CONTINUOUS
 62
     7
 10
28.40775875215819
 20
35.43061563448006
 42
0.05693372534297616
  0
VERTEX
  8
0
  6
CONTINUOUS
 62
     7
 10
27.23699640438369
 20
25.27676216901849
 42
0.08097263523056464
  0
VERTEX
  8
0
  6
CONTINUOUS
 62
     7
 10
29.28486109593908
 20
15.28601943630111
 42
-0.1093845844236487
  0
VERTEX
  8
0
  6
CONTINUOUS
 62
     7
 10
30.85393547200614
 20
5.249337581558501
 42
-0.1309865054268181
  0
VERTEX
  8
0
  6
CONTINUOUS
 62
     7
 10
27.0785007437892
 20
-4.147193204645556
 42
-0.1104411517259435
  0
VERTEX
  8
0
  6
CONTINUOUS
 62
     7
 10
19.31754686179859
 20
-10.70456231056253
 42
0
  0
SEQEND
  8
0
  0
POLYLINE
  8
0
  6
CONTINUOUS
 62
     7
 66
     1
 10
0
 20
0
  0
VERTEX
  8
0
  6
CONTINUOUS
 62
     7
 10
88.79097342605195
 20
355.7312603194634
 42
0.01877320204380746
  0
VERTEX
  8
0
  6
CONTINUOUS
 62
     7
 10
87.49297000166068
 20
355.4457716720485
 42
0.01927661339494797
  0
VERTEX
  8
0
  6
CONTINUOUS
 62
     7
 10
86.22033184115359
 20
355.0624644697717
 42
0.01993981413699763
  0
VERTEX
  8
0
  6
CONTINUOUS
 62
     7
 10
84.98146153980042
 20
354.5806244339181
 42
0.02077012826227958
  0
VERTEX
  8
0
  6
CONTINUOUS
 62
     7
 10
83.78566004949931
 20
353.9995942015707
 42
0.02177343781009956
  0
VERTEX
  8
0
  6
CONTINUOUS
 62
     7
 10
82.64332918270148
 20
353.3189893698349
 42
0.02295110483585495
  0
VERTEX
  8
0
  6
CONTINUOUS
 62
     7
 10
81.56615093808793
 20
352.5390027908607
 42
0.02429530793695124
  0
VERTEX
  8
0
  6
CONTINUOUS
 62
     7
 10
80.5672071335691
 20
351.6608186717002
 42
0.02578255423788809
  0
VERTEX
  8
0
  6
CONTINUOUS
 62
     7
 10
79.66097974074341
 20
350.6871500313383
 42
0.02736576523873373
  0
VERTEX
  8
0
  6
CONTINUOUS
 62
     7
 10
78.86314649019255
 20
349.6228894545849
 42
0.02896671479330781
  0
VERTEX
  8
0
  6
CONTINUOUS
 62
     7
 10
78.19006902571248
 20
348.4758158242922
 42
0.03047269822506986
  0
VERTEX
  8
0
  6
CONTINUOUS
 62
     7
 10
77.65788482502714
 20
347.2572271727933
 42
0.03174311906064104
  0
VERTEX
  8
0
  6
CONTINUOUS
 62
     7
 10
77.28118932992007
 20
345.9822902152745
 42
0.03263070933569268
  0
VERTEX
  8
0
  6
CONTINUOUS
 62
     7
 10
77.07144639454869
 20
344.6698606464606
 42
0.03300560628846608
  0
VERTEX
  8
0
  6
CONTINUOUS
 62
     7
 10
77.03543827510983
 20
343.3420126106033
 42
0.03282506099818402
  0
VERTEX
  8
0
  6
CONTINUOUS
 62
     7
 10
77.17412316836332
 20
342.0215380394948
 42
0.03213885658789855
  0
VERTEX
  8
0
  6
CONTINUOUS
 62
     7
 10
77.48295074827419
 20
340.7296568605533
 42
0
  0
SEQEND
  8
0
  0
POLYLINE
  8
0
  6
CONTINUOUS
 62
     7
 66
     1
 10
0
 20
0
  0
VERTEX
  8
0
  6
CONTINUOUS
 62
     7
 10
94.74143814844359
 20
338.6308744736139
 42
0.03328152449770923
  0
VERTEX
  8
0
  6
CONTINUOUS
 62
     7
 10
92.43274176882545
 20
338.1436373036211
 42
0.03501430497472295
  0
VERTEX
  8
0
  6
CONTINUOUS
 62
     7
 10
90.21120308081261
 20
337.3470053891157
 42
0.03767572788928877
  0
VERTEX
  8
0
  6
CONTINUOUS
 62
     7
 10
88.12726832979486
 20
336.23709637237
 42
0.041288574151354
  0
VERTEX
  8
0
  6
CONTINUOUS
 62
     7
 10
86.24363451744726
 20
334.8140699260686
 42
0.04577595624121473
  0
VERTEX
  8
0
  6
CONTINUOUS
 62
     7
 10
84.6355552673182
 20
333.0878498015426
 42
0.05079133519108159
  0
VERTEX
  8
0
  6
CONTINUOUS
 62
     7
 10
83.38870734685713
 20
331.085953520124
 42
0.0554345120758
  0
VERTEX
  8
0
  6
CONTINUOUS
 62
     7
 10
82.59211445561959
 20
328.8660787804386
 42
0.0582592567152842
  0
VERTEX
  8
0
  6
CONTINUOUS
 62
     7
 10
82.31761932373048
 20
326.5261840820313
 42
0.0582691965767032
  0
VERTEX
  8
0
  6
CONTINUOUS
 62
     7
 10
82.59221166457314
 20
324.1858776796955
 42
0.05540491037771129
  0
VERTEX
  8
0
  6
CONTINUOUS
 62
     7
 10
83.38832967587138
 20
321.9671843715289
 42
0.05077554821373526
  0
VERTEX
  8
0
  6
CONTINUOUS
 62
     7
 10
84.63450371239441
 20
319.9658733696035
 42
0.04577053611856627
  0
VERTEX
  8
0
  6
CONTINUOUS
 62
     7
 10
86.24199733173865
 20
318.239752402296
 42
0.04127496490281436
  0
VERTEX
  8
0
  6
CONTINUOUS
 62
     7
 10
88.12454536859019
 20
316.8169824863969
 42
0.03766513381467175
  0
VERTEX
  8
0
  6
CONTINUOUS
 62
     7
 10
90.20735636621674
 20
315.7070351360075
 42
0.03502822799749273
  0
VERTEX
  8
0
  6
CONTINUOUS
 62
     7
 10
92.42935919629207
 20
314.9096585830843
 42
0.03330681677298078
  0
VERTEX
  8
0
  6
CONTINUOUS
 62
     7
 10
94.73961996316686
 20
314.4217239373575
 42
0
  0
SEQEND
  8
0
  0
POLYLINE
  8
0
  6
CONTINUOUS
 62
     7
 66
     1
 10
0
 20
0
  0
VERTEX
  8
0
  6
CONTINUOUS
 62
     7
 10
19.3176155090332
 20
417.0820007324219
 42
-0.0781638588970822
  0
VERTEX
  8
0
  6
CONTINUOUS
 62
     7
 10
26.04413534809556
 20
409.5097063939525
 42
-0.1157347339740685
  0
VERTEX
  8
0
  6
CONTINUOUS
 62
     7
 10
29.27301513150871
 20
399.9599767682541
 42
-0.04715372077338503
  0
VERTEX
  8
0
  6
CONTINUOUS
 62
     7
 10
29.26061771057338
 20
389.805934371416
 42
0.001971474918412015
  0
VERTEX
  8
0
  6
CONTINUOUS
 62
     7
 10
28.43464340013015
 20
379.6695675515928
 42
0.01666007499940015
  0
VERTEX
  8
0
  6
CONTINUOUS
 62
     7
 10
27.99694821361845
 20
369.5115747995018
 42
0.006808570963385719
  0
VERTEX
  8
0
  6
CONTINUOUS
 62
     7
 10
28.25438874034187
 20
359.3455671379768
 42
-0.1334553434108242
  0
VERTEX
  8
0
  6
CONTINUOUS
 62
     7
 10
26.14631727757608
 20
349.5193912625578
 42
-0.1041055966184153
  0
VERTEX
  8
0
  6
CONTINUOUS
 62
     7
 10
19.3176155090332
 20
342.0820007324219
 42
0
  0
SEQEND
  8
0
  0
POLYLINE
  8
0
  6
CONTINUOUS
 62
     7
 66
     1
 10
0
 20
0
  0
VERTEX
  8
0
  6
CONTINUOUS
 62
     7
 10
163.5795747879162
 20
394.0403644454203
 42
0.0418869199982775
  0
VERTEX
  8
0
  6
CONTINUOUS
 62
     7
 10
164.019705688716
 20
392.8123851727211
 42
0.04165559636298813
  0
VERTEX
  8
0
  6
CONTINUOUS
 62
     7
 10
164.6579502465676
 20
391.674456040141
 42
0.04136485841419556
  0
VERTEX
  8
0
  6
CONTINUOUS
 62
     7
 10
165.475404711306
 20
390.6575952898051
 42
0.04106105922607314
  0
VERTEX
  8
0
  6
CONTINUOUS
 62
     7
 10
166.4487130023462
 20
389.7884512187564
 42
0.04077367481030294
  0
VERTEX
  8
0
  6
CONTINUOUS
 62
     7
 10
167.5507850889835
 20
389.0892632231569
 42
0.04052906794773675
  0
VERTEX
  8
0
  6
CONTINUOUS
 62
     7
 10
168.7516455521792
 20
388.5775077453993
 42
0.04034774979674068
  0
VERTEX
  8
0
  6
CONTINUOUS
 62
     7
 10
170.0192233533199
 20
388.2656912213621
 42
0.04023569854257741
  0
VERTEX
  8
0
  6
CONTINUOUS
 62
     7
 10
171.3198507393077
 20
388.1612246568896
 42
0.04022884956913785
  0
VERTEX
  8
0
  6
CONTINUOUS
 62
     7
 10
172.6201966129265
 20
388.2663520047281
 42
0.04031599865623306
  0
VERTEX
  8
0
  6
CONTINUOUS
 62
     7
 10
173.8866284568332
 20
388.5784845986102
 42
0.04051172969268684
  0
VERTEX
  8
0
  6
CONTINUOUS
 62
     7
 10
175.0867844786661
 20
389.0904322855634
 42
0.04075994656517883
  0
VERTEX
  8
0
  6
CONTINUOUS
 62
     7
 10
176.1882738837359
 20
389.7896912271556
 42
0.04105999637892353
  0
VERTEX
  8
0
  6
CONTINUOUS
 62
     7
 10
177.161323553356
 20
390.6590515021765
 42
0.04137753781257601
  0
VERTEX
  8
0
  6
CONTINUOUS
 62
     7
 10
177.9787342733954
 20
391.6764384873944
 42
0.04167518698817303
  0
VERTEX
  8
0
  6
CONTINUOUS
 62
     7
 10
178.616879092665
 20
392.8151055233109
 42
0.04191607587232064
  0
VERTEX
  8
0
  6
CONTINUOUS
 62
     7
 10
179.0567687582385
 20
394.0441161234132
 42
0
  0
SEQEND
  8
0
  0
POLYLINE
  8
0
  6
CONTINUOUS
 62
     7
 66
     1
 10
0
 20
0
  0
VERTEX
  8
0
  6
CONTINUOUS
 62
     7
 10
159.7792205810547
 20
394.7942810058594
 42
-0.01902109328030607
  0
VERTEX
  8
0
  6
CONTINUOUS
 62
     7
 10
159.0373345796734
 20
394.9984874148174
 42
-0.01048045990917376
  0
VERTEX
  8
0
  6
CONTINUOUS
 62
     7
 10
158.3086831151392
 20
395.2462093378176
 42
-0.005827269390746844
  0
VERTEX
  8
0
  6
CONTINUOUS
 62
     7
 10
157.5870828898035
 20
395.5148410524009
 42
-0.02972369337186183
  0
VERTEX
  8
0
  6
CONTINUOUS
 62
     7
 10
156.8862505335726
 20
395.8319682202727
 42
-0.05879617539131434
  0
VERTEX
  8
0
  6
CONTINUOUS
 62
     7
 10
156.2531801727911
 20
396.2663233291487
 42
-0.05380099723792436
  0
VERTEX
  8
0
  6
CONTINUOUS
 62
     7
 10
155.7417932290871
 20
396.8395621005644
 42
-0.04813552611518752
  0
VERTEX
  8
0
  6
CONTINUOUS
 62
     7
 10
155.3489028533537
 20
397.5008839851989
 42
-0.05484783603241409
  0
VERTEX
  8
0
  6
CONTINUOUS
 62
     7
 10
155.1033125974731
 20
398.2285057784778
 42
-0.05417228071398474
  0
VERTEX
  8
0
  6
CONTINUOUS
 62
     7
 10
155.0200042724609
 20
398.9916687011719
 42
-0.0542020091155692
  0
VERTEX
  8
0
  6
CONTINUOUS
 62
     7
 10
155.1034044803553
 20
399.7552489752485
 42
-0.05486067752535055
  0
VERTEX
  8
0
  6
CONTINUOUS
 62
     7
 10
155.3491505306754
 20
400.4829853826031
 42
-0.04805888679705048
  0
VERTEX
  8
0
  6
CONTINUOUS
 62
     7
 10
155.7414241448751
 20
401.1432672846014
 42
-0.05381547759313995
  0
VERTEX
  8
0
  6
CONTINUOUS
 62
     7
 10
156.2530075328006
 20
401.7168608089329
 42
-0.05878999911464636
  0
VERTEX
  8
0
  6
CONTINUOUS
 62
     7
 10
156.886098025429
 20
402.1512998409349
 42
-0.02971471689123096
  0
VERTEX
  8
0
  6
CONTINUOUS
 62
     7
 10
157.5865919483477
 20
402.4683566238238
 42
-0.005836783465617518
  0
VERTEX
  8
0
  6
CONTINUOUS
 62
     7
 10
158.3079595615489
 20
402.7369667247517
 42
-0.0104861987086263
  0
VERTEX
  8
0
  6
CONTINUOUS
 62
     7
 10
159.0368908026983
 20
402.9848305137462
 42
-0.01902135174995948
  0
VERTEX
  8
0
  6
CONTINUOUS
 62
     7
 10
159.7787322998047
 20
403.1890563964844
 42
0
  0
SEQEND
  8
0
  0
POLYLINE
  8
0
  6
CONTINUOUS
 62
     7
 66
     1
 10
0
 20
0
  0
VERTEX
  8
0
  6
CONTINUOUS
 62
     7
 10
182.8693883375682
 20
403.1849253184999
 42
0.0248301830399228
  0
VERTEX
  8
0
  6
CONTINUOUS
 62
     7
 10
181.4609974164431
 20
403.5470403734353
 42
0.01364847221903144
  0
VERTEX
  8
0
  6
CONTINUOUS
 62
     7
 10
180.0291520035813
 20
403.8043469066739
 42
0.009382790529256543
  0
VERTEX
  8
0
  6
CONTINUOUS
 62
     7
 10
178.5868653632334
 20
403.9966851056589
 42
0.007275393931608282
  0
VERTEX
  8
0
  6
CONTINUOUS
 62
     7
 10
177.1384701999442
 20
404.1414003329306
 42
0.006095649948700949
  0
VERTEX
  8
0
  6
CONTINUOUS
 62
     7
 10
175.686474943581
 20
404.2475864779851
 42
0.005403400979573286
  0
VERTEX
  8
0
  6
CONTINUOUS
 62
     7
 10
174.2324052815861
 20
404.3204893433039
 42
0.005011271187421256
  0
VERTEX
  8
0
  6
CONTINUOUS
 62
     7
 10
172.7770179172464
 20
404.3631837669129
 42
0.004832083732850071
  0
VERTEX
  8
0
  6
CONTINUOUS
 62
     7
 10
171.3210923690725
 20
404.3772887406338
 42
0.00483133833458841
  0
VERTEX
  8
0
  6
CONTINUOUS
 62
     7
 10
169.8652721084271
 20
404.3633184841711
 42
0.005006473239240178
  0
VERTEX
  8
0
  6
CONTINUOUS
 62
     7
 10
168.4108751359665
 20
404.3208027564697
 42
0.005400885097262957
  0
VERTEX
  8
0
  6
CONTINUOUS
 62
     7
 10
166.9567177796878
 20
404.2480668094193
 42
0.006091148482896666
  0
VERTEX
  8
0
  6
CONTINUOUS
 62
     7
 10
165.5046435256534
 20
404.1420666018254
 42
0.007269855108443159
  0
VERTEX
  8
0
  6
CONTINUOUS
 62
     7
 10
164.0557523676543
 20
403.9975231309818
 42
0.009378779576618979
  0
VERTEX
  8
0
  6
CONTINUOUS
 62
     7
 10
162.6120369097698
 20
403.8052445867438
 42
0.01364228778895125
  0
VERTEX
  8
0
  6
CONTINUOUS
 62
     7
 10
161.1785227252121
 20
403.547919243365
 42
0.02480857460883714
  0
VERTEX
  8
0
  6
CONTINUOUS
 62
     7
 10
159.7686267991732
 20
403.1857775620501
 42
0
  0
SEQEND
  8
0
  0
POLYLINE
  8
0
  6
CONTINUOUS
 62
     7
 66
     1
 10
0
 20
0
  0
VERTEX
  8
0
  6
CONTINUOUS
 62
     7
 10
182.8560638427734
 20
394.7942810058594
 42
0.01901719329675973
  0
VERTEX
  8
0
  6
CONTINUOUS
 62
     7
 10
183.5979565998947
 20
394.9984824740685
 42
0.01048147890366173
  0
VERTEX
  8
0
  6
CONTINUOUS
 62
     7
 10
184.3266167912763
 20
395.2461948651814
 42
0.005828949537304184
  0
VERTEX
  8
0
  6
CONTINUOUS
 62
     7
 10
185.0482225865944
 20
395.5148252882038
 42
0.02972247381439666
  0
VERTEX
  8
0
  6
CONTINUOUS
 62
     7
 10
185.7490615684702
 20
395.8319503258019
 42
0.05879520872845568
  0
VERTEX
  8
0
  6
CONTINUOUS
 62
     7
 10
186.3821411039663
 20
396.2663018007298
 42
0.05380222322811216
  0
VERTEX
  8
0
  6
CONTINUOUS
 62
     7
 10
186.8935362014069
 20
396.8395400499315
 42
0.04813549971090669
  0
VERTEX
  8
0
  6
CONTINUOUS
 62
     7
 10
187.2864332504396
 20
397.5008639425822
 42
0.05487659544257933
  0
VERTEX
  8
0
  6
CONTINUOUS
 62
     7
 10
187.5319734294713
 20
398.2285049585034
 42
0.05415676635065739
  0
VERTEX
  8
0
  6
CONTINUOUS
 62
     7
 10
187.6153411865234
 20
398.9916687011719
 42
0.05418624781462162
  0
VERTEX
  8
0
  6
CONTINUOUS
 62
     7
 10
187.531881761366
 20
399.755249048057
 42
0.05488944054697902
  0
VERTEX
  8
0
  6
CONTINUOUS
 62
     7
 10
187.2861856515624
 20
400.4830053582452
 42
0.04805876225593352
  0
VERTEX
  8
0
  6
CONTINUOUS
 62
     7
 10
186.893905305005
 20
401.1432893467926
 42
0.05381674756634933
  0
VERTEX
  8
0
  6
CONTINUOUS
 62
     7
 10
186.3823138163334
 20
401.7168822251962
 42
0.05878926351403142
  0
VERTEX
  8
0
  6
CONTINUOUS
 62
     7
 10
185.7492145604881
 20
402.1513175919452
 42
0.02971347199890412
  0
VERTEX
  8
0
  6
CONTINUOUS
 62
     7
 10
185.0487138179502
 20
402.4683721769394
 42
0.005838370890027516
  0
VERTEX
  8
0
  6
CONTINUOUS
 62
     7
 10
184.3273405025604
 20
402.7369812775943
 42
0.01048739289941914
  0
VERTEX
  8
0
  6
CONTINUOUS
 62
     7
 10
183.5983962904073
 20
402.984836694717
 42
0.01901716268113711
  0
VERTEX
  8
0
  6
CONTINUOUS
 62
     7
 10
182.8565521240234
 20
403.1890563964844
 42
0
  0
SEQEND
  8
0
  0
POLYLINE
  8
0
  6
CONTINUOUS
 62
     7
 66
     1
 10
0
 20
0
  0
VERTEX
  8
0
  6
CONTINUOUS
 62
     7
 10
158.1676483154297
 20
395.8896179199219
 42
0.1945678779481829
  0
VERTEX
  8
0
  6
CONTINUOUS
 62
     7
 10
161.1097904084096
 20
394.4501141097334
 42
0.02554539515686908
  0
VERTEX
  8
0
  6
CONTINUOUS
 62
     7
 10
164.4884012530924
 20
393.938252175421
 42
0.01446912042138684
  0
VERTEX
  8
0
  6
CONTINUOUS
 62
     7
 10
167.8978114282591
 20
393.6847421292964
 42
0.01163093268934774
  0
VERTEX
  8
0
  6
CONTINUOUS
 62
     7
 10
171.3176727294922
 20
393.6061706542969
 42
0.01162460429329484
  0
VERTEX
  8
0
  6
CONTINUOUS
 62
     7
 10
174.7357890395293
 20
393.6846598051301
 42
0.01447194698141877
  0
VERTEX
  8
0
  6
CONTINUOUS
 62
     7
 10
178.1463045893681
 20
393.938183734462
 42
0.02555996167654416
  0
VERTEX
  8
0
  6
CONTINUOUS
 62
     7
 10
181.5266452830629
 20
394.4503465833319
 42
0.195282391714878
  0
VERTEX
  8
0
  6
CONTINUOUS
 62
     7
 10
184.4676910905759
 20
395.8918089003178
 42
0.1938955516856391
  0
VERTEX
  8
0
  6
CONTINUOUS
 62
     7
 10
181.5234054141156
 20
397.3295812466939
 42
0.02553113147661246
  0
VERTEX
  8
0
  6
CONTINUOUS
 62
     7
 10
178.1447551936248
 20
397.8412146142777
 42
0.01446583190088156
  0
VERTEX
  8
0
  6
CONTINUOUS
 62
     7
 10
174.7353339926453
 20
398.0945965678392
 42
0.01162286901854418
  0
VERTEX
  8
0
  6
CONTINUOUS
 62
     7
 10
171.3176727294922
 20
398.1730651855469
 42
0.01162460429329457
  0
VERTEX
  8
0
  6
CONTINUOUS
 62
     7
 10
167.8995564194551
 20
398.0945760347137
 42
0.0144719469813864
  0
VERTEX
  8
0
  6
CONTINUOUS
 62
     7
 10
164.4890408696162
 20
397.8410521053817
 42
0.02555996167657354
  0
VERTEX
  8
0
  6
CONTINUOUS
 62
     7
 10
161.1087001759215
 20
397.3288892565118
 42
0.1952823917148865
  0
VERTEX
  8
0
  6
CONTINUOUS
 62
     7
 10
158.1676543684085
 20
395.8874269395259
 42
0
  0
SEQEND
  8
0
  0
TEXT
  8
0
  6
CONTINUOUS
 62
     7
 10
-399.1109428405762
 20
370.5820007324219
 40
18
 41
0.982343529047591
  1
ERKV-C-750
  0
ENDSEC
  0
EOF
