  0
SECTION
  2
HEADER
  0
ENDSEC
  0
SECTION
  2
TABLES
  0
TABLE
  2
LTYPE
 70
    22
  0
LTYPE
  2
CONTINUOUS
 70
    64
  3
Solid line
 72
    65
 73
     0
 40
0.000000
  0
LTYPE
  2
DASHED
 70
    64
  3
__ __ __ __ __ __ __ __ __ __ __ __ __ __ __
 72
    65
 73
     2
 40
3.500000
 49
2.000000
 49
-1.500000
  0
LTYPE
  2
CENTER
 70
    64
  3
____ _ ____ _ ____ _ ____ _ ____ _ ____ _ ____
 72
    65
 73
     4
 40
17.500000
 49
13.000000
 49
-1.500000
 49
1.500000
 49
-1.500000
  0
LTYPE
  2
PHANTOM
 70
    64
  3
_____ _ _ _____ _ _ _____ _ _ _____ _ _ ____  
 72
    65
 73
     6
 40
15.500000
 49
8.000000
 49
-1.500000
 49
1.500000
 49
-1.500000
 49
1.500000
 49
-1.500000
  0
LTYPE
  2
DOT
 70
    64
  3
. . . . . . . . . . . . . . . . . . . . . . . .
 72
    65
 73
     2
 40
0.25
 49
0.0
 49
-0.25
  0
ENDTAB
  0
TABLE
  2
LAYER
 70
     1
  0
LAYER
  2
0
 70
     0
 62
     7
  6
CONTINUOUS
  0
ENDTAB
  0
TABLE
  2
STYLE
 70
     1
  0
STYLE
  2
STANDARD
 70
     0
 40
0.000000
 41
1.000000
 50
0.000000
 71
     0
 42
0.200000
  3
txt
  4
BIGFONT
  0
ENDTAB
  0
TABLE
  2
VIEW
 70
     0
  0
ENDTAB
  0
ENDSEC
  0
SECTION
  2
BLOCKS
  0
ENDSEC
  0
SECTION
  2
ENTITIES
  0
LINE
  8
0
  6
CONTINUOUS
 62
     3
 10
512.0857543945312
 20
-153.7516479492188
 11
512.0857543945312
 21
-82.25165557861328
  0
LINE
  8
0
  6
CONTINUOUS
 62
     3
 10
512.0857543945312
 20
-10.75167846679688
 11
512.0857543945312
 21
-82.25165557861328
  0
LINE
  8
0
  6
CONTINUOUS
 62
     3
 10
572.0857543945313
 20
-82.25165557861328
 11
349.0857849121094
 21
-82.25165557861328
  0
LINE
  8
0
  6
CONTINUOUS
 62
     7
 10
512.0857543945312
 20
-9.751655578613281
 11
512.0857543945312
 21
-154.7516479492187
  0
LINE
  8
0
  6
CONTINUOUS
 62
     7
 10
475.5857543945312
 20
-157.2516479492187
 11
508.5857543945312
 21
-157.2516479492187
  0
LINE
  8
0
  6
CONTINUOUS
 62
     7
 10
472.0857543945313
 20
-9.751655578613281
 11
472.0857543945313
 21
-154.7516479492187
  0
LINE
  8
0
  6
CONTINUOUS
 62
     7
 10
475.5857543945312
 20
-7.251655578613281
 11
508.5857543945312
 21
-7.251655578613281
  0
LINE
  8
0
  6
CONTINUOUS
 62
     7
 10
475.5857849121094
 20
-7.251625537872314
 11
472.0857849121094
 21
-11.41252040863037
  0
LINE
  8
0
  6
CONTINUOUS
 62
     7
 10
508.5857543945312
 20
-7.251637935638428
 11
512.0857543945312
 21
-11.41255664825439
  0
LINE
  8
0
  6
CONTINUOUS
 62
     7
 10
475.5857543945312
 20
-157.2516021728516
 11
472.0857849121094
 21
-153.0907592773438
  0
LINE
  8
0
  6
CONTINUOUS
 62
     7
 10
508.5857849121094
 20
-157.2516479492187
 11
512.0858154296875
 21
-153.0907592773438
  0
LINE
  8
0
  6
CONTINUOUS
 62
     7
 10
475.5857543945312
 20
-52.81695556640625
 11
508.5857543945312
 21
-52.81695556640625
  0
LINE
  8
0
  6
CONTINUOUS
 62
     7
 10
475.5857543945312
 20
-61.50693893432617
 11
508.5857543945312
 21
-61.50693893432617
  0
LINE
  8
0
  6
CONTINUOUS
 62
     7
 10
475.5857543945312
 20
-69.30188751220703
 11
508.5857543945312
 21
-69.30188751220703
  0
LINE
  8
0
  6
CONTINUOUS
 62
     7
 10
475.5857543945312
 20
-78.25171661376953
 11
508.5857543945312
 21
-78.25171661376953
  0
LINE
  8
0
  6
CONTINUOUS
 62
     7
 10
475.5857543945312
 20
-86.25174713134766
 11
508.5857543945312
 21
-86.25174713134766
  0
LINE
  8
0
  6
CONTINUOUS
 62
     7
 10
475.5857543945312
 20
-95.20157623291016
 11
508.5857543945312
 21
-95.20157623291016
  0
LINE
  8
0
  6
CONTINUOUS
 62
     7
 10
475.5857543945312
 20
-102.9965362548828
 11
508.5857543945312
 21
-102.9965362548828
  0
LINE
  8
0
  6
CONTINUOUS
 62
     7
 10
475.5857543945312
 20
-111.6864471435547
 11
508.5857543945312
 21
-111.6864471435547
  0
LINE
  8
0
  6
CONTINUOUS
 62
     7
 10
475.5857543945312
 20
-127.27490234375
 11
508.5857543945312
 21
-127.27490234375
  0
LINE
  8
0
  6
CONTINUOUS
 62
     7
 10
475.5857543945312
 20
-134.2970886230469
 11
508.5857543945312
 21
-134.2970886230469
  0
LINE
  8
0
  6
CONTINUOUS
 62
     7
 10
475.5857543945312
 20
-139.7530822753906
 11
508.5857543945312
 21
-139.7530822753906
  0
LINE
  8
0
  6
CONTINUOUS
 62
     7
 10
475.5857543945312
 20
-145.1110992431641
 11
508.5857543945312
 21
-145.1110992431641
  0
LINE
  8
0
  6
CONTINUOUS
 62
     7
 10
475.5857543945312
 20
-149.111083984375
 11
508.5857543945312
 21
-149.111083984375
  0
LINE
  8
0
  6
CONTINUOUS
 62
     7
 10
475.5857543945312
 20
-152.7029571533203
 11
508.5857543945312
 21
-152.7029571533203
  0
LINE
  8
0
  6
CONTINUOUS
 62
     7
 10
399.0857543945313
 20
17.74833106994629
 11
399.0857543945313
 21
-33.79610061645508
  0
LINE
  8
0
  6
CONTINUOUS
 62
     7
 10
399.0857543945313
 20
17.74833106994629
 11
413.0857543945312
 21
17.74833106994629
  0
LINE
  8
0
  6
CONTINUOUS
 62
     7
 10
399.0857543945313
 20
-182.2516479492187
 11
413.0857543945312
 21
-182.2516479492187
  0
LINE
  8
0
  6
CONTINUOUS
 62
     7
 10
413.0857543945312
 20
17.74833106994629
 11
413.0857543945312
 21
-182.2516479492187
  0
LINE
  8
0
  6
CONTINUOUS
 62
     7
 10
460.0857543945313
 20
-9.751655578613281
 11
460.0857543945313
 21
-14.259521484375
  0
LINE
  8
0
  6
CONTINUOUS
 62
     7
 10
460.0857543945313
 20
-9.751655578613281
 11
472.0857543945313
 21
-9.751655578613281
  0
LINE
  8
0
  6
CONTINUOUS
 62
     7
 10
460.0857543945313
 20
-154.7516479492187
 11
472.0857543945313
 21
-154.7516479492187
  0
LINE
  8
0
  6
CONTINUOUS
 62
     7
 10
423.0857543945312
 20
-114.4630889892578
 11
452.0857543945312
 21
-114.4630889892578
  0
LINE
  8
0
  6
CONTINUOUS
 62
     7
 10
423.0857543945312
 20
-51.78434371948242
 11
452.0857543945312
 21
-51.78434371948242
  0
LINE
  8
0
  6
CONTINUOUS
 62
     7
 10
395.0857543945313
 20
-17.25165557861328
 11
399.0857543945313
 21
-17.25165557861328
  0
LINE
  8
0
  6
CONTINUOUS
 62
     7
 10
395.0857543945313
 20
-147.2516479492188
 11
399.0857543945313
 21
-147.2516479492188
  0
LINE
  8
0
  6
CONTINUOUS
 62
     7
 10
359.0857849121094
 20
-65.25164794921875
 11
359.0857849121094
 21
-96.25165557861328
  0
LINE
  8
0
  6
CONTINUOUS
 62
     7
 10
359.0857849121094
 20
-68.25165557861328
 11
399.0857543945313
 21
-68.25165557861328
  0
LINE
  8
0
  6
CONTINUOUS
 62
     7
 10
359.0857849121094
 20
-96.25165557861328
 11
399.0857543945313
 21
-96.25165557861328
  0
LINE
  8
0
  6
CONTINUOUS
 62
     7
 10
399.0857543945313
 20
-64.75165557861328
 11
399.0857543945313
 21
-99.75165557861328
  0
LINE
  8
0
  6
CONTINUOUS
 62
     7
 10
399.0857543945313
 20
-64.75165557861328
 11
402.6985778808594
 21
-64.75165557861328
  0
LINE
  8
0
  6
CONTINUOUS
 62
     7
 10
399.0857543945313
 20
-99.75165557861328
 11
403.2392578125
 21
-99.75165557861328
  0
LINE
  8
0
  6
CONTINUOUS
 62
     7
 10
399.0857543945313
 20
-110.3085479736328
 11
399.0857543945313
 21
-182.2516479492187
  0
LINE
  8
0
  6
CONTINUOUS
 62
     7
 10
395.0857543945313
 20
-17.25165557861328
 11
395.0857543945313
 21
-29.40619659423828
  0
LINE
  8
0
  6
CONTINUOUS
 62
     7
 10
395.0857543945313
 20
-114.7516555786133
 11
395.0857543945313
 21
-147.2516479492188
  0
LINE
  8
0
  6
CONTINUOUS
 62
     7
 10
359.0857849121094
 20
-65.25164794921875
 11
391.0857543945312
 21
-65.25164794921875
  0
LINE
  8
0
  6
CONTINUOUS
 62
     7
 10
391.0857543945312
 20
-65.25164794921875
 11
391.0857543945312
 21
-68.25165557861328
  0
LINE
  8
0
  6
CONTINUOUS
 62
     7
 10
413.0857849121094
 20
-143.8163299560547
 11
460.0858154296875
 21
-130.6348266601563
  0
LINE
  8
0
  6
CONTINUOUS
 62
     7
 10
413.0857238769531
 20
-149.2722778320312
 11
460.0857543945313
 21
-136.0907745361328
  0
LINE
  8
0
  6
CONTINUOUS
 62
     7
 10
442.0857543945312
 20
-33.86850357055664
 11
460.0857543945313
 21
-33.86850357055664
  0
LINE
  8
0
  6
CONTINUOUS
 62
     7
 10
413.0857849121094
 20
-15.23099899291992
 11
438.3607482910156
 21
-26.7193431854248
  0
LINE
  8
0
  6
CONTINUOUS
 62
     7
 10
413.0857543945312
 20
-20.68698883056641
 11
442.0857543945312
 21
-33.86848068237305
  0
LINE
  8
0
  6
CONTINUOUS
 62
     7
 10
457.0857543945312
 20
-14.259521484375
 11
460.0857543945313
 21
-14.259521484375
  0
LINE
  8
0
  6
CONTINUOUS
 62
     7
 10
460.0857543945313
 20
-33.86850357055664
 11
460.0857543945313
 21
-154.7516479492187
  0
LINE
  8
0
  6
CONTINUOUS
 62
     7
 10
441.0602722167969
 20
-25.60273933410645
 11
442.5196228027344
 21
-21.72311019897461
  0
LINE
  8
0
  6
CONTINUOUS
 62
     3
 10
572.0857543945313
 20
217.7483520507813
 11
349.0857849121094
 21
217.7483520507813
  0
LINE
  8
0
  6
CONTINUOUS
 62
     7
 10
472.0857543945313
 20
290.2483215332031
 11
472.0857543945313
 21
145.2483367919922
  0
LINE
  8
0
  6
CONTINUOUS
 62
     7
 10
475.5857543945312
 20
292.7483520507813
 11
508.5857543945312
 21
292.7483520507813
  0
LINE
  8
0
  6
CONTINUOUS
 62
     7
 10
475.5857238769531
 20
292.7483215332031
 11
472.0857543945313
 21
288.5874633789063
  0
LINE
  8
0
  6
CONTINUOUS
 62
     7
 10
508.5857543945312
 20
292.7483215332031
 11
512.0857543945312
 21
288.5874328613281
  0
LINE
  8
0
  6
CONTINUOUS
 62
     7
 10
508.5857849121094
 20
142.7483520507813
 11
512.0858154296875
 21
146.9092407226562
  0
LINE
  8
0
  6
CONTINUOUS
 62
     7
 10
475.5857543945312
 20
142.7483367919922
 11
508.5857543945312
 21
142.7483367919922
  0
LINE
  8
0
  6
CONTINUOUS
 62
     7
 10
475.5857849121094
 20
142.7483520507813
 11
472.0857849121094
 21
146.9092102050781
  0
LINE
  8
0
  6
CONTINUOUS
 62
     7
 10
475.5857543945312
 20
289.822265625
 11
508.5857543945312
 21
289.822265625
  0
LINE
  8
0
  6
CONTINUOUS
 62
     7
 10
475.5857543945312
 20
286.7308654785156
 11
508.5857543945312
 21
286.7308654785156
  0
LINE
  8
0
  6
CONTINUOUS
 62
     7
 10
475.5857543945312
 20
277.7308349609375
 11
508.5857543945312
 21
277.7308349609375
  0
LINE
  8
0
  6
CONTINUOUS
 62
     7
 10
475.5857543945312
 20
271.7509155273438
 11
508.5857543945312
 21
271.7509155273438
  0
LINE
  8
0
  6
CONTINUOUS
 62
     7
 10
475.5857543945312
 20
258.6591491699219
 11
508.5857543945312
 21
258.6591491699219
  0
LINE
  8
0
  6
CONTINUOUS
 62
     7
 10
475.5857543945312
 20
265.9000549316406
 11
508.5857543945312
 21
265.9000549316406
  0
LINE
  8
0
  6
CONTINUOUS
 62
     7
 10
475.5857543945312
 20
251.7309265136719
 11
508.5857543945312
 21
251.7309265136719
  0
LINE
  8
0
  6
CONTINUOUS
 62
     7
 10
475.5857543945312
 20
243.4703063964844
 11
508.5857543945312
 21
243.4703063964844
  0
LINE
  8
0
  6
CONTINUOUS
 62
     7
 10
475.5857543945312
 20
235.8198547363281
 11
504.497314453125
 21
235.8198547363281
  0
LINE
  8
0
  6
CONTINUOUS
 62
     7
 10
475.5857543945312
 20
226.7484130859375
 11
508.5857543945312
 21
226.7484130859375
  0
LINE
  8
0
  6
CONTINUOUS
 62
     7
 10
475.5857543945312
 20
148.7657470703125
 11
508.5857543945312
 21
148.7657470703125
  0
LINE
  8
0
  6
CONTINUOUS
 62
     7
 10
475.5857543945312
 20
145.6743927001953
 11
508.5857543945312
 21
145.6743927001953
  0
LINE
  8
0
  6
CONTINUOUS
 62
     7
 10
399.0857543945313
 20
117.7483749389648
 11
399.0857543945313
 21
188.5875244140625
  0
LINE
  8
0
  6
CONTINUOUS
 62
     7
 10
399.0857543945313
 20
117.7483749389648
 11
413.0857543945312
 21
117.7483749389648
  0
LINE
  8
0
  6
CONTINUOUS
 62
     7
 10
399.0857543945313
 20
317.7483215332031
 11
413.0857543945312
 21
317.7483215332031
  0
LINE
  8
0
  6
CONTINUOUS
 62
     7
 10
413.0857543945312
 20
117.7483749389648
 11
413.0857543945312
 21
317.7483215332031
  0
LINE
  8
0
  6
CONTINUOUS
 62
     7
 10
460.0857543945313
 20
145.2483367919922
 11
472.0857543945313
 21
145.2483367919922
  0
LINE
  8
0
  6
CONTINUOUS
 62
     7
 10
460.0857543945313
 20
290.2483215332031
 11
472.0857543945313
 21
290.2483215332031
  0
LINE
  8
0
  6
CONTINUOUS
 62
     7
 10
460.0857543945313
 20
145.2483367919922
 11
460.0857543945313
 21
163.9021911621094
  0
LINE
  8
0
  6
CONTINUOUS
 62
     7
 10
359.0857849121094
 20
203.7483520507812
 11
359.0857849121094
 21
231.7483520507812
  0
LINE
  8
0
  6
CONTINUOUS
 62
     7
 10
395.0857543945313
 20
152.7483367919922
 11
395.0857543945313
 21
185.2483367919922
  0
LINE
  8
0
  6
CONTINUOUS
 62
     7
 10
395.0857543945313
 20
282.7483520507812
 11
399.0857543945313
 21
282.7483520507812
  0
LINE
  8
0
  6
CONTINUOUS
 62
     7
 10
395.0857543945313
 20
152.7483367919922
 11
399.0857543945313
 21
152.7483367919922
  0
LINE
  8
0
  6
CONTINUOUS
 62
     7
 10
359.0857849121094
 20
231.7483520507812
 11
399.0857543945313
 21
231.7483520507812
  0
LINE
  8
0
  6
CONTINUOUS
 62
     7
 10
359.0857849121094
 20
203.7483520507812
 11
399.0857543945313
 21
203.7483520507812
  0
LINE
  8
0
  6
CONTINUOUS
 62
     7
 10
399.0857543945313
 20
200.2483367919922
 11
399.0857543945313
 21
235.2483367919922
  0
LINE
  8
0
  6
CONTINUOUS
 62
     7
 10
399.0857543945313
 20
235.2483520507812
 11
402.8969116210938
 21
235.2483520507812
  0
LINE
  8
0
  6
CONTINUOUS
 62
     7
 10
399.0857543945313
 20
200.2483520507813
 11
403.4845886230469
 21
200.2483520507813
  0
LINE
  8
0
  6
CONTINUOUS
 62
     7
 10
399.0857543945313
 20
247.0726776123047
 11
399.0857543945313
 21
317.7483215332031
  0
LINE
  8
0
  6
CONTINUOUS
 62
     7
 10
395.0857543945313
 20
250.2483367919922
 11
395.0857543945313
 21
282.7483520507812
  0
LINE
  8
0
  6
CONTINUOUS
 62
     7
 10
359.0857849121094
 20
221.7483520507813
 11
393.0857543945313
 21
221.7483520507813
  0
LINE
  8
0
  6
CONTINUOUS
 62
     7
 10
359.0857849121094
 20
213.7483520507813
 11
393.0857543945313
 21
213.7483520507813
  0
LINE
  8
0
  6
CONTINUOUS
 62
     7
 10
391.0857543945312
 20
213.7483520507813
 11
391.0857543945312
 21
221.7483520507813
  0
LINE
  8
0
  6
CONTINUOUS
 62
     7
 10
423.0857543945312
 20
188.2829284667969
 11
438.407470703125
 21
188.2829284667969
  0
LINE
  8
0
  6
CONTINUOUS
 62
     7
 10
442.5330810546875
 20
173.2014923095703
 11
413.0857849121094
 21
160.7199096679688
  0
LINE
  8
0
  6
CONTINUOUS
 62
     7
 10
445.341552734375
 20
168.5410766601562
 11
413.0857543945312
 21
154.8690490722656
  0
LINE
  8
0
  6
CONTINUOUS
 62
     7
 10
413.0857238769531
 20
280.6276245117188
 11
460.0857543945313
 21
268.3356323242187
  0
LINE
  8
0
  6
CONTINUOUS
 62
     7
 10
413.0857543945312
 20
274.7767639160156
 11
460.0857849121094
 21
262.4847412109375
  0
LINE
  8
0
  6
CONTINUOUS
 62
     7
 10
418.0857543945313
 20
250.8590850830078
 11
455.0857543945313
 21
250.8590850830078
  0
LINE
  8
0
  6
CONTINUOUS
 62
     7
 10
418.0857543945313
 20
226.8490600585937
 11
455.0857543945313
 21
226.8490600585937
  0
LINE
  8
0
  6
CONTINUOUS
 62
     7
 10
453.5592041015625
 20
201.3578186035156
 11
460.0857543945313
 21
201.3578186035156
  0
LINE
  8
0
  6
CONTINUOUS
 62
     7
 10
457.0857543945312
 20
188.451416015625
 11
460.0857543945313
 21
188.451416015625
  0
LINE
  8
0
  6
CONTINUOUS
 62
     7
 10
457.0857543945312
 20
163.9021911621094
 11
460.0857543945313
 21
163.9021911621094
  0
LINE
  8
0
  6
CONTINUOUS
 62
     7
 10
438.920654296875
 20
186.4048614501953
 11
442.4472045898437
 21
173.4984130859375
  0
LINE
  8
0
  6
CONTINUOUS
 62
     7
 10
460.0857543945313
 20
188.451416015625
 11
460.0857543945313
 21
290.2483215332031
  0
LINE
  8
0
  6
CONTINUOUS
 62
     3
 10
-52.41422653198242
 20
-82.25165557861328
 11
169.0858154296875
 21
-82.25165557861328
  0
LINE
  8
0
  6
CONTINUOUS
 62
     3
 10
59.08576202392578
 20
27.74834442138672
 11
59.08576202392578
 21
-192.2516479492187
  0
LINE
  8
0
  6
CONTINUOUS
 62
     7
 10
55.08577346801758
 20
-65.25164794921875
 11
55.08577346801758
 21
-72.25165557861328
  0
LINE
  8
0
  6
CONTINUOUS
 62
     7
 10
63.08575057983398
 20
-65.25164794921875
 11
63.08575057983398
 21
-72.25165557861328
  0
LINE
  8
0
  6
CONTINUOUS
 62
     7
 10
55.08577346801758
 20
-72.25165557861328
 11
63.08575057983398
 21
-72.25165557861328
  0
LINE
  8
0
  6
CONTINUOUS
 62
     7
 10
55.08577346801758
 20
-65.25164794921875
 11
63.08575057983398
 21
-65.25164794921875
  0
LINE
  8
0
  6
CONTINUOUS
 62
     7
 10
527.0857543945312
 20
-154.7516479492187
 11
527.0857543945312
 21
-9.751655578613281
  0
LINE
  8
0
  6
CONTINUOUS
 62
     7
 10
562.0857543945313
 20
-2.251655578613281
 11
562.0857543945313
 21
-162.2516479492188
  0
LINE
  8
0
  6
CONTINUOUS
 62
     7
 10
550.0857543945313
 20
-2.251655578613281
 11
562.0857543945313
 21
-2.251655578613281
  0
LINE
  8
0
  6
CONTINUOUS
 62
     7
 10
550.0857543945313
 20
-2.251655578613281
 11
550.0857543945313
 21
-162.2516479492188
  0
LINE
  8
0
  6
CONTINUOUS
 62
     7
 10
532.0857543945312
 20
-44.25165557861328
 11
545.0857543945312
 21
-44.25165557861328
  0
LINE
  8
0
  6
CONTINUOUS
 62
     7
 10
550.0857543945313
 20
-162.2516479492188
 11
562.0857543945313
 21
-162.2516479492188
  0
LINE
  8
0
  6
CONTINUOUS
 62
     7
 10
532.0857543945312
 20
-120.2516555786133
 11
545.0857543945312
 21
-120.2516555786133
  0
LINE
  8
0
  6
CONTINUOUS
 62
     7
 10
527.0857543945312
 20
-138.2516479492188
 11
550.0857543945313
 21
-138.2516479492188
  0
LINE
  8
0
  6
CONTINUOUS
 62
     7
 10
527.0857543945312
 20
-26.25165557861328
 11
550.0857543945313
 21
-26.25165557861328
  0
LINE
  8
0
  6
CONTINUOUS
 62
     7
 10
512.0857543945312
 20
-154.7516479492187
 11
527.0857543945312
 21
-154.7516479492187
  0
LINE
  8
0
  6
CONTINUOUS
 62
     7
 10
527.0857543945312
 20
-87.25165557861328
 11
550.0857543945313
 21
-87.25165557861328
  0
LINE
  8
0
  6
CONTINUOUS
 62
     7
 10
527.0857543945312
 20
-77.25165557861328
 11
550.0857543945313
 21
-77.25165557861328
  0
LINE
  8
0
  6
CONTINUOUS
 62
     7
 10
518.0857543945313
 20
-9.341584205627441
 11
518.495849609375
 21
-9.751674652099609
  0
LINE
  8
0
  6
CONTINUOUS
 62
     7
 10
520.0858154296875
 20
-9.341497421264648
 11
520.4959106445312
 21
-9.751588821411133
  0
LINE
  8
0
  6
CONTINUOUS
 62
     7
 10
512.0857543945312
 20
-9.751655578613281
 11
527.0857543945312
 21
-9.751655578613281
  0
LINE
  8
0
  6
CONTINUOUS
 62
     7
 10
520.0857543945313
 20
-12.49762725830078
 11
520.0857543945313
 21
26.49248504638672
  0
LINE
  8
0
  6
CONTINUOUS
 62
     7
 10
500.6649780273438
 20
7.658500671386719
 11
539.0418701171875
 21
7.658500671386719
  0
LINE
  8
0
  6
CONTINUOUS
 62
     7
 10
512.0857543945312
 20
-9.341545104980469
 11
512.6759643554687
 21
-5.994136333465576
  0
LINE
  8
0
  6
CONTINUOUS
 62
     7
 10
514.6455688476563
 20
-4.341499328613281
 11
525.5259399414062
 21
-4.341499328613281
  0
LINE
  8
0
  6
CONTINUOUS
 62
     7
 10
513.9554443359375
 20
-4.464488983154297
 11
519.7454833984375
 21
-2.335855007171631
  0
LINE
  8
0
  6
CONTINUOUS
 62
     7
 10
520.4259643554687
 20
-2.335875034332275
 11
526.216064453125
 21
-4.464509010314941
  0
LINE
  8
0
  6
CONTINUOUS
 62
     7
 10
512.08447265625
 20
-9.341499328613281
 11
528.0857543945313
 21
-9.341499328613281
  0
LINE
  8
0
  6
CONTINUOUS
 62
     7
 10
512.3857421875
 20
-9.341499328613281
 11
512.3857421875
 21
-9.751655578613281
  0
LINE
  8
0
  6
CONTINUOUS
 62
     7
 10
527.7857666015625
 20
-9.341499328613281
 11
527.7857666015625
 21
-11.34149932861328
  0
LINE
  8
0
  6
CONTINUOUS
 62
     7
 10
527.0857543945312
 20
-11.34149932861328
 11
527.7857666015625
 21
-11.34149932861328
  0
LINE
  8
0
  6
CONTINUOUS
 62
     7
 10
527.4955444335938
 20
-5.994150161743164
 11
528.0857543945313
 21
-9.341438293457031
  0
LINE
  8
0
  6
CONTINUOUS
 62
     7
 10
512.0857543945312
 20
290.2483520507812
 11
527.0857543945312
 21
290.2483520507812
  0
LINE
  8
0
  6
CONTINUOUS
 62
     7
 10
527.0857543945312
 20
222.7483520507812
 11
550.0857543945313
 21
222.7483520507812
  0
LINE
  8
0
  6
CONTINUOUS
 62
     7
 10
527.0857543945312
 20
212.7483520507813
 11
550.0857543945313
 21
212.7483520507813
  0
LINE
  8
0
  6
CONTINUOUS
 62
     7
 10
512.0857543945312
 20
145.2483520507813
 11
527.0857543945312
 21
145.2483520507813
  0
LINE
  8
0
  6
CONTINUOUS
 62
     7
 10
527.0857543945312
 20
273.7483520507812
 11
550.0857543945313
 21
273.7483520507812
  0
LINE
  8
0
  6
CONTINUOUS
 62
     7
 10
527.0857543945312
 20
161.7483520507813
 11
550.0857543945313
 21
161.7483520507813
  0
LINE
  8
0
  6
CONTINUOUS
 62
     7
 10
532.0857543945312
 20
179.7483520507813
 11
545.0857543945312
 21
179.7483520507813
  0
LINE
  8
0
  6
CONTINUOUS
 62
     7
 10
550.0857543945313
 20
137.7483520507812
 11
562.0857543945313
 21
137.7483520507812
  0
LINE
  8
0
  6
CONTINUOUS
 62
     7
 10
532.0857543945312
 20
255.7483520507812
 11
545.0857543945312
 21
255.7483520507812
  0
LINE
  8
0
  6
CONTINUOUS
 62
     7
 10
550.0857543945313
 20
297.7483520507813
 11
550.0857543945313
 21
137.7483520507812
  0
LINE
  8
0
  6
CONTINUOUS
 62
     7
 10
550.0857543945313
 20
297.7483520507813
 11
562.0857543945313
 21
297.7483520507813
  0
LINE
  8
0
  6
CONTINUOUS
 62
     7
 10
562.0857543945313
 20
297.7483520507813
 11
562.0857543945313
 21
137.7483520507812
  0
LINE
  8
0
  6
CONTINUOUS
 62
     7
 10
527.0857543945312
 20
145.2483520507813
 11
527.0857543945312
 21
226.9190063476563
  0
LINE
  8
0
  6
CONTINUOUS
 62
     7
 10
512.0857543945312
 20
145.2483520507813
 11
512.0857543945312
 21
228.7708129882812
  0
LINE
  8
0
  6
CONTINUOUS
 62
     7
 10
512.0857543945312
 20
238.5994262695312
 11
512.0857543945312
 21
290.2483520507812
  0
LINE
  8
0
  6
CONTINUOUS
 62
     7
 10
527.0857543945312
 20
238.7202758789062
 11
527.0857543945312
 21
290.2483520507812
  0
LINE
  8
0
  6
CONTINUOUS
 62
     7
 10
42.6726188659668
 20
10.8316707611084
 11
39.58400726318359
 21
28.34807205200195
  0
LINE
  8
0
  6
CONTINUOUS
 62
     7
 10
44.01556396484375
 20
21.3553638458252
 11
44.83163070678711
 21
16.72722244262695
  0
LINE
  8
0
  6
CONTINUOUS
 62
     7
 10
37.81128692626953
 20
20.26138305664063
 11
38.62735748291016
 21
15.63323402404785
  0
ARC
  8
0
  6
CONTINUOUS
 62
     7
 10
452.0857543945312
 20
-43.78433609008789
 40
8
 50
269.9999974955219
 51
2.504478065487664E-06
  0
ARC
  8
0
  6
CONTINUOUS
 62
     7
 10
452.0857543945312
 20
-122.4630889892578
 40
8.000000000000007
 50
2.504478065487664E-06
 51
90.00000250447806
  0
ARC
  8
0
  6
CONTINUOUS
 62
     7
 10
439.1882934570312
 20
-24.89861106872559
 40
2.000000000000008
 50
245.556567286365
 51
339.3859990188286
  0
ARC
  8
0
  6
CONTINUOUS
 62
     7
 10
423.0857543945312
 20
-41.78434371948242
 40
10
 50
179.999991348578
 51
270.0000006832453
  0
ARC
  8
0
  6
CONTINUOUS
 62
     7
 10
423.0857543945312
 20
-124.4630889892578
 40
10.00000000000001
 50
90.00000933466731
 51
180.0000050089563
  0
ARC
  8
0
  6
CONTINUOUS
 62
     7
 10
393.0857543945313
 20
217.7483520507813
 40
3.999999999999998
 50
270.0000179860891
 51
89.99997518372179
  0
ARC
  8
0
  6
CONTINUOUS
 62
     7
 10
418.0857543945313
 20
255.8590850830078
 40
5
 50
179.999991348578
 51
270.0000006832456
  0
ARC
  8
0
  6
CONTINUOUS
 62
     7
 10
455.0857543945313
 20
255.8590850830078
 40
5.000000000000004
 50
269.9999974955215
 51
2.504478146909864E-06
  0
ARC
  8
0
  6
CONTINUOUS
 62
     7
 10
418.0857543945313
 20
231.8490600585937
 40
5
 50
179.999991348578
 51
270.0000006832456
  0
ARC
  8
0
  6
CONTINUOUS
 62
     7
 10
455.0857543945313
 20
231.8490600585937
 40
5.000000000000004
 50
269.9999974955215
 51
2.504478146909864E-06
  0
ARC
  8
0
  6
CONTINUOUS
 62
     7
 10
423.0857543945312
 20
178.2829284667969
 40
9.999999999999991
 50
90.00000933466731
 51
180.0000050089563
  0
CIRCLE
  8
0
  6
CONTINUOUS
 62
     7
 10
59.08581161499023
 20
-82.25165557861328
 40
100
  0
CIRCLE
  8
0
  6
CONTINUOUS
 62
     7
 10
59.08581161499023
 20
-82.25165557861328
 40
65
  0
ARC
  8
0
  6
CONTINUOUS
 62
     3
 10
59.08576202392578
 20
-82.25171661376953
 40
82.5
 50
351.6364427528295
 51
8.363644332082409
  0
ARC
  8
0
  6
CONTINUOUS
 62
     7
 10
59.08576202392578
 20
-82.25165557861328
 40
13.99999904632568
 50
106.6015627539487
 51
73.3984522729203
  0
CIRCLE
  8
0
  6
CONTINUOUS
 62
     7
 10
141.5857696533203
 20
-82.25165557861328
 40
6
  0
CIRCLE
  8
0
  6
CONTINUOUS
 62
     7
 10
59.08576202392578
 20
0.2483444213867188
 40
6
  0
ARC
  8
0
  6
CONTINUOUS
 62
     3
 10
59.08581161499023
 20
-82.25165557861328
 40
82.5
 50
81.63643586579755
 51
98.36363744505049
  0
CIRCLE
  8
0
  6
CONTINUOUS
 62
     7
 10
-23.41423797607422
 20
-82.25165557861328
 40
6
  0
ARC
  8
0
  6
CONTINUOUS
 62
     3
 10
59.08576202392578
 20
-82.25159454345703
 40
82.50000000000001
 50
171.6364383702757
 51
188.3636399495286
  0
CIRCLE
  8
0
  6
CONTINUOUS
 62
     7
 10
59.08576202392578
 20
-164.7516479492188
 40
6
  0
ARC
  8
0
  6
CONTINUOUS
 62
     3
 10
59.08571243286133
 20
-82.25165557861328
 40
82.5
 50
261.6364376870304
 51
278.3636460964725
  0
CIRCLE
  8
0
  6
CONTINUOUS
 62
     7
 10
59.08581161499023
 20
-82.25165557861328
 40
60
  0
ARC
  8
0
  6
CONTINUOUS
 62
     7
 10
545.0857543945312
 20
-125.2516555786133
 40
5
 50
0
 51
90.00000250447782
  0
ARC
  8
0
  6
CONTINUOUS
 62
     7
 10
545.0857543945312
 20
-39.25165557861328
 40
4.999999999999997
 50
269.9999974955222
 51
0
  0
ARC
  8
0
  6
CONTINUOUS
 62
     7
 10
532.0857543945312
 20
-39.25165557861328
 40
4.999999999999943
 50
179.999991348578
 51
270.0000006832456
  0
ARC
  8
0
  6
CONTINUOUS
 62
     7
 10
532.0857543945312
 20
-125.2516555786133
 40
5.000000000000004
 50
90.00000250447782
 51
180.0000050089563
  0
ARC
  8
0
  6
CONTINUOUS
 62
     7
 10
525.5259399414062
 20
-6.341499328613281
 40
1.999999999999976
 50
10.00000397796129
 51
89.99998201391097
  0
ARC
  8
0
  6
CONTINUOUS
 62
     7
 10
508.1289672851563
 20
-8.746528625488281
 40
4.000000000000023
 50
351.4459282863104
 51
53.91357911911893
  0
ARC
  8
0
  6
CONTINUOUS
 62
     7
 10
532.0425415039063
 20
-8.746528625488281
 40
3.99999999999998
 50
126.0864395502155
 51
188.5540383028318
  0
ARC
  8
0
  6
CONTINUOUS
 62
     7
 10
520.0857543945313
 20
7.658500671386719
 40
16.29999923706054
 50
306.086414050692
 51
233.9135431469399
  0
CIRCLE
  8
0
  6
CONTINUOUS
 62
     7
 10
520.0857543945313
 20
7.658500671386719
 40
10
  0
ARC
  8
0
  6
CONTINUOUS
 62
     7
 10
514.6455688476563
 20
-6.341499328613281
 40
2
 50
89.99998201391097
 51
170.0000206677892
  0
ARC
  8
0
  6
CONTINUOUS
 62
     7
 10
532.0857543945312
 20
174.7483520507812
 40
5.000000000000004
 50
90.00000250447782
 51
180.0000050089563
  0
ARC
  8
0
  6
CONTINUOUS
 62
     7
 10
532.0857543945312
 20
260.7483520507813
 40
4.999999999999943
 50
179.999991348578
 51
270.0000006832456
  0
ARC
  8
0
  6
CONTINUOUS
 62
     7
 10
545.0857543945312
 20
260.7483520507813
 40
5.000000000000004
 50
269.9999974955222
 51
0
  0
ARC
  8
0
  6
CONTINUOUS
 62
     7
 10
545.0857543945312
 20
174.7483520507812
 40
5
 50
0
 51
90.00000250447782
  0
ARC
  8
0
  6
CONTINUOUS
 62
     7
 10
40.91345977783203
 20
20.80852508544922
 40
3.150000095367433
 50
9.999999709092904
 51
189.9999620293669
  0
POLYLINE
  8
0
  6
CONTINUOUS
 62
     7
 66
     1
 10
0
 20
0
  0
VERTEX
  8
0
  6
CONTINUOUS
 62
     7
 10
457.0857543945312
 20
-14.25950908660889
 42
0.0270091675113869
  0
VERTEX
  8
0
  6
CONTINUOUS
 62
     7
 10
454.6285626253176
 20
-14.39195390300752
 42
0.02829820610472042
  0
VERTEX
  8
0
  6
CONTINUOUS
 62
     7
 10
452.2016209475698
 20
-14.7938105061775
 42
0.03115746733548253
  0
VERTEX
  8
0
  6
CONTINUOUS
 62
     7
 10
449.8385410925723
 20
-15.47978913397074
 42
0.03614903559042052
  0
VERTEX
  8
0
  6
CONTINUOUS
 62
     7
 10
447.5888926569922
 20
-16.47483580256469
 42
0.04437694293202853
  0
VERTEX
  8
0
  6
CONTINUOUS
 62
     7
 10
445.5272740004949
 20
-17.81500755268031
 42
0.0574234903626788
  0
VERTEX
  8
0
  6
CONTINUOUS
 62
     7
 10
443.7779461317845
 20
-19.54012434946637
 42
0.07586189175274595
  0
VERTEX
  8
0
  6
CONTINUOUS
 62
     7
 10
442.5437374101901
 20
-21.65977048024772
 42
0.09296669637282783
  0
VERTEX
  8
0
  6
CONTINUOUS
 62
     7
 10
442.0857543945313
 20
-24.06401824951172
 42
0.09295320743605456
  0
VERTEX
  8
0
  6
CONTINUOUS
 62
     7
 10
442.5436011804987
 20
-26.46791313209981
 42
0.07584143815215594
  0
VERTEX
  8
0
  6
CONTINUOUS
 62
     7
 10
443.777155661519
 20
-28.5869158002725
 42
0.0574168385381623
  0
VERTEX
  8
0
  6
CONTINUOUS
 62
     7
 10
445.5256882666127
 20
-30.31177054232499
 42
0.0443773968026271
  0
VERTEX
  8
0
  6
CONTINUOUS
 62
     7
 10
447.5866568863848
 20
-31.65199777409843
 42
0.03615272266898622
  0
VERTEX
  8
0
  6
CONTINUOUS
 62
     7
 10
449.8359524491689
 20
-32.64730405023137
 42
0.03115785532943628
  0
VERTEX
  8
0
  6
CONTINUOUS
 62
     7
 10
452.1986286834315
 20
-33.33354123942046
 42
0.02831177959260078
  0
VERTEX
  8
0
  6
CONTINUOUS
 62
     7
 10
454.6265153729843
 20
-33.73584827286068
 42
0.02703207500211821
  0
VERTEX
  8
0
  6
CONTINUOUS
 62
     7
 10
457.0857543945312
 20
-33.86851501464844
 42
0
  0
SEQEND
  8
0
  0
POLYLINE
  8
0
  6
CONTINUOUS
 62
     7
 66
     1
 10
0
 20
0
  0
VERTEX
  8
0
  6
CONTINUOUS
 62
     7
 10
395.086005527668
 20
-29.40602609094721
 42
-0.09073998813556236
  0
VERTEX
  8
0
  6
CONTINUOUS
 62
     7
 10
401.2408399067933
 20
-37.28377702041969
 42
-0.09679818688519348
  0
VERTEX
  8
0
  6
CONTINUOUS
 62
     7
 10
403.6586804553846
 20
-46.97548786288207
 42
-0.03882973397551059
  0
VERTEX
  8
0
  6
CONTINUOUS
 62
     7
 10
403.4410412556509
 20
-57.01507094246601
 42
0.001893211818138871
  0
VERTEX
  8
0
  6
CONTINUOUS
 62
     7
 10
402.505345377051
 20
-67.02360100993577
 42
0.02723234598688511
  0
VERTEX
  8
0
  6
CONTINUOUS
 62
     7
 10
402.254649174357
 20
-77.06860107220739
 42
0.02242835818410044
  0
VERTEX
  8
0
  6
CONTINUOUS
 62
     7
 10
403.1232914675789
 20
-87.07968654126915
 42
-0.04625969637535578
  0
VERTEX
  8
0
  6
CONTINUOUS
 62
     7
 10
403.5308709365272
 20
-97.10901396368453
 42
-0.09276757788801322
  0
VERTEX
  8
0
  6
CONTINUOUS
 62
     7
 10
401.1493956780654
 20
-106.8165666904361
 42
-0.09852505139567519
  0
VERTEX
  8
0
  6
CONTINUOUS
 62
     7
 10
395.0857543945313
 20
-114.7516555786133
 42
0
  0
SEQEND
  8
0
  0
POLYLINE
  8
0
  6
CONTINUOUS
 62
     7
 66
     1
 10
0
 20
0
  0
VERTEX
  8
0
  6
CONTINUOUS
 62
     7
 10
457.0857543945312
 20
188.451416015625
 42
0.03678719796213627
  0
VERTEX
  8
0
  6
CONTINUOUS
 62
     7
 10
454.4117534570089
 20
188.2548030333324
 42
0.03795873121332975
  0
VERTEX
  8
0
  6
CONTINUOUS
 62
     7
 10
451.7974692263436
 20
187.66328624358
 42
0.04041676273809005
  0
VERTEX
  8
0
  6
CONTINUOUS
 62
     7
 10
449.3063386568961
 20
186.6715939579543
 42
0.04424937309202889
  0
VERTEX
  8
0
  6
CONTINUOUS
 62
     7
 10
447.0170821104136
 20
185.2751762230184
 42
0.04947423488924674
  0
VERTEX
  8
0
  6
CONTINUOUS
 62
     7
 10
445.0284112990952
 20
183.478574758533
 42
0.05580557598195905
  0
VERTEX
  8
0
  6
CONTINUOUS
 62
     7
 10
443.4590275572741
 20
181.3075390293875
 42
0.0620959743356333
  0
VERTEX
  8
0
  6
CONTINUOUS
 62
     7
 10
442.4406915725375
 20
178.8312005361757
 42
0.06627157803348994
  0
VERTEX
  8
0
  6
CONTINUOUS
 62
     7
 10
442.0857543945313
 20
176.1767883300781
 42
0.06621701838534749
  0
VERTEX
  8
0
  6
CONTINUOUS
 62
     7
 10
442.4401034866135
 20
173.5245513319413
 42
0.06209228138197811
  0
VERTEX
  8
0
  6
CONTINUOUS
 62
     7
 10
443.4577332753794
 20
171.048345703912
 42
0.05580225696079733
  0
VERTEX
  8
0
  6
CONTINUOUS
 62
     7
 10
445.0262960496693
 20
168.8773523885197
 42
0.04947230042064416
  0
VERTEX
  8
0
  6
CONTINUOUS
 62
     7
 10
447.0141268771626
 20
167.0806076654363
 42
0.04424205645363469
  0
VERTEX
  8
0
  6
CONTINUOUS
 62
     7
 10
449.3022818781511
 20
165.6840191351176
 42
0.04042718769840222
  0
VERTEX
  8
0
  6
CONTINUOUS
 62
     7
 10
451.7934791250205
 20
164.6915475071773
 42
0.03799002793354792
  0
VERTEX
  8
0
  6
CONTINUOUS
 62
     7
 10
454.4096679920526
 20
164.0991123465631
 42
0.03681620906931556
  0
VERTEX
  8
0
  6
CONTINUOUS
 62
     7
 10
457.0857543945312
 20
163.9021911621094
 42
0
  0
SEQEND
  8
0
  0
POLYLINE
  8
0
  6
CONTINUOUS
 62
     7
 66
     1
 10
0
 20
0
  0
VERTEX
  8
0
  6
CONTINUOUS
 62
     7
 10
395.0857543945313
 20
250.2483367919922
 42
-0.1024472148840024
  0
VERTEX
  8
0
  6
CONTINUOUS
 62
     7
 10
400.851304831501
 20
244.9299896639967
 42
-0.158816168592725
  0
VERTEX
  8
0
  6
CONTINUOUS
 62
     7
 10
402.9420128803532
 20
237.4459389267586
 42
-0.001608360627599399
  0
VERTEX
  8
0
  6
CONTINUOUS
 62
     7
 10
402.6537500459057
 20
229.5531167484231
 42
0.007942359050313883
  0
VERTEX
  8
0
  6
CONTINUOUS
 62
     7
 10
402.719136738547
 20
221.6546607883492
 42
-0.0006793472131458106
  0
VERTEX
  8
0
  6
CONTINUOUS
 62
     7
 10
402.7887071723745
 20
213.7571633264365
 42
0.01802710578066153
  0
VERTEX
  8
0
  6
CONTINUOUS
 62
     7
 10
403.1421825151168
 20
205.8680925617028
 42
-0.03918575529754347
  0
VERTEX
  8
0
  6
CONTINUOUS
 62
     7
 10
403.4122041395454
 20
197.9821419686469
 42
-0.1464404423339813
  0
VERTEX
  8
0
  6
CONTINUOUS
 62
     7
 10
400.8051128712893
 20
190.6409028569608
 42
-0.08656599824524903
  0
VERTEX
  8
0
  6
CONTINUOUS
 62
     7
 10
395.0857543945313
 20
185.2483520507813
 42
0
  0
SEQEND
  8
0
  0
POLYLINE
  8
0
  6
CONTINUOUS
 62
     7
 66
     1
 10
0
 20
0
  0
VERTEX
  8
0
  6
CONTINUOUS
 62
     7
 10
453.5592041015626
 20
201.3578186035156
 42
0.02064769961715706
  0
VERTEX
  8
0
  6
CONTINUOUS
 62
     7
 10
452.0494202042147
 20
201.2954841515304
 42
0.02085167514556129
  0
VERTEX
  8
0
  6
CONTINUOUS
 62
     7
 10
450.5503307157606
 20
201.1083370880442
 42
0.02127242220551874
  0
VERTEX
  8
0
  6
CONTINUOUS
 62
     7
 10
449.0723699587593
 20
200.795823934157
 42
0.0219182098719596
  0
VERTEX
  8
0
  6
CONTINUOUS
 62
     7
 10
447.6267429893507
 20
200.3570355846025
 42
0.02280051108109834
  0
VERTEX
  8
0
  6
CONTINUOUS
 62
     7
 10
446.2258135825309
 20
199.7908925459638
 42
0.02393161217591813
  0
VERTEX
  8
0
  6
CONTINUOUS
 62
     7
 10
444.8834982810478
 20
199.0964362792904
 42
0.02532018961274852
  0
VERTEX
  8
0
  6
CONTINUOUS
 62
     7
 10
443.6156482730819
 20
198.2732707281287
 42
0.02696380098735077
  0
VERTEX
  8
0
  6
CONTINUOUS
 62
     7
 10
442.4403634968877
 20
197.3222072383282
 42
0.02883719966437726
  0
VERTEX
  8
0
  6
CONTINUOUS
 62
     7
 10
441.3781312164477
 20
196.2461613430442
 42
0.03087638979185375
  0
VERTEX
  8
0
  6
CONTINUOUS
 62
     7
 10
440.4516125782851
 20
195.0513114844117
 42
0.0329614338537256
  0
VERTEX
  8
0
  6
CONTINUOUS
 62
     7
 10
439.6848384898299
 20
193.7484296772168
 42
0.03490685368848562
  0
VERTEX
  8
0
  6
CONTINUOUS
 62
     7
 10
439.1015829602867
 20
192.3541146959215
 42
0.03647455699767241
  0
VERTEX
  8
0
  6
CONTINUOUS
 62
     7
 10
438.7228571666022
 20
190.8914406730758
 42
0.03742210320745864
  0
VERTEX
  8
0
  6
CONTINUOUS
 62
     7
 10
438.5638724071371
 20
189.3894337803881
 42
0.03755699268236884
  0
VERTEX
  8
0
  6
CONTINUOUS
 62
     7
 10
438.6312137459766
 20
187.8819246547058
 42
0.03691642979379738
  0
VERTEX
  8
0
  6
CONTINUOUS
 62
     7
 10
438.921795426748
 20
186.4006889478982
 42
0
  0
SEQEND
  8
0
  0
POLYLINE
  8
0
  6
CONTINUOUS
 62
     7
 66
     1
 10
0
 20
0
  0
VERTEX
  8
0
  6
CONTINUOUS
 62
     7
 10
506.9357299804688
 20
230.5828247070313
 42
0.1945692824531094
  0
VERTEX
  8
0
  6
CONTINUOUS
 62
     7
 10
509.8779065081548
 20
229.1434116038604
 42
0.02554323253018812
  0
VERTEX
  8
0
  6
CONTINUOUS
 62
     7
 10
513.256526210916
 20
228.6316306363779
 42
0.01446695002792454
  0
VERTEX
  8
0
  6
CONTINUOUS
 62
     7
 10
516.6659367797947
 20
228.3781728408761
 42
0.01162823533403548
  0
VERTEX
  8
0
  6
CONTINUOUS
 62
     7
 10
520.0857543945313
 20
228.2996215820312
 42
0.01162207999223142
  0
VERTEX
  8
0
  6
CONTINUOUS
 62
     7
 10
523.5038676279305
 20
228.3780925395023
 42
0.0144699174845873
  0
VERTEX
  8
0
  6
CONTINUOUS
 62
     7
 10
526.9143834043906
 20
228.6315673697588
 42
0.02555833756703934
  0
VERTEX
  8
0
  6
CONTINUOUS
 62
     7
 10
530.2947319055003
 20
229.143656374843
 42
0.1953013108079508
  0
VERTEX
  8
0
  6
CONTINUOUS
 62
     7
 10
533.2357419484052
 20
230.5850674986728
 42
0.193878935187817
  0
VERTEX
  8
0
  6
CONTINUOUS
 62
     7
 10
530.291448870011
 20
232.0228904279008
 42
0.02553305454207304
  0
VERTEX
  8
0
  6
CONTINUOUS
 62
     7
 10
526.9128139241891
 20
232.5345992089176
 42
0.01446795752224858
  0
VERTEX
  8
0
  6
CONTINUOUS
 62
     7
 10
523.5034001246778
 20
232.7880299646307
 42
0.01162537149201031
  0
VERTEX
  8
0
  6
CONTINUOUS
 62
     7
 10
520.0857543945313
 20
232.8665161132813
 42
0.01162712554392582
  0
VERTEX
  8
0
  6
CONTINUOUS
 62
     7
 10
516.6676422606133
 20
232.7880090020542
 42
0.01447400940949438
  0
VERTEX
  8
0
  6
CONTINUOUS
 62
     7
 10
513.2571341738106
 20
232.5344363744312
 42
0.02556168375861135
  0
VERTEX
  8
0
  6
CONTINUOUS
 62
     7
 10
509.8768086161116
 20
232.0221998097003
 42
0.1952050264606826
  0
VERTEX
  8
0
  6
CONTINUOUS
 62
     7
 10
506.9357345648239
 20
230.5809179525465
 42
0
  0
SEQEND
  8
0
  0
POLYLINE
  8
0
  6
CONTINUOUS
 62
     7
 66
     1
 10
0
 20
0
  0
VERTEX
  8
0
  6
CONTINUOUS
 62
     7
 10
531.6374467437201
 20
237.8782541724149
 42
0.02483033891499672
  0
VERTEX
  8
0
  6
CONTINUOUS
 62
     7
 10
530.2290575244831
 20
238.2403699718589
 42
0.01364854112583598
  0
VERTEX
  8
0
  6
CONTINUOUS
 62
     7
 10
528.7972136383374
 20
238.497676771179
 42
0.009382830365731527
  0
VERTEX
  8
0
  6
CONTINUOUS
 62
     7
 10
527.3549284714038
 20
238.6900150001925
 42
0.007275419706921069
  0
VERTEX
  8
0
  6
CONTINUOUS
 62
     7
 10
525.9065347600792
 20
238.8347301191747
 42
0.006095667176916553
  0
VERTEX
  8
0
  6
CONTINUOUS
 62
     7
 10
524.4545409299286
 20
238.9409160722751
 42
0.005403411756148413
  0
VERTEX
  8
0
  6
CONTINUOUS
 62
     7
 10
523.0004726946507
 20
239.0138186973548
 42
0.005011276167605685
  0
VERTEX
  8
0
  6
CONTINUOUS
 62
     7
 10
521.545086763709
 20
239.0565128644666
 42
0.004832082136159925
  0
VERTEX
  8
0
  6
CONTINUOUS
 62
     7
 10
520.0891627719958
 20
239.0706175985651
 42
0.004831334188101451
  0
VERTEX
  8
0
  6
CONTINUOUS
 62
     7
 10
518.6333439487579
 20
239.0566471520056
 42
0.005006470056519533
  0
VERTEX
  8
0
  6
CONTINUOUS
 62
     7
 10
517.17894840448
 20
239.014131283422
 42
0.005400882552878755
  0
VERTEX
  8
0
  6
CONTINUOUS
 62
     7
 10
515.7247924787663
 20
238.9413952416333
 42
0.006091146285426368
  0
VERTEX
  8
0
  6
CONTINUOUS
 62
     7
 10
514.2727196670361
 20
238.8353949865521
 42
0.007269852988964411
  0
VERTEX
  8
0
  6
CONTINUOUS
 62
     7
 10
512.823829950879
 20
238.690851518899
 42
0.009378776901515035
  0
VERTEX
  8
0
  6
CONTINUOUS
 62
     7
 10
511.3801159327041
 20
238.4985730389115
 42
0.01364228252150778
  0
VERTEX
  8
0
  6
CONTINUOUS
 62
     7
 10
509.9466031799976
 20
238.241247846327
 42
0.02480855593622289
  0
VERTEX
  8
0
  6
CONTINUOUS
 62
     7
 10
508.5367086545304
 20
237.8791064801677
 42
0
  0
SEQEND
  8
0
  0
POLYLINE
  8
0
  6
CONTINUOUS
 62
     7
 66
     1
 10
0
 20
0
  0
VERTEX
  8
0
  6
CONTINUOUS
 62
     7
 10
508.5473327636719
 20
229.4876098632813
 42
-0.01901918745877368
  0
VERTEX
  8
0
  6
CONTINUOUS
 62
     7
 10
507.8054383707568
 20
229.6918153841195
 42
-0.01048097705266619
  0
VERTEX
  8
0
  6
CONTINUOUS
 62
     7
 10
507.0767776550124
 20
229.9395344928982
 42
-0.005845321793708382
  0
VERTEX
  8
0
  6
CONTINUOUS
 62
     7
 10
506.3551763316862
 20
230.2081797232094
 42
-0.02972403344422256
  0
VERTEX
  8
0
  6
CONTINUOUS
 62
     7
 10
505.6543580540868
 20
230.5253569542467
 42
-0.05876742985140023
  0
VERTEX
  8
0
  6
CONTINUOUS
 62
     7
 10
505.0212667786765
 20
230.9597361746453
 42
-0.05384032392354137
  0
VERTEX
  8
0
  6
CONTINUOUS
 62
     7
 10
504.5097871795564
 20
231.5328905890494
 42
-0.048139226865708
  0
VERTEX
  8
0
  6
CONTINUOUS
 62
     7
 10
504.1169179673736
 20
232.1942337525678
 42
-0.05484953165160689
  0
VERTEX
  8
0
  6
CONTINUOUS
 62
     7
 10
503.8713825116716
 20
232.9218844277349
 42
-0.05416192064379989
  0
VERTEX
  8
0
  6
CONTINUOUS
 62
     7
 10
503.7880859375
 20
233.6851196289062
 42
-0.05421491251330283
  0
VERTEX
  8
0
  6
CONTINUOUS
 62
     7
 10
503.8715105990619
 20
234.4486924987289
 42
-0.05486362129025188
  0
VERTEX
  8
0
  6
CONTINUOUS
 62
     7
 10
504.1172404603992
 20
235.1764540575717
 42
-0.0480588978845319
  0
VERTEX
  8
0
  6
CONTINUOUS
 62
     7
 10
504.5095223101217
 20
235.8367411256227
 42
-0.05381766463336748
  0
VERTEX
  8
0
  6
CONTINUOUS
 62
     7
 10
505.0210999648088
 20
236.4103476290627
 42
-0.05879202130782437
  0
VERTEX
  8
0
  6
CONTINUOUS
 62
     7
 10
505.6542065283672
 20
236.8447766869726
 42
-0.02971145702961706
  0
VERTEX
  8
0
  6
CONTINUOUS
 62
     7
 10
506.3547153263671
 20
237.1618255241295
 42
-0.005848077796726138
  0
VERTEX
  8
0
  6
CONTINUOUS
 62
     7
 10
507.0760951746689
 20
237.4304257730521
 42
-0.01049682231860545
  0
VERTEX
  8
0
  6
CONTINUOUS
 62
     7
 10
507.8050552465702
 20
237.6782241618718
 42
-0.01899579569784933
  0
VERTEX
  8
0
  6
CONTINUOUS
 62
     7
 10
508.5468444824219
 20
237.8823852539062
 42
0
  0
SEQEND
  8
0
  0
POLYLINE
  8
0
  6
CONTINUOUS
 62
     7
 66
     1
 10
0
 20
0
  0
VERTEX
  8
0
  6
CONTINUOUS
 62
     7
 10
531.6241455078125
 20
229.4876098632813
 42
0.01901728022366808
  0
VERTEX
  8
0
  6
CONTINUOUS
 62
     7
 10
532.3660425565382
 20
229.6918126771444
 42
0.01048146422240195
  0
VERTEX
  8
0
  6
CONTINUOUS
 62
     7
 10
533.0947069194411
 20
229.9395267714574
 42
0.005848017668083897
  0
VERTEX
  8
0
  6
CONTINUOUS
 62
     7
 10
533.8163104075848
 20
230.2081725788529
 42
0.02972556577511
  0
VERTEX
  8
0
  6
CONTINUOUS
 62
     7
 10
534.517127750293
 20
230.5253561127157
 42
0.05876385890716678
  0
VERTEX
  8
0
  6
CONTINUOUS
 62
     7
 10
535.150215305994
 20
230.9597387197372
 42
0.0538400596414836
  0
VERTEX
  8
0
  6
CONTINUOUS
 62
     7
 10
535.6617136116288
 20
231.5328797893851
 42
0.04813933897805472
  0
VERTEX
  8
0
  6
CONTINUOUS
 62
     7
 10
536.0545858953984
 20
232.1942232231932
 42
0.05486388540012448
  0
VERTEX
  8
0
  6
CONTINUOUS
 62
     7
 10
536.3000962664017
 20
232.9218827178055
 42
0.05415427882680601
  0
VERTEX
  8
0
  6
CONTINUOUS
 62
     7
 10
536.3834228515625
 20
233.6851196289062
 42
0.05420694667388334
  0
VERTEX
  8
0
  6
CONTINUOUS
 62
     7
 10
536.299968754451
 20
234.4486917961122
 42
0.05487790612314679
  0
VERTEX
  8
0
  6
CONTINUOUS
 62
     7
 10
536.0542643428229
 20
235.1764626716735
 42
0.04805889587808409
  0
VERTEX
  8
0
  6
CONTINUOUS
 62
     7
 10
535.6619801608562
 20
235.836749651543
 42
0.05381747357147165
  0
VERTEX
  8
0
  6
CONTINUOUS
 62
     7
 10
535.1503835091285
 20
236.41034380015
 42
0.05878894917009363
  0
VERTEX
  8
0
  6
CONTINUOUS
 62
     7
 10
534.5172781580221
 20
236.8447782444509
 42
0.02971283689001282
  0
VERTEX
  8
0
  6
CONTINUOUS
 62
     7
 10
533.8167721255468
 20
237.1618322869054
 42
0.005850687651779888
  0
VERTEX
  8
0
  6
CONTINUOUS
 62
     7
 10
533.0953909930021
 20
237.4304330535206
 42
0.01049742747460566
  0
VERTEX
  8
0
  6
CONTINUOUS
 62
     7
 10
532.3664251434261
 20
237.6782269948573
 42
0.01899365772259357
  0
VERTEX
  8
0
  6
CONTINUOUS
 62
     7
 10
531.6246337890625
 20
237.8823852539062
 42
0
  0
SEQEND
  8
0
  0
POLYLINE
  8
0
  6
CONTINUOUS
 62
     7
 66
     1
 10
0
 20
0
  0
VERTEX
  8
0
  6
CONTINUOUS
 62
     7
 10
512.3476564532218
 20
228.733806702963
 42
0.04188613022380065
  0
VERTEX
  8
0
  6
CONTINUOUS
 62
     7
 10
512.7877860760381
 20
227.5058172566825
 42
0.04165468219619926
  0
VERTEX
  8
0
  6
CONTINUOUS
 62
     7
 10
513.4260270589793
 20
226.3678757658346
 42
0.0413640811984714
  0
VERTEX
  8
0
  6
CONTINUOUS
 62
     7
 10
514.2434765577549
 20
225.3509994121068
 42
0.04106062826728377
  0
VERTEX
  8
0
  6
CONTINUOUS
 62
     7
 10
515.2167803894844
 20
224.4818367266961
 42
0.04077373210745949
  0
VERTEX
  8
0
  6
CONTINUOUS
 62
     7
 10
516.3188505642464
 20
223.7826287858378
 42
0.04052967900159058
  0
VERTEX
  8
0
  6
CONTINUOUS
 62
     7
 10
517.5197130115527
 20
223.2708549227856
 42
0.04034890219010942
  0
VERTEX
  8
0
  6
CONTINUOUS
 62
     7
 10
518.7872967676352
 20
222.9590250672127
 42
0.04023730416243289
  0
VERTEX
  8
0
  6
CONTINUOUS
 62
     7
 10
520.0879326414602
 20
222.8545535143859
 42
0.04023045196251844
  0
VERTEX
  8
0
  6
CONTINUOUS
 62
     7
 10
521.3882869370234
 20
222.9596859435661
 42
0.04031713967842054
  0
VERTEX
  8
0
  6
CONTINUOUS
 62
     7
 10
522.654724427329
 20
223.2718318449881
 42
0.04051233780472766
  0
VERTEX
  8
0
  6
CONTINUOUS
 62
     7
 10
523.8548823751488
 20
223.783797908199
 42
0.0407599999814226
  0
VERTEX
  8
0
  6
CONTINUOUS
 62
     7
 10
524.9563697840555
 20
224.483076738034
 42
0.04105956262826476
  0
VERTEX
  8
0
  6
CONTINUOUS
 62
     7
 10
525.9294149506383
 20
225.352455568297
 42
0.04137676030973837
  0
VERTEX
  8
0
  6
CONTINUOUS
 62
     7
 10
526.7468207257438
 20
226.3698581541255
 42
0.04167427534102993
  0
VERTEX
  8
0
  6
CONTINUOUS
 62
     7
 10
527.3849620261698
 20
227.5085376244609
 42
0.04191528628117979
  0
VERTEX
  8
0
  6
CONTINUOUS
 62
     7
 10
527.8248504202711
 20
228.7375584019053
 42
0
  0
SEQEND
  8
0
  0
TEXT
  8
0
  6
CONTINUOUS
 62
     7
 10
-28.34280776977539
 20
208.7483520507812
 40
18
 41
0.8444757469838271
  1
ＥＲＫＶ－Ｂ－２００
  0
ENDSEC
  0
EOF
