  0
SECTION
  2
HEADER
  0
ENDSEC
  0
SECTION
  2
TABLES
  0
TABLE
  2
LTYPE
 70
    22
  0
LTYPE
  2
CONTINUOUS
 70
    64
  3
Solid line
 72
    65
 73
     0
 40
0.000000
  0
LTYPE
  2
DASHED
 70
    64
  3
__ __ __ __ __ __ __ __ __ __ __ __ __ __ __
 72
    65
 73
     2
 40
3.500000
 49
2.000000
 49
-1.500000
  0
LTYPE
  2
CENTER
 70
    64
  3
____ _ ____ _ ____ _ ____ _ ____ _ ____ _ ____
 72
    65
 73
     4
 40
17.500000
 49
13.000000
 49
-1.500000
 49
1.500000
 49
-1.500000
  0
LTYPE
  2
PHANTOM
 70
    64
  3
_____ _ _ _____ _ _ _____ _ _ _____ _ _ ____  
 72
    65
 73
     6
 40
15.500000
 49
8.000000
 49
-1.500000
 49
1.500000
 49
-1.500000
 49
1.500000
 49
-1.500000
  0
LTYPE
  2
DOT
 70
    64
  3
. . . . . . . . . . . . . . . . . . . . . . . .
 72
    65
 73
     2
 40
0.25
 49
0.0
 49
-0.25
  0
ENDTAB
  0
TABLE
  2
LAYER
 70
     1
  0
LAYER
  2
0
 70
     0
 62
     7
  6
CONTINUOUS
  0
ENDTAB
  0
TABLE
  2
STYLE
 70
     1
  0
STYLE
  2
STANDARD
 70
     0
 40
0.000000
 41
1.000000
 50
0.000000
 71
     0
 42
0.200000
  3
txt
  0
ENDTAB
  0
TABLE
  2
VIEW
 70
     0
  0
ENDTAB
  0
ENDSEC
  0
SECTION
  2
BLOCKS
  0
ENDSEC
  0
SECTION
  2
ENTITIES
  0
LINE
  8
0
  6
CONTINUOUS
 62
     3
 10
53.51827239990234
 20
-13.68806648254395
 11
319.947509765625
 21
-13.68806648254395
  0
LINE
  8
0
  6
CONTINUOUS
 62
     7
 10
235.7227325439453
 20
59.81193161010742
 11
235.7227325439453
 21
-87.18806457519531
  0
LINE
  8
0
  6
CONTINUOUS
 62
     7
 10
205.7227325439453
 20
58.81193161010742
 11
205.7227325439453
 21
43.81193161010742
  0
LINE
  8
0
  6
CONTINUOUS
 62
     7
 10
225.7227325439453
 20
58.81193161010742
 11
225.7227325439453
 21
-86.18806457519531
  0
LINE
  8
0
  6
CONTINUOUS
 62
     7
 10
225.7227325439453
 20
58.81193161010742
 11
235.7227325439453
 21
58.81193161010742
  0
LINE
  8
0
  6
CONTINUOUS
 62
     7
 10
225.7227325439453
 20
-86.18806457519531
 11
235.7227325439453
 21
-86.18806457519531
  0
LINE
  8
0
  6
CONTINUOUS
 62
     7
 10
205.7227325439453
 20
38.81193161010742
 11
220.7227325439453
 21
38.81193161010742
  0
LINE
  8
0
  6
CONTINUOUS
 62
     7
 10
205.7227325439453
 20
-66.18806457519531
 11
220.7227325439453
 21
-66.18806457519531
  0
LINE
  8
0
  6
CONTINUOUS
 62
     7
 10
200.7227325439453
 20
55.88529586791992
 11
200.7227325439453
 21
-86.18806457519531
  0
LINE
  8
0
  6
CONTINUOUS
 62
     7
 10
200.7227325439453
 20
55.88529586791992
 11
205.7227325439453
 21
55.88529586791992
  0
LINE
  8
0
  6
CONTINUOUS
 62
     7
 10
190.7227325439453
 20
-86.18806457519531
 11
200.7227325439453
 21
-86.18806457519531
  0
LINE
  8
0
  6
CONTINUOUS
 62
     7
 10
191.5895385742187
 20
64.64170837402344
 11
190.7227478027344
 21
59.70125961303711
  0
LINE
  8
0
  6
CONTINUOUS
 62
     7
 10
205.8559265136719
 20
64.64170074462891
 11
206.7227325439453
 21
59.70123291015625
  0
LINE
  8
0
  6
CONTINUOUS
 62
     7
 10
198.7227478027344
 20
66.57376098632813
 11
193.1666107177734
 21
65.37989044189453
  0
LINE
  8
0
  6
CONTINUOUS
 62
     7
 10
198.7227325439453
 20
66.57376098632813
 11
204.2787628173828
 21
65.37991333007812
  0
LINE
  8
0
  6
CONTINUOUS
 62
     7
 10
206.7227325439453
 20
59.70124435424805
 11
206.7227325439453
 21
58.81193161010742
  0
LINE
  8
0
  6
CONTINUOUS
 62
     7
 10
190.7227325439453
 20
59.81193161010742
 11
190.7227325439453
 21
-87.18806457519531
  0
LINE
  8
0
  6
CONTINUOUS
 62
     7
 10
168.2227325439453
 20
-87.18806457519531
 11
190.7227325439453
 21
-87.18806457519531
  0
LINE
  8
0
  6
CONTINUOUS
 62
     7
 10
168.2227325439453
 20
59.81193161010742
 11
168.2227325439453
 21
-87.18806457519531
  0
LINE
  8
0
  6
CONTINUOUS
 62
     7
 10
258.2227478027344
 20
59.81193161010742
 11
258.2227478027344
 21
-87.18806457519531
  0
LINE
  8
0
  6
CONTINUOUS
 62
     7
 10
235.7227325439453
 20
59.81193161010742
 11
258.2227478027344
 21
59.81193161010742
  0
LINE
  8
0
  6
CONTINUOUS
 62
     7
 10
235.7227325439453
 20
-87.18806457519531
 11
258.2227478027344
 21
-87.18806457519531
  0
LINE
  8
0
  6
CONTINUOUS
 62
     7
 10
168.2227325439453
 20
59.81193161010742
 11
190.7227325439453
 21
59.81193161010742
  0
LINE
  8
0
  6
CONTINUOUS
 62
     7
 10
190.7227325439453
 20
58.81193161010742
 11
206.7227325439453
 21
58.81193161010742
  0
LINE
  8
0
  6
CONTINUOUS
 62
     7
 10
96.22274017333984
 20
66.31193542480469
 11
96.22274017333984
 21
25.3251781463623
  0
LINE
  8
0
  6
CONTINUOUS
 62
     7
 10
96.22274017333984
 20
66.31193542480469
 11
110.2227401733398
 21
66.31193542480469
  0
LINE
  8
0
  6
CONTINUOUS
 62
     7
 10
96.22274017333984
 20
-93.68806457519531
 11
110.2227401733398
 21
-93.68806457519531
  0
LINE
  8
0
  6
CONTINUOUS
 62
     7
 10
110.2227401733398
 20
66.31193542480469
 11
110.2227401733398
 21
-93.68806457519531
  0
LINE
  8
0
  6
CONTINUOUS
 62
     7
 10
158.2227325439453
 20
58.81193161010742
 11
168.2227325439453
 21
58.81193161010742
  0
LINE
  8
0
  6
CONTINUOUS
 62
     7
 10
158.2227325439453
 20
-86.18806457519531
 11
168.2227325439453
 21
-86.18806457519531
  0
LINE
  8
0
  6
CONTINUOUS
 62
     7
 10
115.2227401733398
 20
-39.99587631225586
 11
153.2227325439453
 21
-39.99587631225586
  0
LINE
  8
0
  6
CONTINUOUS
 62
     7
 10
115.2227401733398
 20
12.61974143981934
 11
153.2227325439453
 21
12.61974143981934
  0
LINE
  8
0
  6
CONTINUOUS
 62
     7
 10
158.2227478027344
 20
-61.9168586730957
 11
110.2227478027344
 21
-65.73352813720703
  0
LINE
  8
0
  6
CONTINUOUS
 62
     7
 10
110.2227478027344
 20
-71.18952178955078
 11
158.2227325439453
 21
-66.97274780273438
  0
LINE
  8
0
  6
CONTINUOUS
 62
     7
 10
158.2227325439453
 20
34.54073715209961
 11
138.2227325439453
 21
34.54073715209961
  0
LINE
  8
0
  6
CONTINUOUS
 62
     7
 10
110.2227478027344
 20
43.81338119506836
 11
134.7608795166016
 21
40.11796188354492
  0
LINE
  8
0
  6
CONTINUOUS
 62
     7
 10
110.2227554321289
 20
38.35739517211914
 11
138.2226867675781
 21
34.54073715209961
  0
LINE
  8
0
  6
CONTINUOUS
 62
     7
 10
66.22274017333984
 20
-0.1880668252706528
 11
66.22274017333984
 21
-24.68806648254395
  0
LINE
  8
0
  6
CONTINUOUS
 62
     7
 10
66.22274017333984
 20
-2.688066720962524
 11
96.22274017333984
 21
-2.688066720962524
  0
LINE
  8
0
  6
CONTINUOUS
 62
     7
 10
66.22274017333984
 20
-24.68806648254395
 11
96.22274017333984
 21
-24.68806648254395
  0
LINE
  8
0
  6
CONTINUOUS
 62
     7
 10
92.22274017333984
 20
41.31193161010742
 11
92.22274017333984
 21
27.89726066589355
  0
LINE
  8
0
  6
CONTINUOUS
 62
     7
 10
92.22274017333984
 20
41.31193161010742
 11
96.22274017333984
 21
41.31193161010742
  0
LINE
  8
0
  6
CONTINUOUS
 62
     7
 10
92.22274017333984
 20
-68.68806457519531
 11
96.22274017333984
 21
-68.68806457519531
  0
LINE
  8
0
  6
CONTINUOUS
 62
     7
 10
92.22274017333984
 20
-42.28374862670898
 11
92.22274017333984
 21
-68.68806457519531
  0
LINE
  8
0
  6
CONTINUOUS
 62
     7
 10
96.22274017333984
 20
1.311933159828186
 11
96.22274017333984
 21
-28.68806648254395
  0
LINE
  8
0
  6
CONTINUOUS
 62
     7
 10
96.22274017333984
 20
-38.7873649597168
 11
96.22274017333984
 21
-93.68806457519531
  0
LINE
  8
0
  6
CONTINUOUS
 62
     7
 10
96.22274017333984
 20
-28.68806648254395
 11
98.83211517333984
 21
-28.68806648254395
  0
LINE
  8
0
  6
CONTINUOUS
 62
     7
 10
96.22274017333984
 20
1.311933159828186
 11
98.49052429199219
 21
1.311933159828186
  0
LINE
  8
0
  6
CONTINUOUS
 62
     7
 10
66.22274017333984
 20
-0.1880668252706528
 11
91.22274017333984
 21
-0.1880668252706528
  0
LINE
  8
0
  6
CONTINUOUS
 62
     7
 10
91.22274017333984
 20
-0.1880668252706528
 11
91.22274017333984
 21
-2.688066720962524
  0
LINE
  8
0
  6
CONTINUOUS
 62
     7
 10
153.2227325439453
 20
54.30411911010742
 11
158.2227325439453
 21
54.30411911010742
  0
LINE
  8
0
  6
CONTINUOUS
 62
     7
 10
158.2227325439453
 20
58.81193161010742
 11
158.2227325439453
 21
54.30411911010742
  0
LINE
  8
0
  6
CONTINUOUS
 62
     7
 10
158.2227325439453
 20
34.54073715209961
 11
158.2227325439453
 21
-86.18806457519531
  0
LINE
  8
0
  6
CONTINUOUS
 62
     7
 10
136.9647064208984
 20
41.48964309692383
 11
138.5413208007812
 21
46.44822692871094
  0
LINE
  8
0
  6
CONTINUOUS
 62
     7
 10
190.7227325439453
 20
359.8119201660156
 11
190.7227325439453
 21
307.1150817871094
  0
LINE
  8
0
  6
CONTINUOUS
 62
     7
 10
190.7227325439453
 20
213.8119354248047
 11
200.7227325439453
 21
213.8119354248047
  0
LINE
  8
0
  6
CONTINUOUS
 62
     7
 10
190.7227325439453
 20
358.8119201660156
 11
200.7227325439453
 21
358.8119201660156
  0
LINE
  8
0
  6
CONTINUOUS
 62
     7
 10
235.7227325439453
 20
359.8119201660156
 11
235.7227325439453
 21
212.8119354248047
  0
LINE
  8
0
  6
CONTINUOUS
 62
     7
 10
225.7227325439453
 20
358.8119201660156
 11
225.7227325439453
 21
213.8119354248047
  0
LINE
  8
0
  6
CONTINUOUS
 62
     7
 10
225.7227325439453
 20
358.8119201660156
 11
235.7227325439453
 21
358.8119201660156
  0
LINE
  8
0
  6
CONTINUOUS
 62
     7
 10
225.7227325439453
 20
213.8119354248047
 11
235.7227325439453
 21
213.8119354248047
  0
LINE
  8
0
  6
CONTINUOUS
 62
     7
 10
205.7227325439453
 20
338.8119201660156
 11
220.7227325439453
 21
338.8119201660156
  0
LINE
  8
0
  6
CONTINUOUS
 62
     7
 10
205.7227325439453
 20
233.8119354248047
 11
220.7227325439453
 21
233.8119354248047
  0
LINE
  8
0
  6
CONTINUOUS
 62
     7
 10
200.7227325439453
 20
358.8119201660156
 11
200.7227325439453
 21
307.5597534179687
  0
LINE
  8
0
  6
CONTINUOUS
 62
     7
 10
205.7227325439453
 20
295.4354858398437
 11
205.7227325439453
 21
265.9208679199219
  0
LINE
  8
0
  6
CONTINUOUS
 62
     7
 10
200.7227325439453
 20
265.9208679199219
 11
205.7227325439453
 21
265.9208679199219
  0
LINE
  8
0
  6
CONTINUOUS
 62
     7
 10
200.7227325439453
 20
265.9208679199219
 11
200.7227325439453
 21
213.8119354248047
  0
LINE
  8
0
  6
CONTINUOUS
 62
     3
 10
51.22274017333984
 20
286.3119201660156
 11
370.1754455566406
 21
286.3119201660156
  0
LINE
  8
0
  6
CONTINUOUS
 62
     7
 10
190.7227325439453
 20
297.2862548828125
 11
190.7227325439453
 21
212.8119354248047
  0
LINE
  8
0
  6
CONTINUOUS
 62
     7
 10
168.2227325439453
 20
359.8119201660156
 11
190.7227325439453
 21
359.8119201660156
  0
LINE
  8
0
  6
CONTINUOUS
 62
     7
 10
168.2227325439453
 20
212.8119354248047
 11
190.7227325439453
 21
212.8119354248047
  0
LINE
  8
0
  6
CONTINUOUS
 62
     7
 10
168.2227325439453
 20
359.8119201660156
 11
168.2227325439453
 21
212.8119354248047
  0
LINE
  8
0
  6
CONTINUOUS
 62
     7
 10
235.7227325439453
 20
212.8119354248047
 11
258.2227478027344
 21
212.8119354248047
  0
LINE
  8
0
  6
CONTINUOUS
 62
     7
 10
258.2227478027344
 20
359.8119201660156
 11
258.2227478027344
 21
307.1630249023437
  0
LINE
  8
0
  6
CONTINUOUS
 62
     7
 10
235.7227325439453
 20
359.8119201660156
 11
258.2227478027344
 21
359.8119201660156
  0
LINE
  8
0
  6
CONTINUOUS
 62
     7
 10
96.22274017333984
 20
366.3118896484375
 11
96.22274017333984
 21
321.8829650878906
  0
LINE
  8
0
  6
CONTINUOUS
 62
     7
 10
96.22274017333984
 20
366.3118896484375
 11
110.2227401733398
 21
366.3118896484375
  0
LINE
  8
0
  6
CONTINUOUS
 62
     7
 10
96.22274017333984
 20
206.3119354248047
 11
110.2227401733398
 21
206.3119354248047
  0
LINE
  8
0
  6
CONTINUOUS
 62
     7
 10
110.2227401733398
 20
366.3118896484375
 11
110.2227401733398
 21
206.3119354248047
  0
LINE
  8
0
  6
CONTINUOUS
 62
     7
 10
158.2227325439453
 20
358.8119201660156
 11
158.2227325439453
 21
257.0149230957031
  0
LINE
  8
0
  6
CONTINUOUS
 62
     7
 10
158.2227325439453
 20
213.8119354248047
 11
168.2227325439453
 21
213.8119354248047
  0
LINE
  8
0
  6
CONTINUOUS
 62
     7
 10
158.2227325439453
 20
358.8119201660156
 11
168.2227325439453
 21
358.8119201660156
  0
LINE
  8
0
  6
CONTINUOUS
 62
     7
 10
158.2227325439453
 20
232.4403533935547
 11
158.2227325439453
 21
213.8119354248047
  0
LINE
  8
0
  6
CONTINUOUS
 62
     7
 10
133.3877105712891
 20
258.9348754882813
 11
138.6767120361328
 21
241.7275695800781
  0
LINE
  8
0
  6
CONTINUOUS
 62
     7
 10
115.2227401733398
 20
261.18505859375
 11
132.6960754394531
 21
261.18505859375
  0
LINE
  8
0
  6
CONTINUOUS
 62
     7
 10
115.2227401733398
 20
314.9939880371094
 11
153.2227325439453
 21
314.9939880371094
  0
LINE
  8
0
  6
CONTINUOUS
 62
     7
 10
115.2227401733398
 20
292.7968444824219
 11
153.2227325439453
 21
292.7968444824219
  0
LINE
  8
0
  6
CONTINUOUS
 62
     7
 10
138.6204223632813
 20
241.9170379638672
 11
138.2227325439453
 21
241.9170379638672
  0
LINE
  8
0
  6
CONTINUOUS
 62
     7
 10
142.5832824707031
 20
236.0662078857422
 11
138.2227325439453
 21
236.0662078857422
  0
LINE
  8
0
  6
CONTINUOUS
 62
     7
 10
110.2227401733398
 20
238.1602783203125
 11
138.2227478027344
 21
241.9170379638672
  0
LINE
  8
0
  6
CONTINUOUS
 62
     7
 10
138.2227478027344
 20
236.0661926269531
 11
110.2227478027344
 21
232.3094329833984
  0
LINE
  8
0
  6
CONTINUOUS
 62
     7
 10
92.22274017333984
 20
341.3119201660156
 11
92.22274017333984
 21
324.2640991210937
  0
LINE
  8
0
  6
CONTINUOUS
 62
     7
 10
92.22274017333984
 20
231.3119354248047
 11
96.22274017333984
 21
231.3119354248047
  0
LINE
  8
0
  6
CONTINUOUS
 62
     7
 10
92.22274017333984
 20
341.3119201660156
 11
96.22274017333984
 21
341.3119201660156
  0
LINE
  8
0
  6
CONTINUOUS
 62
     7
 10
66.22274017333984
 20
297.3119201660156
 11
66.22274017333984
 21
275.3119201660156
  0
LINE
  8
0
  6
CONTINUOUS
 62
     7
 10
66.22274017333984
 20
275.3119201660156
 11
96.22274017333984
 21
275.3119201660156
  0
LINE
  8
0
  6
CONTINUOUS
 62
     7
 10
66.22274017333984
 20
297.3119201660156
 11
96.22274017333984
 21
297.3119201660156
  0
LINE
  8
0
  6
CONTINUOUS
 62
     7
 10
96.22274017333984
 20
259.2171325683594
 11
96.22274017333984
 21
206.3119354248047
  0
LINE
  8
0
  6
CONTINUOUS
 62
     7
 10
96.22274017333984
 20
301.3119201660156
 11
96.22274017333984
 21
271.3119201660156
  0
LINE
  8
0
  6
CONTINUOUS
 62
     7
 10
92.22274017333984
 20
255.4875030517578
 11
92.22274017333984
 21
231.3119354248047
  0
LINE
  8
0
  6
CONTINUOUS
 62
     7
 10
96.22274017333984
 20
301.3119201660156
 11
99.15134429931641
 21
301.3119201660156
  0
LINE
  8
0
  6
CONTINUOUS
 62
     7
 10
96.22274017333984
 20
271.3119201660156
 11
100.4921646118164
 21
271.3119201660156
  0
LINE
  8
0
  6
CONTINUOUS
 62
     7
 10
66.22274017333984
 20
289.3119201660156
 11
91.22274017333984
 21
289.3119201660156
  0
LINE
  8
0
  6
CONTINUOUS
 62
     7
 10
66.22274017333984
 20
283.3119201660156
 11
91.22274017333984
 21
283.3119201660156
  0
LINE
  8
0
  6
CONTINUOUS
 62
     7
 10
91.22274017333984
 20
289.3119201660156
 11
91.22274017333984
 21
283.3119201660156
  0
LINE
  8
0
  6
CONTINUOUS
 62
     7
 10
153.2227325439453
 20
257.0149230957031
 11
158.2227325439453
 21
257.0149230957031
  0
LINE
  8
0
  6
CONTINUOUS
 62
     7
 10
153.2227325439453
 20
232.4403533935547
 11
158.2227325439453
 21
232.4403533935547
  0
LINE
  8
0
  6
CONTINUOUS
 62
     7
 10
110.2227478027344
 20
343.8133850097656
 11
158.2227325439453
 21
340.4193115234375
  0
LINE
  8
0
  6
CONTINUOUS
 62
     7
 10
110.2227401733398
 20
338.3573303222656
 11
158.2227325439453
 21
333.5992431640625
  0
LINE
  8
0
  6
CONTINUOUS
 62
     7
 10
144.4473114013672
 20
273.8860473632812
 11
158.2227325439453
 21
273.8860473632812
  0
LINE
  8
0
  6
CONTINUOUS
 62
     7
 10
-194.6617736816406
 20
66.18141937255859
 11
-191.0913238525391
 21
65.70076751708984
  0
LINE
  8
0
  6
CONTINUOUS
 62
     7
 10
-198.8473205566406
 20
89.91907501220703
 11
-194.5561065673828
 21
65.58245086669922
  0
LINE
  8
0
  6
CONTINUOUS
 62
     7
 10
-200.8660583496094
 20
65.08745574951172
 11
-204.0567932128906
 21
63.41461563110352
  0
LINE
  8
0
  6
CONTINUOUS
 62
     7
 10
-205.0516052246094
 20
88.82509613037109
 11
-200.7604064941406
 21
64.48847198486328
  0
LINE
  8
0
  6
CONTINUOUS
 62
     3
 10
-273.7772521972656
 20
-13.68806648254395
 11
-93.77725982666016
 21
-13.68806648254395
  0
LINE
  8
0
  6
CONTINUOUS
 62
     7
 10
-180.7772674560547
 20
-0.1880668252706528
 11
-180.7772674560547
 21
-6.188066959381104
  0
LINE
  8
0
  6
CONTINUOUS
 62
     7
 10
-186.7772674560547
 20
-0.1880668252706528
 11
-186.7772674560547
 21
-6.188066959381104
  0
LINE
  8
0
  6
CONTINUOUS
 62
     7
 10
-186.7772674560547
 20
-6.188066959381104
 11
-180.7772674560547
 21
-6.188066959381104
  0
LINE
  8
0
  6
CONTINUOUS
 62
     7
 10
-186.7772674560547
 20
-0.1880668252706528
 11
-180.7772674560547
 21
-0.1880668252706528
  0
LINE
  8
0
  6
CONTINUOUS
 62
     3
 10
-183.7772674560547
 20
77.08155822753906
 11
-183.7772674560547
 21
-102.7526245117188
  0
LINE
  8
0
  6
CONTINUOUS
 62
     7
 10
258.2227478027344
 20
-86.18806457519531
 11
258.2227478027344
 21
58.81193161010742
  0
LINE
  8
0
  6
CONTINUOUS
 62
     7
 10
273.2227478027344
 20
-86.18806457519531
 11
273.2227478027344
 21
58.81193161010742
  0
LINE
  8
0
  6
CONTINUOUS
 62
     7
 10
308.2227478027344
 20
66.31193542480469
 11
308.2227478027344
 21
-93.68806457519531
  0
LINE
  8
0
  6
CONTINUOUS
 62
     7
 10
296.2227478027344
 20
66.31193542480469
 11
308.2227478027344
 21
66.31193542480469
  0
LINE
  8
0
  6
CONTINUOUS
 62
     7
 10
296.2227478027344
 20
66.31193542480469
 11
296.2227478027344
 21
-93.68806457519531
  0
LINE
  8
0
  6
CONTINUOUS
 62
     7
 10
278.2227478027344
 20
24.31193351745605
 11
291.2227478027344
 21
24.31193351745605
  0
LINE
  8
0
  6
CONTINUOUS
 62
     7
 10
296.2227478027344
 20
-93.68806457519531
 11
308.2227478027344
 21
-93.68806457519531
  0
LINE
  8
0
  6
CONTINUOUS
 62
     7
 10
278.2227478027344
 20
-51.68806457519531
 11
291.2227478027344
 21
-51.68806457519531
  0
LINE
  8
0
  6
CONTINUOUS
 62
     7
 10
273.2227478027344
 20
-69.68806457519531
 11
296.2227478027344
 21
-69.68806457519531
  0
LINE
  8
0
  6
CONTINUOUS
 62
     7
 10
273.2227478027344
 20
42.31193542480469
 11
296.2227478027344
 21
42.31193542480469
  0
LINE
  8
0
  6
CONTINUOUS
 62
     7
 10
258.2227478027344
 20
-86.18806457519531
 11
273.2227478027344
 21
-86.18806457519531
  0
LINE
  8
0
  6
CONTINUOUS
 62
     7
 10
273.2227478027344
 20
-18.68806648254395
 11
296.2227478027344
 21
-18.68806648254395
  0
LINE
  8
0
  6
CONTINUOUS
 62
     7
 10
273.2227478027344
 20
-8.688066482543945
 11
296.2227478027344
 21
-8.688066482543945
  0
LINE
  8
0
  6
CONTINUOUS
 62
     7
 10
258.2227478027344
 20
58.81193542480469
 11
273.2227478027344
 21
58.81193542480469
  0
LINE
  8
0
  6
CONTINUOUS
 62
     7
 10
258.2227478027344
 20
358.8119201660156
 11
273.2227478027344
 21
358.8119201660156
  0
LINE
  8
0
  6
CONTINUOUS
 62
     7
 10
273.2227478027344
 20
291.3119201660156
 11
296.2227478027344
 21
291.3119201660156
  0
LINE
  8
0
  6
CONTINUOUS
 62
     7
 10
273.2227478027344
 20
281.3119201660156
 11
296.2227478027344
 21
281.3119201660156
  0
LINE
  8
0
  6
CONTINUOUS
 62
     7
 10
258.2227478027344
 20
213.8119201660156
 11
273.2227478027344
 21
213.8119201660156
  0
LINE
  8
0
  6
CONTINUOUS
 62
     7
 10
273.2227478027344
 20
342.3119201660156
 11
296.2227478027344
 21
342.3119201660156
  0
LINE
  8
0
  6
CONTINUOUS
 62
     7
 10
273.2227478027344
 20
230.3119201660156
 11
296.2227478027344
 21
230.3119201660156
  0
LINE
  8
0
  6
CONTINUOUS
 62
     7
 10
278.2227478027344
 20
248.3119201660156
 11
291.2227478027344
 21
248.3119201660156
  0
LINE
  8
0
  6
CONTINUOUS
 62
     7
 10
296.2227478027344
 20
206.3119201660156
 11
308.2227478027344
 21
206.3119201660156
  0
LINE
  8
0
  6
CONTINUOUS
 62
     7
 10
278.2227478027344
 20
324.3119201660156
 11
291.2227478027344
 21
324.3119201660156
  0
LINE
  8
0
  6
CONTINUOUS
 62
     7
 10
296.2227478027344
 20
366.3119201660156
 11
296.2227478027344
 21
206.3119201660156
  0
LINE
  8
0
  6
CONTINUOUS
 62
     7
 10
296.2227478027344
 20
366.3119201660156
 11
308.2227478027344
 21
366.3119201660156
  0
LINE
  8
0
  6
CONTINUOUS
 62
     7
 10
308.2227478027344
 20
366.3119201660156
 11
308.2227478027344
 21
206.3119201660156
  0
LINE
  8
0
  6
CONTINUOUS
 62
     7
 10
273.2227478027344
 20
213.8119201660156
 11
273.2227478027344
 21
286.3119201660156
  0
LINE
  8
0
  6
CONTINUOUS
 62
     7
 10
258.2227478027344
 20
213.8119201660156
 11
258.2227478027344
 21
297.3343811035156
  0
LINE
  8
0
  6
CONTINUOUS
 62
     7
 10
258.2227478027344
 20
286.3119201660156
 11
258.2227478027344
 21
358.8119201660156
  0
LINE
  8
0
  6
CONTINUOUS
 62
     7
 10
273.2227478027344
 20
286.3119201660156
 11
273.2227478027344
 21
358.8119201660156
  0
LINE
  8
0
  6
CONTINUOUS
 62
     7
 10
258.2227478027344
 20
286.3119201660156
 11
258.2227478027344
 21
212.8119354248047
  0
LINE
  8
0
  6
CONTINUOUS
 62
     7
 10
-202.9817047119141
 20
95.22622680664063
 11
-196.8932647705078
 21
60.69693374633789
  0
LINE
  8
0
  6
CONTINUOUS
 62
     7
 10
198.7227325439453
 20
95.66145324707031
 11
198.7227325439453
 21
57.09295654296875
  0
LINE
  8
0
  6
CONTINUOUS
 62
     7
 10
179.0864410400391
 20
76.42184448242187
 11
219.6697082519531
 21
76.42184448242187
  0
ARC
  8
0
  6
CONTINUOUS
 62
     7
 10
210.7227325439453
 20
43.81193161010742
 40
5.00000000000001
 50
179.9999776881996
 51
270.0000280040019
  0
ARC
  8
0
  6
CONTINUOUS
 62
     7
 10
205.7227325439453
 20
43.81193161010742
 40
5.00000000000001
 50
179.9999776881996
 51
270.0000280040019
  0
ARC
  8
0
  6
CONTINUOUS
 62
     7
 10
205.7227325439453
 20
-71.18806457519531
 40
4.999999999999996
 50
89.99992737239728
 51
179.9999640278213
  0
ARC
  8
0
  6
CONTINUOUS
 62
     7
 10
220.7227325439453
 20
43.81193161010742
 40
4.999999999999997
 50
269.9999974955218
 51
0
  0
ARC
  8
0
  6
CONTINUOUS
 62
     7
 10
220.7227325439453
 20
-71.18806457519531
 40
5
 50
0
 51
90.00000250447815
  0
ARC
  8
0
  6
CONTINUOUS
 62
     7
 10
153.2227325439453
 20
17.6197338104248
 40
4.999999999999999
 50
269.9999974955218
 51
0
  0
ARC
  8
0
  6
CONTINUOUS
 62
     7
 10
115.2227401733398
 20
17.6197338104248
 40
5
 50
179.999991348578
 51
270.0000006832453
  0
ARC
  8
0
  6
CONTINUOUS
 62
     7
 10
115.2227401733398
 20
-44.99587631225586
 40
4.999999999999997
 50
90.00000250447815
 51
180.0000050089563
  0
ARC
  8
0
  6
CONTINUOUS
 62
     7
 10
153.2227325439453
 20
-44.99587631225586
 40
5
 50
0
 51
90.00000250447815
  0
ARC
  8
0
  6
CONTINUOUS
 62
     7
 10
135.0587158203125
 20
42.09565353393555
 40
2.000000000000003
 50
261.4356711065667
 51
342.3614940911166
  0
ARC
  8
0
  6
CONTINUOUS
 62
     7
 10
205.7227325439453
 20
228.8119354248047
 40
4.99999999999999
 50
89.99998201391064
 51
179.9999640278213
  0
ARC
  8
0
  6
CONTINUOUS
 62
     7
 10
205.7227325439453
 20
343.8119201660156
 40
5.00000000000001
 50
179.9999776881996
 51
270.0000280040019
  0
ARC
  8
0
  6
CONTINUOUS
 62
     7
 10
220.7227325439453
 20
228.8119354248047
 40
5
 50
0
 51
90.00000250447815
  0
ARC
  8
0
  6
CONTINUOUS
 62
     7
 10
220.7227325439453
 20
343.8119201660156
 40
5.000000000000004
 50
269.9999974955218
 51
0
  0
ARC
  8
0
  6
CONTINUOUS
 62
     7
 10
115.2227401733398
 20
319.9939880371094
 40
5
 50
179.999991348578
 51
270.0000006832453
  0
ARC
  8
0
  6
CONTINUOUS
 62
     7
 10
115.2227401733398
 20
297.7968444824219
 40
5
 50
179.999991348578
 51
270.0000006832453
  0
ARC
  8
0
  6
CONTINUOUS
 62
     7
 10
91.22274017333984
 20
286.3119201660156
 40
3.000000000000003
 50
269.9999974955218
 51
90.0000025044782
  0
ARC
  8
0
  6
CONTINUOUS
 62
     7
 10
153.2227325439453
 20
319.9939880371094
 40
5.000000000000004
 50
269.9999974955218
 51
0
  0
ARC
  8
0
  6
CONTINUOUS
 62
     7
 10
153.2227325439453
 20
297.7968444824219
 40
5.000000000000004
 50
269.9999974955218
 51
0
  0
ARC
  8
0
  6
CONTINUOUS
 62
     7
 10
115.2227401733398
 20
256.18505859375
 40
5.000000000000004
 50
90.00000250447815
 51
180.0000050089563
  0
ARC
  8
0
  6
CONTINUOUS
 62
     7
 10
-201.9495086669922
 20
89.3720703125
 40
3.15000009536742
 50
9.999998855319246
 51
189.9999620293669
  0
ARC
  8
0
  6
CONTINUOUS
 62
     3
 10
-183.7772674560547
 20
-13.68806648254395
 40
65
 50
261.1501145577471
 51
278.8498804332965
  0
CIRCLE
  8
0
  6
CONTINUOUS
 62
     7
 10
-183.7772674560547
 20
-13.68806648254395
 40
80
  0
ARC
  8
0
  6
CONTINUOUS
 62
     7
 10
-183.7772674560547
 20
-13.68806648254395
 40
11
 50
105.8266231510974
 51
74.17337821539321
  0
CIRCLE
  8
0
  6
CONTINUOUS
 62
     7
 10
-183.7772674560547
 20
-13.68806648254395
 40
55
  0
CIRCLE
  8
0
  6
CONTINUOUS
 62
     7
 10
-183.7772674560547
 20
-13.68806648254395
 40
50
  0
ARC
  8
0
  6
CONTINUOUS
 62
     3
 10
-183.7772674560547
 20
-13.68806648254395
 40
65
 50
351.1501170622253
 51
8.849882937774678
  0
CIRCLE
  8
0
  6
CONTINUOUS
 62
     7
 10
-118.7772598266602
 20
-13.68806648254395
 40
6
  0
CIRCLE
  8
0
  6
CONTINUOUS
 62
     7
 10
-183.7772674560547
 20
51.31193161010742
 40
6
  0
ARC
  8
0
  6
CONTINUOUS
 62
     3
 10
-183.7772674560547
 20
-13.68806648254395
 40
65
 50
81.15011956670347
 51
98.84988544225284
  0
CIRCLE
  8
0
  6
CONTINUOUS
 62
     7
 10
-248.7772674560547
 20
-13.68806648254395
 40
6
  0
ARC
  8
0
  6
CONTINUOUS
 62
     3
 10
-183.7772674560547
 20
-13.68806648254395
 40
65
 50
171.1501152409925
 51
188.8498811165419
  0
CIRCLE
  8
0
  6
CONTINUOUS
 62
     7
 10
-183.7772674560547
 20
-78.68806457519531
 40
6
  0
ARC
  8
0
  6
CONTINUOUS
 62
     7
 10
291.2227478027344
 20
-56.68806457519531
 40
5
 50
0
 51
90.00000250447847
  0
ARC
  8
0
  6
CONTINUOUS
 62
     7
 10
291.2227478027344
 20
29.31193351745605
 40
5.000000000000001
 50
269.9999974955215
 51
0
  0
ARC
  8
0
  6
CONTINUOUS
 62
     7
 10
278.2227478027344
 20
29.31193351745605
 40
5
 50
179.999991348578
 51
270.0000006832456
  0
ARC
  8
0
  6
CONTINUOUS
 62
     7
 10
278.2227478027344
 20
-56.68806457519531
 40
4.999999999999997
 50
90.00000250447847
 51
180.0000050089563
  0
ARC
  8
0
  6
CONTINUOUS
 62
     7
 10
278.2227478027344
 20
243.3119201660156
 40
5.000000000000004
 50
90.00000250447847
 51
180.0000050089563
  0
ARC
  8
0
  6
CONTINUOUS
 62
     7
 10
278.2227478027344
 20
329.3119201660156
 40
5
 50
179.999991348578
 51
270.0000006832456
  0
ARC
  8
0
  6
CONTINUOUS
 62
     7
 10
291.2227478027344
 20
329.3119201660156
 40
5.000000000000004
 50
269.9999974955215
 51
0
  0
ARC
  8
0
  6
CONTINUOUS
 62
     7
 10
291.2227478027344
 20
243.3119201660156
 40
5
 50
0
 51
90.00000250447847
  0
POLYLINE
  8
0
  6
CONTINUOUS
 62
     7
 66
     1
 10
0
 20
0
  0
VERTEX
  8
0
  6
CONTINUOUS
 62
     7
 10
206.2839217360145
 20
62.20378448699724
 42
0.08272213421661566
  0
VERTEX
  8
0
  6
CONTINUOUS
 62
     7
 10
210.5708648803685
 20
65.40513442057002
 42
0.08385192594299753
  0
VERTEX
  8
0
  6
CONTINUOUS
 62
     7
 10
213.5785706583048
 20
69.8300733164151
 42
0.08471350467256721
  0
VERTEX
  8
0
  6
CONTINUOUS
 62
     7
 10
214.9566334512633
 20
74.99943298543755
 42
0.08490394875905413
  0
VERTEX
  8
0
  6
CONTINUOUS
 62
     7
 10
214.5393664401955
 20
80.33178501994868
 42
0.08436955217464057
  0
VERTEX
  8
0
  6
CONTINUOUS
 62
     7
 10
212.3775833125731
 20
85.22503083362855
 42
0.08333436989744844
  0
VERTEX
  8
0
  6
CONTINUOUS
 62
     7
 10
208.7278044752963
 20
89.13730172552965
 42
0.08226408050041641
  0
VERTEX
  8
0
  6
CONTINUOUS
 62
     7
 10
204.0054337211827
 20
91.65437033569698
 42
0.08162576393446415
  0
VERTEX
  8
0
  6
CONTINUOUS
 62
     7
 10
198.7227325439453
 20
92.52207946777344
 42
0.08158652161646342
  0
VERTEX
  8
0
  6
CONTINUOUS
 62
     7
 10
193.4424623658651
 20
91.65519151297691
 42
0.08224709978067386
  0
VERTEX
  8
0
  6
CONTINUOUS
 62
     7
 10
188.7205459189718
 20
89.13951377419339
 42
0.08333889472024313
  0
VERTEX
  8
0
  6
CONTINUOUS
 62
     7
 10
185.0696997680819
 20
85.22778076267819
 42
0.0843784607258887
  0
VERTEX
  8
0
  6
CONTINUOUS
 62
     7
 10
182.9067604609545
 20
80.3344043356208
 42
0.08490760462444635
  0
VERTEX
  8
0
  6
CONTINUOUS
 62
     7
 10
182.4886069204999
 20
75.00188855048749
 42
0.0847096809875377
  0
VERTEX
  8
0
  6
CONTINUOUS
 62
     7
 10
183.865760198767
 20
69.83255140630069
 42
0.08383807105848179
  0
VERTEX
  8
0
  6
CONTINUOUS
 62
     7
 10
186.8720755124272
 20
65.40777050790237
 42
0.08273730681986217
  0
VERTEX
  8
0
  6
CONTINUOUS
 62
     7
 10
191.1591345629321
 20
62.20502872614111
 42
0
  0
SEQEND
  8
0
  0
POLYLINE
  8
0
  6
CONTINUOUS
 62
     7
 66
     1
 10
0
 20
0
 70
     1
  0
VERTEX
  8
0
  6
CONTINUOUS
 62
     7
 10
208.7227325439453
 20
76.42184448242187
 42
0.1005697614596681
  0
VERTEX
  8
0
  6
CONTINUOUS
 62
     7
 10
207.9513489698405
 20
80.21465182991956
 42
0.09931459426857175
  0
VERTEX
  8
0
  6
CONTINUOUS
 62
     7
 10
205.767660846565
 20
83.41113751166363
 42
0.09762475566248438
  0
VERTEX
  8
0
  6
CONTINUOUS
 62
     7
 10
202.5255060642586
 20
85.5300656006803
 42
0.09645742494750069
  0
VERTEX
  8
0
  6
CONTINUOUS
 62
     7
 10
198.7227325439453
 20
86.26992797851563
 42
0.09643683433005942
  0
VERTEX
  8
0
  6
CONTINUOUS
 62
     7
 10
194.9207214763846
 20
85.53037429780011
 42
0.09759325526351151
  0
VERTEX
  8
0
  6
CONTINUOUS
 62
     7
 10
191.6792695164935
 20
83.4125696214798
 42
0.09935255147168941
  0
VERTEX
  8
0
  6
CONTINUOUS
 62
     7
 10
189.4943306060478
 20
80.21515794353719
 42
0.1005839922554282
  0
VERTEX
  8
0
  6
CONTINUOUS
 62
     7
 10
188.7227325439453
 20
76.42184448242187
 42
0.1005699380586755
  0
VERTEX
  8
0
  6
CONTINUOUS
 62
     7
 10
189.4941170154967
 20
72.62903742335581
 42
0.09931486592912635
  0
VERTEX
  8
0
  6
CONTINUOUS
 62
     7
 10
191.6778089723843
 20
69.43255451154558
 42
0.09762481604129063
  0
VERTEX
  8
0
  6
CONTINUOUS
 62
     7
 10
194.9199678133941
 20
67.31363271494659
 42
0.09645692972528144
  0
VERTEX
  8
0
  6
CONTINUOUS
 62
     7
 10
198.7227325439453
 20
66.57377624511719
 42
0.09643659111140636
  0
VERTEX
  8
0
  6
CONTINUOUS
 62
     7
 10
202.5247441563006
 20
67.31332779841563
 42
0.0975933204109434
  0
VERTEX
  8
0
  6
CONTINUOUS
 62
     7
 10
205.7661980626436
 20
69.4311294640133
 42
0.09935282727083668
  0
VERTEX
  8
0
  6
CONTINUOUS
 62
     7
 10
207.9511375221124
 20
72.62854060152603
 42
0.1005839080411541
  0
SEQEND
  8
0
  0
POLYLINE
  8
0
  6
CONTINUOUS
 62
     7
 66
     1
 10
0
 20
0
  0
VERTEX
  8
0
  6
CONTINUOUS
 62
     7
 10
205.8559928632773
 20
64.64142719614404
 42
0.2015082714047241
  0
VERTEX
  8
0
  6
CONTINUOUS
 62
     7
 10
205.1259895811897
 20
65.14990760697425
 42
0.03155962249724133
  0
VERTEX
  8
0
  6
CONTINUOUS
 62
     7
 10
204.2361611306964
 20
65.38898874999049
 42
0.01542694082229936
  0
VERTEX
  8
0
  6
CONTINUOUS
 62
     7
 10
203.328522105452
 20
65.54835019488412
 42
0.01021026469516643
  0
VERTEX
  8
0
  6
CONTINUOUS
 62
     7
 10
202.4129974323829
 20
65.66215480169518
 42
0.007829247746804966
  0
VERTEX
  8
0
  6
CONTINUOUS
 62
     7
 10
201.4939184713737
 20
65.74324330921606
 42
0.00658871384224138
  0
VERTEX
  8
0
  6
CONTINUOUS
 62
     7
 10
200.5726847254155
 20
65.79798800733278
 42
0.005931101374098459
  0
VERTEX
  8
0
  6
CONTINUOUS
 62
     7
 10
199.6502823515031
 20
65.82975557714387
 42
0.005641265167953078
  0
VERTEX
  8
0
  6
CONTINUOUS
 62
     7
 10
198.7273556620879
 20
65.84024021914917
 42
0.005639189148616692
  0
VERTEX
  8
0
  6
CONTINUOUS
 62
     7
 10
197.8045377786895
 20
65.82996688888669
 42
0.005918164220051017
  0
VERTEX
  8
0
  6
CONTINUOUS
 62
     7
 10
196.8833693923298
 20
65.79847875949548
 42
0.006584376605041607
  0
VERTEX
  8
0
  6
CONTINUOUS
 62
     7
 10
195.961359669699
 20
65.74395801975159
 42
0.007814520412760532
  0
VERTEX
  8
0
  6
CONTINUOUS
 62
     7
 10
195.0419260165716
 20
65.66314279134876
 42
0.01018488360744259
  0
VERTEX
  8
0
  6
CONTINUOUS
 62
     7
 10
194.125663489134
 20
65.54962429834696
 42
0.01540565567860936
  0
VERTEX
  8
0
  6
CONTINUOUS
 62
     7
 10
193.2153929233044
 20
65.39027025184009
 42
0.03141742369793924
  0
VERTEX
  8
0
  6
CONTINUOUS
 62
     7
 10
192.3241123524349
 20
65.15153671636359
 42
0.1997036642486861
  0
VERTEX
  8
0
  6
CONTINUOUS
 62
     7
 10
191.5898815084069
 20
64.64370741199207
 42
0
  0
SEQEND
  8
0
  0
POLYLINE
  8
0
  6
CONTINUOUS
 62
     7
 66
     1
 10
0
 20
0
  0
VERTEX
  8
0
  6
CONTINUOUS
 62
     7
 10
153.2227325439453
 20
54.30390548706055
 42
0.02729414574269297
  0
VERTEX
  8
0
  6
CONTINUOUS
 62
     7
 10
150.7589667318683
 20
54.16970056521959
 42
0.02858769292555736
  0
VERTEX
  8
0
  6
CONTINUOUS
 62
     7
 10
148.3261567137352
 20
53.76258190798536
 42
0.03145287426880304
  0
VERTEX
  8
0
  6
CONTINUOUS
 62
     7
 10
145.958704204822
 20
53.06792156872486
 42
0.03644156390585649
  0
VERTEX
  8
0
  6
CONTINUOUS
 62
     7
 10
143.7070527511726
 20
52.06102688676567
 42
0.04462440548513498
  0
VERTEX
  8
0
  6
CONTINUOUS
 62
     7
 10
141.6468327838373
 20
50.70658863552929
 42
0.0574937604933496
  0
VERTEX
  8
0
  6
CONTINUOUS
 62
     7
 10
139.9029143159372
 20
48.96657965540881
 42
0.07545535955643837
  0
VERTEX
  8
0
  6
CONTINUOUS
 62
     7
 10
138.676529077682
 20
46.83460381073447
 42
0.09188341514557387
  0
VERTEX
  8
0
  6
CONTINUOUS
 62
     7
 10
138.2227325439453
 20
44.42240524291992
 42
0.09187005358216897
  0
VERTEX
  8
0
  6
CONTINUOUS
 62
     7
 10
138.6763941979813
 20
42.01055967960541
 42
0.07541336874226943
  0
VERTEX
  8
0
  6
CONTINUOUS
 62
     7
 10
139.9016598948552
 20
39.87982688093747
 42
0.05747327667530581
  0
VERTEX
  8
0
  6
CONTINUOUS
 62
     7
 10
141.643988588102
 20
38.14049621754066
 42
0.04463179785894502
  0
VERTEX
  8
0
  6
CONTINUOUS
 62
     7
 10
143.7034163009742
 20
36.78575014730493
 42
0.03644950507323901
  0
VERTEX
  8
0
  6
CONTINUOUS
 62
     7
 10
145.9546286040531
 20
35.77837553940616
 42
0.03145601781676451
  0
VERTEX
  8
0
  6
CONTINUOUS
 62
     7
 10
148.3216438632866
 20
35.08325582644282
 42
0.02860280347113232
  0
VERTEX
  8
0
  6
CONTINUOUS
 62
     7
 10
150.7553783767842
 20
34.67550383232383
 42
0.02729781560605052
  0
VERTEX
  8
0
  6
CONTINUOUS
 62
     7
 10
153.2193738137319
 20
34.54090524649904
 42
0
  0
SEQEND
  8
0
  0
POLYLINE
  8
0
  6
CONTINUOUS
 62
     7
 66
     1
 10
0
 20
0
  0
VERTEX
  8
0
  6
CONTINUOUS
 62
     7
 10
92.22280921145536
 20
27.89732356337328
 42
-0.1732920764023997
  0
VERTEX
  8
0
  6
CONTINUOUS
 62
     7
 10
98.40673949691777
 20
22.43766881783339
 42
-0.1212092063149308
  0
VERTEX
  8
0
  6
CONTINUOUS
 62
     7
 10
99.40852966663716
 20
14.16611553960755
 42
-0.000366364557080793
  0
VERTEX
  8
0
  6
CONTINUOUS
 62
     7
 10
98.78450216612525
 20
5.769791335600581
 42
0.007283513549786972
  0
VERTEX
  8
0
  6
CONTINUOUS
 62
     7
 10
98.28848350981622
 20
-2.635140040303666
 42
0.01061071915006699
  0
VERTEX
  8
0
  6
CONTINUOUS
 62
     7
 10
98.11042656982741
 20
-11.05130608269704
 42
0.01021215283577986
  0
VERTEX
  8
0
  6
CONTINUOUS
 62
     7
 10
98.28426765944059
 20
-19.46700901395524
 42
0.006671911329363663
  0
VERTEX
  8
0
  6
CONTINUOUS
 62
     7
 10
98.76493182307405
 20
-27.87186340456315
 42
-0.1117223467522357
  0
VERTEX
  8
0
  6
CONTINUOUS
 62
     7
 10
97.82896274924948
 20
-36.16504451273666
 42
-0.1471516027564382
  0
VERTEX
  8
0
  6
CONTINUOUS
 62
     7
 10
92.22512248577989
 20
-42.28307972500824
 42
0
  0
SEQEND
  8
0
  0
POLYLINE
  8
0
  6
CONTINUOUS
 62
     7
 66
     1
 10
0
 20
0
  0
VERTEX
  8
0
  6
CONTINUOUS
 62
     7
 10
190.9846347660805
 20
297.2492983141981
 42
0.04188730367416232
  0
VERTEX
  8
0
  6
CONTINUOUS
 62
     7
 10
191.4247670281448
 20
296.0213241656037
 42
0.04165594837387075
  0
VERTEX
  8
0
  6
CONTINUOUS
 62
     7
 10
192.0630138259747
 20
294.8834011635998
 42
0.04136510392955308
  0
VERTEX
  8
0
  6
CONTINUOUS
 62
     7
 10
192.8804707081248
 20
293.8665478273172
 42
0.04106114708357071
  0
VERTEX
  8
0
  6
CONTINUOUS
 62
     7
 10
193.8537807493875
 20
292.9974121303127
 42
0.04077357732512924
  0
VERTEX
  8
0
  6
CONTINUOUS
 62
     7
 10
194.955853191271
 20
292.2982326651853
 42
0.04052878174779671
  0
VERTEX
  8
0
  6
CONTINUOUS
 62
     7
 10
196.1567122456792
 20
291.7864847359108
 42
0.04034729443309751
  0
VERTEX
  8
0
  6
CONTINUOUS
 62
     7
 10
197.4242870000205
 20
291.4746735433254
 42
0.04023511476117492
  0
VERTEX
  8
0
  6
CONTINUOUS
 62
     7
 10
198.724910356915
 20
291.3702090321619
 42
0.04022823417027387
  0
VERTEX
  8
0
  6
CONTINUOUS
 62
     7
 10
200.0252522096976
 20
291.4753345679543
 42
0.04031551583047172
  0
VERTEX
  8
0
  6
CONTINUOUS
 62
     7
 10
201.2916811656226
 20
291.787461959455
 42
0.04051141576202591
  0
VERTEX
  8
0
  6
CONTINUOUS
 62
     7
 10
202.4918358124347
 20
292.2994020486013
 42
0.04075983235440432
  0
VERTEX
  8
0
  6
CONTINUOUS
 62
     7
 10
203.5933256996124
 20
292.9986523320824
 42
0.04106008099376447
  0
VERTEX
  8
0
  6
CONTINUOUS
 62
     7
 10
204.5663773026308
 20
293.8680040873442
 42
0.04137779398191475
  0
VERTEX
  8
0
  6
CONTINUOUS
 62
     7
 10
205.3837906168921
 20
294.8853835373921
 42
0.04167556173290975
  0
VERTEX
  8
0
  6
CONTINUOUS
 62
     7
 10
206.0219377775852
 20
296.0240443651348
 42
0.04191649456144618
  0
VERTEX
  8
0
  6
CONTINUOUS
 62
     7
 10
206.4618288064229
 20
297.2530499223766
 42
0
  0
SEQEND
  8
0
  0
POLYLINE
  8
0
  6
CONTINUOUS
 62
     7
 66
     1
 10
0
 20
0
  0
VERTEX
  8
0
  6
CONTINUOUS
 62
     7
 10
209.6541373729009
 20
306.5721057932978
 42
0.01754280247143884
  0
VERTEX
  8
0
  6
CONTINUOUS
 62
     7
 10
208.3126695443656
 20
306.8652487797961
 42
0.01105000106661328
  0
VERTEX
  8
0
  6
CONTINUOUS
 62
     7
 10
206.9563816364692
 20
307.083301693201
 42
0.008116753947665039
  0
VERTEX
  8
0
  6
CONTINUOUS
 62
     7
 10
205.5920075772833
 20
307.2499868389293
 42
0.006531214552841586
  0
VERTEX
  8
0
  6
CONTINUOUS
 62
     7
 10
204.2235753581307
 20
307.3769185058428
 42
0.005600166967230408
  0
VERTEX
  8
0
  6
CONTINUOUS
 62
     7
 10
202.8521972124133
 20
307.4707942508001
 42
0.005037299046557559
  0
VERTEX
  8
0
  6
CONTINUOUS
 62
     7
 10
201.4788073501725
 20
307.5355888323233
 42
0.004711430493074128
  0
VERTEX
  8
0
  6
CONTINUOUS
 62
     7
 10
200.1043207143876
 20
307.5736661376727
 42
0.004560874606628553
  0
VERTEX
  8
0
  6
CONTINUOUS
 62
     7
 10
198.7293549789355
 20
307.586303421378
 42
0.004559742370410806
  0
VERTEX
  8
0
  6
CONTINUOUS
 62
     7
 10
197.3545153179079
 20
307.5739102300751
 42
0.004705488727812678
  0
VERTEX
  8
0
  6
CONTINUOUS
 62
     7
 10
195.98108057127
 20
307.536124185285
 42
0.005034824033414987
  0
VERTEX
  8
0
  6
CONTINUOUS
 62
     7
 10
194.6071331751448
 20
307.4715891151378
 42
0.005594377643117284
  0
VERTEX
  8
0
  6
CONTINUOUS
 62
     7
 10
193.2353957246989
 20
307.37799699266
 42
0.006523128034407416
  0
VERTEX
  8
0
  6
CONTINUOUS
 62
     7
 10
191.8662250324243
 20
307.2513432636395
 42
0.008102150586954286
  0
VERTEX
  8
0
  6
CONTINUOUS
 62
     7
 10
190.501077516518
 20
307.0849721662867
 42
0.01103428390014654
  0
VERTEX
  8
0
  6
CONTINUOUS
 62
     7
 10
189.1426402773099
 20
306.8670688355018
 42
0.0175137398731538
  0
VERTEX
  8
0
  6
CONTINUOUS
 62
     7
 10
187.7985197685043
 20
306.5739715399637
 42
0
  0
SEQEND
  8
0
  0
POLYLINE
  8
0
  6
CONTINUOUS
 62
     7
 66
     1
 10
0
 20
0
 70
     1
  0
VERTEX
  8
0
  6
CONTINUOUS
 62
     7
 10
198.7227325439453
 20
301.3820190429687
 42
0.01162476452188984
  0
VERTEX
  8
0
  6
CONTINUOUS
 62
     7
 10
195.3046216705726
 20
301.3035284546925
 42
0.01447217399081131
  0
VERTEX
  8
0
  6
CONTINUOUS
 62
     7
 10
191.8941118130935
 20
301.0500007707207
 42
0.02556038781703096
  0
VERTEX
  8
0
  6
CONTINUOUS
 62
     7
 10
188.5137777625259
 20
300.5378304256403
 42
0.1952839009470551
  0
VERTEX
  8
0
  6
CONTINUOUS
 62
     7
 10
185.5727446871054
 20
299.0963527224386
 42
0.193898769165341
  0
VERTEX
  8
0
  6
CONTINUOUS
 62
     7
 10
188.5170165039539
 20
297.658571925664
 42
0.02553136055714954
  0
VERTEX
  8
0
  6
CONTINUOUS
 62
     7
 10
191.8956614731518
 20
297.1469402964159
 42
0.01446583242552146
  0
VERTEX
  8
0
  6
CONTINUOUS
 62
     7
 10
195.3050774388133
 20
296.8935610107739
 42
0.01162275125251636
  0
VERTEX
  8
0
  6
CONTINUOUS
 62
     7
 10
198.7227325439453
 20
296.8150939941406
 42
0.01162444772987353
  0
VERTEX
  8
0
  6
CONTINUOUS
 62
     7
 10
202.1408434861377
 20
296.8935823161827
 42
0.01447191320541932
  0
VERTEX
  8
0
  6
CONTINUOUS
 62
     7
 10
205.5513538260909
 20
297.1471038386895
 42
0.02556016153305312
  0
VERTEX
  8
0
  6
CONTINUOUS
 62
     7
 10
208.9316893382175
 20
297.6592647792361
 42
0.1952857525117036
  0
VERTEX
  8
0
  6
CONTINUOUS
 62
     7
 10
211.8727203724544
 20
299.100734924149
 42
0.193897034638644
  0
VERTEX
  8
0
  6
CONTINUOUS
 62
     7
 10
208.9284483040881
 20
300.5385229197228
 42
0.02553159831796876
  0
VERTEX
  8
0
  6
CONTINUOUS
 62
     7
 10
205.5498048087472
 20
301.0501641325273
 42
0.01446609579011795
  0
VERTEX
  8
0
  6
CONTINUOUS
 62
     7
 10
202.1403893240171
 20
301.3035496791843
 42
0.01162307440157639
  0
SEQEND
  8
0
  0
POLYLINE
  8
0
  6
CONTINUOUS
 62
     7
 66
     1
 10
0
 20
0
  0
VERTEX
  8
0
  6
CONTINUOUS
 62
     7
 10
187.7964324951172
 20
306.5734252929687
 42
0.01843635118415396
  0
VERTEX
  8
0
  6
CONTINUOUS
 62
     7
 10
186.8154607419912
 20
306.3336037176806
 42
0.00507771345747314
  0
VERTEX
  8
0
  6
CONTINUOUS
 62
     7
 10
185.8460479341025
 20
306.0505411822381
 42
0.02696900170241859
  0
VERTEX
  8
0
  6
CONTINUOUS
 62
     7
 10
184.8953429710907
 20
305.710668489681
 42
0.05660757361486716
  0
VERTEX
  8
0
  6
CONTINUOUS
 62
     7
 10
184.0155474065396
 20
305.2190692143051
 42
0.06337923833051147
  0
VERTEX
  8
0
  6
CONTINUOUS
 62
     7
 10
183.2877449598919
 20
304.522413407938
 42
0.06341668615130178
  0
VERTEX
  8
0
  6
CONTINUOUS
 62
     7
 10
182.7514013300712
 20
303.6684020982244
 42
0.07213583156033783
  0
VERTEX
  8
0
  6
CONTINUOUS
 62
     7
 10
182.4658267081841
 20
302.7034509355268
 42
0.07236455277578221
  0
VERTEX
  8
0
  6
CONTINUOUS
 62
     7
 10
182.4659381939035
 20
301.6971971481922
 42
0.07212300140070578
  0
VERTEX
  8
0
  6
CONTINUOUS
 62
     7
 10
182.7516350886871
 20
300.732486700019
 42
0.06331747111164146
  0
VERTEX
  8
0
  6
CONTINUOUS
 62
     7
 10
183.2870807933554
 20
299.8797986355551
 42
0.06336610898972497
  0
VERTEX
  8
0
  6
CONTINUOUS
 62
     7
 10
184.0146980556198
 20
299.1829512402729
 42
0.05663944402412612
  0
VERTEX
  8
0
  6
CONTINUOUS
 62
     7
 10
184.8943923425905
 20
298.6911387205689
 42
0.02700180119261938
  0
VERTEX
  8
0
  6
CONTINUOUS
 62
     7
 10
185.8452894528427
 20
298.3510898720986
 42
0.005083127334606112
  0
VERTEX
  8
0
  6
CONTINUOUS
 62
     7
 10
186.8152207291087
 20
298.0678607511617
 42
0.01843875788476632
  0
VERTEX
  8
0
  6
CONTINUOUS
 62
     7
 10
187.7964324951172
 20
297.8279724121094
 42
0
  0
SEQEND
  8
0
  0
POLYLINE
  8
0
  6
CONTINUOUS
 62
     7
 66
     1
 10
0
 20
0
  0
VERTEX
  8
0
  6
CONTINUOUS
 62
     7
 10
209.6490325927734
 20
306.5734252929687
 42
-0.01843635118415402
  0
VERTEX
  8
0
  6
CONTINUOUS
 62
     7
 10
210.6300043458994
 20
306.3336037176806
 42
-0.005077713457473251
  0
VERTEX
  8
0
  6
CONTINUOUS
 62
     7
 10
211.5994171537882
 20
306.0505411822381
 42
-0.02696900170241715
  0
VERTEX
  8
0
  6
CONTINUOUS
 62
     7
 10
212.5501221167999
 20
305.710668489681
 42
-0.05660757361487031
  0
VERTEX
  8
0
  6
CONTINUOUS
 62
     7
 10
213.429917681351
 20
305.2190692143051
 42
-0.06337923833051666
  0
VERTEX
  8
0
  6
CONTINUOUS
 62
     7
 10
214.1577201279988
 20
304.522413407938
 42
-0.06341668615130173
  0
VERTEX
  8
0
  6
CONTINUOUS
 62
     7
 10
214.6940637578195
 20
303.6684020982244
 42
-0.07213583156034087
  0
VERTEX
  8
0
  6
CONTINUOUS
 62
     7
 10
214.9796383797065
 20
302.7034509355268
 42
-0.07236455277577829
  0
VERTEX
  8
0
  6
CONTINUOUS
 62
     7
 10
214.9795268939872
 20
301.6971971481922
 42
-0.07212300140070199
  0
VERTEX
  8
0
  6
CONTINUOUS
 62
     7
 10
214.6938299992035
 20
300.732486700019
 42
-0.06331747111164146
  0
VERTEX
  8
0
  6
CONTINUOUS
 62
     7
 10
214.1583842945353
 20
299.8797986355551
 42
-0.06336610898972464
  0
VERTEX
  8
0
  6
CONTINUOUS
 62
     7
 10
213.4307670322709
 20
299.1829512402729
 42
-0.05663944402412278
  0
VERTEX
  8
0
  6
CONTINUOUS
 62
     7
 10
212.5510727453002
 20
298.6911387205689
 42
-0.02700180119261938
  0
VERTEX
  8
0
  6
CONTINUOUS
 62
     7
 10
211.6001756350479
 20
298.3510898720986
 42
-0.005083127334606112
  0
VERTEX
  8
0
  6
CONTINUOUS
 62
     7
 10
210.6302443587819
 20
298.0678607511617
 42
-0.01843875788476454
  0
VERTEX
  8
0
  6
CONTINUOUS
 62
     7
 10
209.6490325927734
 20
297.8279724121094
 42
0
  0
SEQEND
  8
0
  0
POLYLINE
  8
0
  6
CONTINUOUS
 62
     7
 66
     1
 10
0
 20
0
  0
VERTEX
  8
0
  6
CONTINUOUS
 62
     7
 10
144.4485992121259
 20
273.8859473858927
 42
0.01863018030189345
  0
VERTEX
  8
0
  6
CONTINUOUS
 62
     7
 10
143.1700234142688
 20
273.5861040991078
 42
0.01914897042833693
  0
VERTEX
  8
0
  6
CONTINUOUS
 62
     7
 10
141.9176205216654
 20
273.1906308770793
 42
0.01982313396019049
  0
VERTEX
  8
0
  6
CONTINUOUS
 62
     7
 10
140.6996325683505
 20
272.6988363467088
 42
0.02065958492839585
  0
VERTEX
  8
0
  6
CONTINUOUS
 62
     7
 10
139.5251902371921
 20
272.1101125297729
 42
0.02166350381894796
  0
VERTEX
  8
0
  6
CONTINUOUS
 62
     7
 10
138.4045018078681
 20
271.424150036018
 42
0.02283527159553895
  0
VERTEX
  8
0
  6
CONTINUOUS
 62
     7
 10
137.3490165997302
 20
270.641238612628
 42
0.02416589400121097
  0
VERTEX
  8
0
  6
CONTINUOUS
 62
     7
 10
136.3715265610592
 20
269.7626724686983
 42
0.0256307460667707
  0
VERTEX
  8
0
  6
CONTINUOUS
 62
     7
 10
135.4861479747973
 20
268.7912710249158
 42
0.02718211442709671
  0
VERTEX
  8
0
  6
CONTINUOUS
 62
     7
 10
134.7081019080316
 20
267.7320019224197
 42
0.02874234749612938
  0
VERTEX
  8
0
  6
CONTINUOUS
 62
     7
 10
134.0531981955565
 20
266.5926473131137
 42
0.03020135820992214
  0
VERTEX
  8
0
  6
CONTINUOUS
 62
     7
 10
133.5369447990436
 20
265.3843864320641
 42
0.03142373780125411
  0
VERTEX
  8
0
  6
CONTINUOUS
 62
     7
 10
133.1732791134309
 20
264.1220959752805
 42
0.03226953360248003
  0
VERTEX
  8
0
  6
CONTINUOUS
 62
     7
 10
132.9730610829539
 20
262.8241421653727
 42
0.03261578048670431
  0
VERTEX
  8
0
  6
CONTINUOUS
 62
     7
 10
132.9426215485807
 20
261.511953322457
 42
0.03242756620370609
  0
VERTEX
  8
0
  6
CONTINUOUS
 62
     7
 10
133.0827152606688
 20
260.2074521445016
 42
0.03175162124261961
  0
VERTEX
  8
0
  6
CONTINUOUS
 62
     7
 10
133.3888599211914
 20
258.9311247941585
 42
0
  0
SEQEND
  8
0
  0
POLYLINE
  8
0
  6
CONTINUOUS
 62
     7
 66
     1
 10
0
 20
0
  0
VERTEX
  8
0
  6
CONTINUOUS
 62
     7
 10
153.2227325439453
 20
257.0149230957031
 42
0.03684090405967717
  0
VERTEX
  8
0
  6
CONTINUOUS
 62
     7
 10
150.5475687232766
 20
256.8179354141874
 42
0.03800995682054695
  0
VERTEX
  8
0
  6
CONTINUOUS
 62
     7
 10
147.9323252944556
 20
256.2253279368153
 42
0.04046197689659085
  0
VERTEX
  8
0
  6
CONTINUOUS
 62
     7
 10
145.4406200242058
 20
255.2319301151912
 42
0.04428262168017928
  0
VERTEX
  8
0
  6
CONTINUOUS
 62
     7
 10
143.1513056314828
 20
253.8333713665371
 42
0.04948569683159115
  0
VERTEX
  8
0
  6
CONTINUOUS
 62
     7
 10
141.1631339999058
 20
252.0344662481644
 42
0.0557818757143258
  0
VERTEX
  8
0
  6
CONTINUOUS
 62
     7
 10
139.5946691749751
 20
249.8613102376039
 42
0.06202777130057806
  0
VERTEX
  8
0
  6
CONTINUOUS
 62
     7
 10
138.5772652045709
 20
247.3833015083673
 42
0.06616815613686408
  0
VERTEX
  8
0
  6
CONTINUOUS
 62
     7
 10
138.2227325439453
 20
244.7276458740234
 42
0.06611427919214675
  0
VERTEX
  8
0
  6
CONTINUOUS
 62
     7
 10
138.5766855167497
 20
242.0741354900864
 42
0.06200343085342174
  0
VERTEX
  8
0
  6
CONTINUOUS
 62
     7
 10
139.5929471822953
 20
239.597047190243
 42
0.05578048795779936
  0
VERTEX
  8
0
  6
CONTINUOUS
 62
     7
 10
141.1604339698887
 20
237.4238111759863
 42
0.04948566946057312
  0
VERTEX
  8
0
  6
CONTINUOUS
 62
     7
 10
143.1476555908102
 20
235.6246218946269
 42
0.04427678938740685
  0
VERTEX
  8
0
  6
CONTINUOUS
 62
     7
 10
145.4357900783546
 20
234.2257526889407
 42
0.04047359114577594
  0
VERTEX
  8
0
  6
CONTINUOUS
 62
     7
 10
147.9275148499455
 20
233.2314365888606
 42
0.03804199850449962
  0
VERTEX
  8
0
  6
CONTINUOUS
 62
     7
 10
150.5446291962158
 20
232.6377783073294
 42
0.03688223794853133
  0
VERTEX
  8
0
  6
CONTINUOUS
 62
     7
 10
153.2227325439453
 20
232.4403533935547
 42
0
  0
SEQEND
  8
0
  0
POLYLINE
  8
0
  6
CONTINUOUS
 62
     7
 66
     1
 10
0
 20
0
  0
VERTEX
  8
0
  6
CONTINUOUS
 62
     7
 10
92.22330109225842
 20
324.2640927611894
 42
-0.2025952061895235
  0
VERTEX
  8
0
  6
CONTINUOUS
 62
     7
 10
98.98471217861811
 20
318.1292995086204
 42
-0.1113159812841265
  0
VERTEX
  8
0
  6
CONTINUOUS
 62
     7
 10
99.89858842660128
 20
308.8756337377768
 42
0.002982196280455895
  0
VERTEX
  8
0
  6
CONTINUOUS
 62
     7
 10
99.01560331163246
 20
299.537717781124
 42
0.02910617875940831
  0
VERTEX
  8
0
  6
CONTINUOUS
 62
     7
 10
98.94756742203143
 20
290.1634648948195
 42
0.01883126328797123
  0
VERTEX
  8
0
  6
CONTINUOUS
 62
     7
 10
99.81424479677152
 20
280.8262477231889
 42
-0.0336522408057533
  0
VERTEX
  8
0
  6
CONTINUOUS
 62
     7
 10
100.4955449229621
 20
271.4782349037234
 42
-0.119726182376861
  0
VERTEX
  8
0
  6
CONTINUOUS
 62
     7
 10
98.44554910140873
 20
262.4168428428507
 42
-0.1044981235845852
  0
VERTEX
  8
0
  6
CONTINUOUS
 62
     7
 10
92.22446993410858
 20
255.4888702694925
 42
0
  0
SEQEND
  8
0
  0
TEXT
  8
0
  6
CONTINUOUS
 62
     7
 10
-280.2058367729187
 20
277.3119201660156
 40
18
 41
0.9992598350801616
  1
ERKV-AA-200
  0
ENDSEC
  0
EOF
