  0
SECTION
  2
HEADER
  0
ENDSEC
  0
SECTION
  2
TABLES
  0
TABLE
  2
LTYPE
 70
    22
  0
LTYPE
  2
CONTINUOUS
 70
    64
  3
Solid line
 72
    65
 73
     0
 40
0.000000
  0
LTYPE
  2
DASHED
 70
    64
  3
__ __ __ __ __ __ __ __ __ __ __ __ __ __ __
 72
    65
 73
     2
 40
3.500000
 49
2.000000
 49
-1.500000
  0
LTYPE
  2
CENTER
 70
    64
  3
____ _ ____ _ ____ _ ____ _ ____ _ ____ _ ____
 72
    65
 73
     4
 40
17.500000
 49
13.000000
 49
-1.500000
 49
1.500000
 49
-1.500000
  0
LTYPE
  2
PHANTOM
 70
    64
  3
_____ _ _ _____ _ _ _____ _ _ _____ _ _ ____  
 72
    65
 73
     6
 40
15.500000
 49
8.000000
 49
-1.500000
 49
1.500000
 49
-1.500000
 49
1.500000
 49
-1.500000
  0
LTYPE
  2
DOT
 70
    64
  3
. . . . . . . . . . . . . . . . . . . . . . . .
 72
    65
 73
     2
 40
0.25
 49
0.0
 49
-0.25
  0
ENDTAB
  0
TABLE
  2
LAYER
 70
     1
  0
LAYER
  2
0
 70
     0
 62
     7
  6
CONTINUOUS
  0
ENDTAB
  0
TABLE
  2
STYLE
 70
     1
  0
STYLE
  2
STANDARD
 70
     0
 40
0.000000
 41
1.000000
 50
0.000000
 71
     0
 42
0.200000
  3
txt
  0
ENDTAB
  0
TABLE
  2
VIEW
 70
     0
  0
ENDTAB
  0
ENDSEC
  0
SECTION
  2
BLOCKS
  0
ENDSEC
  0
SECTION
  2
ENTITIES
  0
LINE
  8
0
  6
CONTINUOUS
 62
     3
 10
384.5
 20
-250
 11
190
 21
-250
  0
LINE
  8
0
  6
CONTINUOUS
 62
     7
 10
324.5
 20
-176.5
 11
324.5
 21
-323.5
  0
LINE
  8
0
  6
CONTINUOUS
 62
     7
 10
302
 20
-176.5
 11
324.5
 21
-176.5
  0
LINE
  8
0
  6
CONTINUOUS
 62
     7
 10
302
 20
-323.5
 11
324.5
 21
-323.5
  0
LINE
  8
0
  6
CONTINUOUS
 62
     7
 10
302
 20
-176.5
 11
302
 21
-323.5
  0
LINE
  8
0
  6
CONTINUOUS
 62
     7
 10
230
 20
-170
 11
230
 21
-210.9867553710938
  0
LINE
  8
0
  6
CONTINUOUS
 62
     7
 10
230
 20
-170
 11
244
 21
-170
  0
LINE
  8
0
  6
CONTINUOUS
 62
     7
 10
230
 20
-330
 11
244
 21
-330
  0
LINE
  8
0
  6
CONTINUOUS
 62
     7
 10
244
 20
-170
 11
244
 21
-330
  0
LINE
  8
0
  6
CONTINUOUS
 62
     7
 10
292
 20
-177.5
 11
302
 21
-177.5
  0
LINE
  8
0
  6
CONTINUOUS
 62
     7
 10
292
 20
-322.5
 11
302
 21
-322.5
  0
LINE
  8
0
  6
CONTINUOUS
 62
     7
 10
249
 20
-276.3078002929687
 11
287
 21
-276.3078002929687
  0
LINE
  8
0
  6
CONTINUOUS
 62
     7
 10
249
 20
-223.6921997070313
 11
287
 21
-223.6921997070313
  0
LINE
  8
0
  6
CONTINUOUS
 62
     7
 10
292.0000305175781
 20
-298.2288208007812
 11
244.0000152587891
 21
-302.0455017089844
  0
LINE
  8
0
  6
CONTINUOUS
 62
     7
 10
244.0000305175781
 20
-307.5014343261719
 11
292
 21
-303.28466796875
  0
LINE
  8
0
  6
CONTINUOUS
 62
     7
 10
292
 20
-201.7711944580078
 11
272
 21
-201.7711944580078
  0
LINE
  8
0
  6
CONTINUOUS
 62
     7
 10
243.9999847412109
 20
-192.49853515625
 11
268.5381164550781
 21
-196.1939697265625
  0
LINE
  8
0
  6
CONTINUOUS
 62
     7
 10
244.0000152587891
 20
-197.9545288085937
 11
271.9999389648437
 21
-201.7711944580078
  0
LINE
  8
0
  6
CONTINUOUS
 62
     7
 10
200
 20
-236.5
 11
200
 21
-261
  0
LINE
  8
0
  6
CONTINUOUS
 62
     7
 10
200
 20
-239
 11
230
 21
-239
  0
LINE
  8
0
  6
CONTINUOUS
 62
     7
 10
200
 20
-261
 11
230
 21
-261
  0
LINE
  8
0
  6
CONTINUOUS
 62
     7
 10
226
 20
-195
 11
226
 21
-208.4146728515625
  0
LINE
  8
0
  6
CONTINUOUS
 62
     7
 10
226
 20
-195
 11
230
 21
-195
  0
LINE
  8
0
  6
CONTINUOUS
 62
     7
 10
226
 20
-305
 11
230
 21
-305
  0
LINE
  8
0
  6
CONTINUOUS
 62
     7
 10
226
 20
-278.5956726074219
 11
226
 21
-305
  0
LINE
  8
0
  6
CONTINUOUS
 62
     7
 10
230
 20
-235
 11
230
 21
-265
  0
LINE
  8
0
  6
CONTINUOUS
 62
     7
 10
230
 20
-275.0993041992187
 11
230
 21
-330
  0
LINE
  8
0
  6
CONTINUOUS
 62
     7
 10
230
 20
-265
 11
232.5799865722656
 21
-265
  0
LINE
  8
0
  6
CONTINUOUS
 62
     7
 10
230
 20
-235
 11
232.2677917480469
 21
-235
  0
LINE
  8
0
  6
CONTINUOUS
 62
     7
 10
200
 20
-236.5
 11
225
 21
-236.5
  0
LINE
  8
0
  6
CONTINUOUS
 62
     7
 10
225
 20
-236.5
 11
225
 21
-239
  0
LINE
  8
0
  6
CONTINUOUS
 62
     7
 10
287
 20
-182.0078125
 11
292
 21
-182.0078125
  0
LINE
  8
0
  6
CONTINUOUS
 62
     7
 10
292
 20
-177.5
 11
292
 21
-182.0078125
  0
LINE
  8
0
  6
CONTINUOUS
 62
     7
 10
292
 20
-201.7711944580078
 11
292
 21
-322.5
  0
LINE
  8
0
  6
CONTINUOUS
 62
     7
 10
270.741943359375
 20
-194.8222961425781
 11
272.3185729980469
 21
-189.8637237548828
  0
LINE
  8
0
  6
CONTINUOUS
 62
     3
 10
-90
 20
-250
 11
90
 21
-250
  0
LINE
  8
0
  6
CONTINUOUS
 62
     3
 10
0
 20
-160
 11
0
 21
-340
  0
LINE
  8
0
  6
CONTINUOUS
 62
     7
 10
3
 20
-236.5
 11
3
 21
-242.5
  0
LINE
  8
0
  6
CONTINUOUS
 62
     7
 10
-3
 20
-236.5
 11
-3
 21
-242.5
  0
LINE
  8
0
  6
CONTINUOUS
 62
     7
 10
-3
 20
-242.5
 11
3
 21
-242.5
  0
LINE
  8
0
  6
CONTINUOUS
 62
     7
 10
-3
 20
-236.5
 11
3
 21
-236.5
  0
LINE
  8
0
  6
CONTINUOUS
 62
     3
 10
384.5
 20
0
 11
190
 21
0
  0
LINE
  8
0
  6
CONTINUOUS
 62
     7
 10
302
 20
73.5
 11
324.5
 21
73.5
  0
LINE
  8
0
  6
CONTINUOUS
 62
     7
 10
302
 20
-73.5
 11
324.5
 21
-73.5
  0
LINE
  8
0
  6
CONTINUOUS
 62
     7
 10
302
 20
73.5
 11
302
 21
-73.5
  0
LINE
  8
0
  6
CONTINUOUS
 62
     7
 10
230
 20
79.99996948242188
 11
230
 21
35.571044921875
  0
LINE
  8
0
  6
CONTINUOUS
 62
     7
 10
230
 20
79.99996948242188
 11
244
 21
79.99996948242188
  0
LINE
  8
0
  6
CONTINUOUS
 62
     7
 10
230
 20
-80
 11
244
 21
-80
  0
LINE
  8
0
  6
CONTINUOUS
 62
     7
 10
244
 20
79.99996948242188
 11
244
 21
-80
  0
LINE
  8
0
  6
CONTINUOUS
 62
     7
 10
292
 20
72.5
 11
292
 21
-29.2969970703125
  0
LINE
  8
0
  6
CONTINUOUS
 62
     7
 10
292
 20
-72.5
 11
302
 21
-72.5
  0
LINE
  8
0
  6
CONTINUOUS
 62
     7
 10
292
 20
72.5
 11
302
 21
72.5
  0
LINE
  8
0
  6
CONTINUOUS
 62
     7
 10
292
 20
-53.87158203125
 11
292
 21
-72.5
  0
LINE
  8
0
  6
CONTINUOUS
 62
     7
 10
267.1650085449219
 20
-27.3770580291748
 11
272.4540100097656
 21
-44.5843620300293
  0
LINE
  8
0
  6
CONTINUOUS
 62
     7
 10
249
 20
-25.12686157226563
 11
266.4733276367187
 21
-25.12686157226563
  0
LINE
  8
0
  6
CONTINUOUS
 62
     7
 10
249
 20
28.68206787109375
 11
287
 21
28.68206787109375
  0
LINE
  8
0
  6
CONTINUOUS
 62
     7
 10
249
 20
6.48492431640625
 11
287
 21
6.48492431640625
  0
LINE
  8
0
  6
CONTINUOUS
 62
     7
 10
272.397705078125
 20
-44.3948974609375
 11
272
 21
-44.3948974609375
  0
LINE
  8
0
  6
CONTINUOUS
 62
     7
 10
276.3605346679688
 20
-50.2457275390625
 11
272
 21
-50.2457275390625
  0
LINE
  8
0
  6
CONTINUOUS
 62
     7
 10
244
 20
-48.15165328979492
 11
272
 21
-44.39488983154297
  0
LINE
  8
0
  6
CONTINUOUS
 62
     7
 10
272
 20
-50.24573516845703
 11
244
 21
-54.00249481201172
  0
LINE
  8
0
  6
CONTINUOUS
 62
     7
 10
226
 20
55
 11
226
 21
37.95217895507813
  0
LINE
  8
0
  6
CONTINUOUS
 62
     7
 10
226
 20
-55
 11
230
 21
-55
  0
LINE
  8
0
  6
CONTINUOUS
 62
     7
 10
226
 20
55
 11
230
 21
55
  0
LINE
  8
0
  6
CONTINUOUS
 62
     7
 10
200
 20
11
 11
200
 21
-11
  0
LINE
  8
0
  6
CONTINUOUS
 62
     7
 10
200
 20
-11
 11
230
 21
-11
  0
LINE
  8
0
  6
CONTINUOUS
 62
     7
 10
200
 20
11
 11
230
 21
11
  0
LINE
  8
0
  6
CONTINUOUS
 62
     7
 10
230
 20
-27.09478759765625
 11
230
 21
-80
  0
LINE
  8
0
  6
CONTINUOUS
 62
     7
 10
230
 20
15
 11
230
 21
-15
  0
LINE
  8
0
  6
CONTINUOUS
 62
     7
 10
226
 20
-30.82443237304688
 11
226
 21
-55
  0
LINE
  8
0
  6
CONTINUOUS
 62
     7
 10
230
 20
15
 11
232.9286041259766
 21
15
  0
LINE
  8
0
  6
CONTINUOUS
 62
     7
 10
230
 20
-15
 11
234.2694244384766
 21
-15
  0
LINE
  8
0
  6
CONTINUOUS
 62
     7
 10
200
 20
3
 11
225
 21
3
  0
LINE
  8
0
  6
CONTINUOUS
 62
     7
 10
200
 20
-3
 11
225
 21
-3
  0
LINE
  8
0
  6
CONTINUOUS
 62
     7
 10
225
 20
3
 11
225
 21
-3
  0
LINE
  8
0
  6
CONTINUOUS
 62
     7
 10
287
 20
-29.2969970703125
 11
292
 21
-29.2969970703125
  0
LINE
  8
0
  6
CONTINUOUS
 62
     7
 10
287
 20
-53.87158203125
 11
292
 21
-53.87158203125
  0
LINE
  8
0
  6
CONTINUOUS
 62
     7
 10
244
 20
57.50146865844727
 11
292
 21
54.10739135742187
  0
LINE
  8
0
  6
CONTINUOUS
 62
     7
 10
244
 20
52.04542541503906
 11
292
 21
47.28733825683594
  0
LINE
  8
0
  6
CONTINUOUS
 62
     7
 10
278.2245788574219
 20
-12.42587280273438
 11
292
 21
-12.42587280273438
  0
LINE
  8
0
  6
CONTINUOUS
 62
     7
 10
324.5
 20
-73.5
 11
324.5
 21
11.0224609375
  0
LINE
  8
0
  6
CONTINUOUS
 62
     7
 10
324.5
 20
20.85107421875
 11
324.5
 21
73.5
  0
LINE
  8
0
  6
CONTINUOUS
 62
     7
 10
-12.93503379821777
 20
-176.641845703125
 11
-19.50171852111816
 21
-139.4003295898437
  0
LINE
  8
0
  6
CONTINUOUS
 62
     7
 10
-15.07015037536621
 20
-146.3929138183594
 11
-10.77895545959473
 21
-170.7294921875
  0
LINE
  8
0
  6
CONTINUOUS
 62
     7
 10
-10.88455867767334
 20
-170.1304168701172
 11
-8.494161605834961
 21
-170.4522247314453
  0
LINE
  8
0
  6
CONTINUOUS
 62
     7
 10
-17.0888671875
 20
-171.2244567871094
 11
-19.22488784790039
 21
-172.3443298339844
  0
LINE
  8
0
  6
CONTINUOUS
 62
     7
 10
-21.27442741394043
 20
-147.4868927001953
 11
-16.98323249816895
 21
-171.8234710693359
  0
LINE
  8
0
  6
CONTINUOUS
 62
     7
 10
339.5
 20
5
 11
362.5
 21
5
  0
LINE
  8
0
  6
CONTINUOUS
 62
     7
 10
339.5
 20
-5
 11
362.5
 21
-5
  0
LINE
  8
0
  6
CONTINUOUS
 62
     7
 10
339.5
 20
-56
 11
362.5
 21
-56
  0
LINE
  8
0
  6
CONTINUOUS
 62
     7
 10
344.5
 20
-38
 11
357.5
 21
-38
  0
LINE
  8
0
  6
CONTINUOUS
 62
     7
 10
374.5
 20
80
 11
374.5
 21
-80
  0
LINE
  8
0
  6
CONTINUOUS
 62
     7
 10
362.5
 20
80
 11
374.5
 21
80
  0
LINE
  8
0
  6
CONTINUOUS
 62
     7
 10
362.5
 20
80
 11
362.5
 21
-80
  0
LINE
  8
0
  6
CONTINUOUS
 62
     7
 10
344.5
 20
38
 11
357.5
 21
38
  0
LINE
  8
0
  6
CONTINUOUS
 62
     7
 10
339.5
 20
56
 11
362.5
 21
56
  0
LINE
  8
0
  6
CONTINUOUS
 62
     7
 10
362.5
 20
-80
 11
374.5
 21
-80
  0
LINE
  8
0
  6
CONTINUOUS
 62
     7
 10
339.5
 20
20.971923828125
 11
339.5
 21
72.5
  0
LINE
  8
0
  6
CONTINUOUS
 62
     7
 10
324.5
 20
72.5
 11
339.5
 21
72.5
  0
LINE
  8
0
  6
CONTINUOUS
 62
     7
 10
324.5
 20
-72.5
 11
339.5
 21
-72.5
  0
LINE
  8
0
  6
CONTINUOUS
 62
     7
 10
339.5
 20
-72.5
 11
339.5
 21
9.170654296875
  0
LINE
  8
0
  6
CONTINUOUS
 62
     7
 10
324.5
 20
-177.5
 11
339.5
 21
-177.5
  0
LINE
  8
0
  6
CONTINUOUS
 62
     7
 10
339.5
 20
-322.5
 11
339.5
 21
-177.5
  0
LINE
  8
0
  6
CONTINUOUS
 62
     7
 10
324.5
 20
-322.5
 11
339.5
 21
-322.5
  0
LINE
  8
0
  6
CONTINUOUS
 62
     7
 10
374.5
 20
-170
 11
374.5
 21
-330
  0
LINE
  8
0
  6
CONTINUOUS
 62
     7
 10
362.5
 20
-170
 11
374.5
 21
-170
  0
LINE
  8
0
  6
CONTINUOUS
 62
     7
 10
362.5
 20
-170
 11
362.5
 21
-330
  0
LINE
  8
0
  6
CONTINUOUS
 62
     7
 10
344.5
 20
-212
 11
357.5
 21
-212
  0
LINE
  8
0
  6
CONTINUOUS
 62
     7
 10
339.5
 20
-194
 11
362.5
 21
-194
  0
LINE
  8
0
  6
CONTINUOUS
 62
     7
 10
362.5
 20
-330
 11
374.5
 21
-330
  0
LINE
  8
0
  6
CONTINUOUS
 62
     7
 10
344.5
 20
-288
 11
357.5
 21
-288
  0
LINE
  8
0
  6
CONTINUOUS
 62
     7
 10
339.5
 20
-306
 11
362.5
 21
-306
  0
LINE
  8
0
  6
CONTINUOUS
 62
     7
 10
339.5
 20
-255
 11
362.5
 21
-255
  0
LINE
  8
0
  6
CONTINUOUS
 62
     7
 10
339.5
 20
-245
 11
362.5
 21
-245
  0
LINE
  8
0
  6
CONTINUOUS
 62
     7
 10
330.4999694824219
 20
-177.0899353027344
 11
330.9101257324219
 21
-177.5000610351562
  0
LINE
  8
0
  6
CONTINUOUS
 62
     7
 10
332.5000305175781
 20
-177.08984375
 11
332.91015625
 21
-177.4999694824219
  0
LINE
  8
0
  6
CONTINUOUS
 62
     7
 10
332.5
 20
-180.2459716796875
 11
332.5
 21
-141.255859375
  0
LINE
  8
0
  6
CONTINUOUS
 62
     7
 10
313.0792236328125
 20
-160.08984375
 11
351.4561157226563
 21
-160.08984375
  0
LINE
  8
0
  6
CONTINUOUS
 62
     7
 10
324.5
 20
-177.0897369384766
 11
325.0902099609375
 21
-173.7424468994141
  0
LINE
  8
0
  6
CONTINUOUS
 62
     7
 10
327.059814453125
 20
-172.08984375
 11
337.940185546875
 21
-172.08984375
  0
LINE
  8
0
  6
CONTINUOUS
 62
     7
 10
326.3698120117187
 20
-172.2127990722656
 11
332.1597595214844
 21
-170.0842132568359
  0
LINE
  8
0
  6
CONTINUOUS
 62
     7
 10
332.8402099609375
 20
-170.0841979980469
 11
338.6302185058594
 21
-172.2128143310547
  0
LINE
  8
0
  6
CONTINUOUS
 62
     7
 10
324.4987182617188
 20
-177.08984375
 11
340.5
 21
-177.08984375
  0
LINE
  8
0
  6
CONTINUOUS
 62
     7
 10
324.7999877929688
 20
-177.08984375
 11
324.7999877929688
 21
-177.5
  0
LINE
  8
0
  6
CONTINUOUS
 62
     7
 10
340.2000122070313
 20
-177.08984375
 11
340.2000122070313
 21
-179.08984375
  0
LINE
  8
0
  6
CONTINUOUS
 62
     7
 10
339.5
 20
-179.08984375
 11
340.2000122070313
 21
-179.08984375
  0
LINE
  8
0
  6
CONTINUOUS
 62
     7
 10
339.9097290039062
 20
-173.7425231933594
 11
340.4999389648438
 21
-177.0898132324219
  0
ARC
  8
0
  6
CONTINUOUS
 62
     7
 10
268.8359985351562
 20
-194.2162780761719
 40
1.999999999999984
 50
261.4356711065674
 51
342.3614940911165
  0
ARC
  8
0
  6
CONTINUOUS
 62
     7
 10
287
 20
-281.3078002929687
 40
5
 50
0
 51
90.00000250447847
  0
ARC
  8
0
  6
CONTINUOUS
 62
     7
 10
287
 20
-218.6921997070313
 40
5.000000000000004
 50
269.9999974955215
 51
0
  0
ARC
  8
0
  6
CONTINUOUS
 62
     7
 10
249
 20
-218.6921997070313
 40
5
 50
179.999991348578
 51
270.0000006832453
  0
ARC
  8
0
  6
CONTINUOUS
 62
     7
 10
249
 20
-281.3078002929687
 40
5.000000000000004
 50
90.00000250447815
 51
180.0000050089563
  0
CIRCLE
  8
0
  6
CONTINUOUS
 62
     7
 10
0
 20
-250
 40
80
  0
ARC
  8
0
  6
CONTINUOUS
 62
     7
 10
0
 20
-250
 40
11.00000000000001
 50
105.8266231510974
 51
74.17337821539321
  0
CIRCLE
  8
0
  6
CONTINUOUS
 62
     7
 10
0
 20
-250
 40
55
  0
CIRCLE
  8
0
  6
CONTINUOUS
 62
     7
 10
0
 20
-250
 40
50
  0
ARC
  8
0
  6
CONTINUOUS
 62
     3
 10
0
 20
-250
 40
65
 50
351.1501170622253
 51
8.84988293777467
  0
CIRCLE
  8
0
  6
CONTINUOUS
 62
     7
 10
65
 20
-250
 40
6
  0
CIRCLE
  8
0
  6
CONTINUOUS
 62
     7
 10
0
 20
-185
 40
6
  0
ARC
  8
0
  6
CONTINUOUS
 62
     3
 10
0
 20
-250
 40
65
 50
81.15011956670348
 51
98.84988544225286
  0
CIRCLE
  8
0
  6
CONTINUOUS
 62
     7
 10
-65
 20
-250
 40
6
  0
ARC
  8
0
  6
CONTINUOUS
 62
     3
 10
0
 20
-250
 40
65
 50
171.1501152409925
 51
188.8498811165419
  0
CIRCLE
  8
0
  6
CONTINUOUS
 62
     7
 10
0
 20
-315
 40
6
  0
ARC
  8
0
  6
CONTINUOUS
 62
     3
 10
0
 20
-250
 40
65.00000000000001
 50
261.1501145577471
 51
278.8498804332965
  0
ARC
  8
0
  6
CONTINUOUS
 62
     7
 10
249
 20
33.68206787109375
 40
5
 50
179.999991348578
 51
270.0000006832453
  0
ARC
  8
0
  6
CONTINUOUS
 62
     7
 10
249
 20
11.48492431640625
 40
5
 50
179.999991348578
 51
270.0000006832453
  0
ARC
  8
0
  6
CONTINUOUS
 62
     7
 10
225
 20
0
 40
3
 50
269.9999974955221
 51
90.00000250447792
  0
ARC
  8
0
  6
CONTINUOUS
 62
     7
 10
287
 20
33.68206787109375
 40
5.000000000000001
 50
269.9999974955215
 51
0
  0
ARC
  8
0
  6
CONTINUOUS
 62
     7
 10
287
 20
11.48492431640625
 40
5
 50
269.9999974955215
 51
360
  0
ARC
  8
0
  6
CONTINUOUS
 62
     7
 10
249
 20
-30.12686157226563
 40
5.000000000000001
 50
90.00000250447815
 51
180.0000050089563
  0
ARC
  8
0
  6
CONTINUOUS
 62
     7
 10
-18.17230224609375
 20
-146.9398193359375
 40
3.150000095367433
 50
9.999999709093037
 51
189.9999620293669
  0
ARC
  8
0
  6
CONTINUOUS
 62
     7
 10
357.5
 20
43
 40
4.999999999999997
 50
269.9999974955215
 51
0
  0
ARC
  8
0
  6
CONTINUOUS
 62
     7
 10
357.5
 20
-43
 40
5
 50
0
 51
90.00000250447847
  0
ARC
  8
0
  6
CONTINUOUS
 62
     7
 10
344.5
 20
43
 40
5
 50
179.999991348578
 51
270.0000006832456
  0
ARC
  8
0
  6
CONTINUOUS
 62
     7
 10
344.5
 20
-43
 40
4.999999999999997
 50
90.00000250447847
 51
180.0000050089563
  0
ARC
  8
0
  6
CONTINUOUS
 62
     7
 10
344.5
 20
-207
 40
5
 50
179.999991348578
 51
270.0000006832456
  0
ARC
  8
0
  6
CONTINUOUS
 62
     7
 10
344.5
 20
-293
 40
5.000000000000004
 50
90.00000250447847
 51
180.0000050089563
  0
ARC
  8
0
  6
CONTINUOUS
 62
     7
 10
357.5
 20
-293
 40
5
 50
0
 51
90.00000250447847
  0
ARC
  8
0
  6
CONTINUOUS
 62
     7
 10
357.5
 20
-207
 40
5.000000000000004
 50
269.9999974955215
 51
0
  0
ARC
  8
0
  6
CONTINUOUS
 62
     7
 10
337.940185546875
 20
-174.08984375
 40
1.999999999999974
 50
10.00000397796106
 51
89.99998201391097
  0
ARC
  8
0
  6
CONTINUOUS
 62
     7
 10
320.543212890625
 20
-176.494873046875
 40
4.000000000000021
 50
351.4459282863106
 51
53.91357911911904
  0
ARC
  8
0
  6
CONTINUOUS
 62
     7
 10
344.456787109375
 20
-176.494873046875
 40
4.000000000000022
 50
126.0864395502161
 51
188.5540383028318
  0
ARC
  8
0
  6
CONTINUOUS
 62
     7
 10
332.5
 20
-160.08984375
 40
16.29999923706055
 50
306.086414050692
 51
233.91354314694
  0
CIRCLE
  8
0
  6
CONTINUOUS
 62
     7
 10
332.5
 20
-160.08984375
 40
10
  0
ARC
  8
0
  6
CONTINUOUS
 62
     7
 10
327.059814453125
 20
-174.08984375
 40
2.000000000000013
 50
89.99998201391097
 51
170.0000206677886
  0
POLYLINE
  8
0
  6
CONTINUOUS
 62
     7
 66
     1
 10
0
 20
0
  0
VERTEX
  8
0
  6
CONTINUOUS
 62
     7
 10
226.0000690381155
 20
-208.4146099540828
 42
-0.1732920784153176
  0
VERTEX
  8
0
  6
CONTINUOUS
 62
     7
 10
232.1839993497964
 20
-213.8742647553859
 42
-0.1212092049339951
  0
VERTEX
  8
0
  6
CONTINUOUS
 62
     7
 10
233.1857894860881
 20
-222.1458181009053
 42
-0.0003663815376344817
  0
VERTEX
  8
0
  6
CONTINUOUS
 62
     7
 10
232.5617617818889
 20
-230.542142371198
 42
0.007283536024579504
  0
VERTEX
  8
0
  6
CONTINUOUS
 62
     7
 10
232.0657430018173
 20
-238.9470736120045
 42
0.01061071921223205
  0
VERTEX
  8
0
  6
CONTINUOUS
 62
     7
 10
231.8876863966273
 20
-247.3632397230252
 42
0.01021215195777989
  0
VERTEX
  8
0
  6
CONTINUOUS
 62
     7
 10
232.0615278066106
 20
-255.7789427115485
 42
0.006671870884654138
  0
VERTEX
  8
0
  6
CONTINUOUS
 62
     7
 10
232.5421919249837
 20
-264.1837970924046
 42
-0.1117217932664967
  0
VERTEX
  8
0
  6
CONTINUOUS
 62
     7
 10
231.6062275587632
 20
-272.4769794767263
 42
-0.1471526792898544
  0
VERTEX
  8
0
  6
CONTINUOUS
 62
     7
 10
226.0023825019857
 20
-278.595008025307
 42
0
  0
SEQEND
  8
0
  0
POLYLINE
  8
0
  6
CONTINUOUS
 62
     7
 66
     1
 10
0
 20
0
  0
VERTEX
  8
0
  6
CONTINUOUS
 62
     7
 10
287
 20
-182.0080261230469
 42
0.02729414574270897
  0
VERTEX
  8
0
  6
CONTINUOUS
 62
     7
 10
284.536234187923
 20
-182.1422310448878
 42
0.02858769292556869
  0
VERTEX
  8
0
  6
CONTINUOUS
 62
     7
 10
282.1034241697899
 20
-182.5493497021221
 42
0.03145287426880398
  0
VERTEX
  8
0
  6
CONTINUOUS
 62
     7
 10
279.7359716608767
 20
-183.2440100413826
 42
0.03644156390585433
  0
VERTEX
  8
0
  6
CONTINUOUS
 62
     7
 10
277.4843202072273
 20
-184.2509047233418
 42
0.04462440548513909
  0
VERTEX
  8
0
  6
CONTINUOUS
 62
     7
 10
275.424100239892
 20
-185.6053429745781
 42
0.05749376049335551
  0
VERTEX
  8
0
  6
CONTINUOUS
 62
     7
 10
273.6801817719918
 20
-187.3453519546986
 42
0.07545535955646449
  0
VERTEX
  8
0
  6
CONTINUOUS
 62
     7
 10
272.4537965337367
 20
-189.477327799373
 42
0.09188341514557387
  0
VERTEX
  8
0
  6
CONTINUOUS
 62
     7
 10
272
 20
-191.8895263671875
 42
0.09187005358216159
  0
VERTEX
  8
0
  6
CONTINUOUS
 62
     7
 10
272.453661654036
 20
-194.301371930502
 42
0.07541336874226698
  0
VERTEX
  8
0
  6
CONTINUOUS
 62
     7
 10
273.6789273509099
 20
-196.4321047291699
 42
0.05747327667528921
  0
VERTEX
  8
0
  6
CONTINUOUS
 62
     7
 10
275.4212560441567
 20
-198.1714353925668
 42
0.04463179785894836
  0
VERTEX
  8
0
  6
CONTINUOUS
 62
     7
 10
277.4806837570289
 20
-199.5261814628025
 42
0.03644950507324012
  0
VERTEX
  8
0
  6
CONTINUOUS
 62
     7
 10
279.7318960601078
 20
-200.5335560707013
 42
0.03145601781677051
  0
VERTEX
  8
0
  6
CONTINUOUS
 62
     7
 10
282.0989113193413
 20
-201.2286757836646
 42
0.02860280347113298
  0
VERTEX
  8
0
  6
CONTINUOUS
 62
     7
 10
284.5326458328389
 20
-201.6364277777836
 42
0.02729781560604363
  0
VERTEX
  8
0
  6
CONTINUOUS
 62
     7
 10
286.9966412697866
 20
-201.7710263636084
 42
0
  0
SEQEND
  8
0
  0
POLYLINE
  8
0
  6
CONTINUOUS
 62
     7
 66
     1
 10
0
 20
0
  0
VERTEX
  8
0
  6
CONTINUOUS
 62
     7
 10
226.0005609189186
 20
37.95217259517376
 42
-0.2025952453709607
  0
VERTEX
  8
0
  6
CONTINUOUS
 62
     7
 10
232.7619724738529
 20
31.8173781976908
 42
-0.1113159613900874
  0
VERTEX
  8
0
  6
CONTINUOUS
 62
     7
 10
233.6758480757823
 20
22.56371110192882
 42
0.00298222241977093
  0
VERTEX
  8
0
  6
CONTINUOUS
 62
     7
 10
232.7928628948298
 20
13.22579390915222
 42
0.02910618138500017
  0
VERTEX
  8
0
  6
CONTINUOUS
 62
     7
 10
232.7248274934071
 20
3.851539784709862
 42
0.01883125156364612
  0
VERTEX
  8
0
  6
CONTINUOUS
 62
     7
 10
233.5915053577223
 20
-5.485678585625859
 42
-0.03365229345007668
  0
VERTEX
  8
0
  6
CONTINUOUS
 62
     7
 10
234.2728046176281
 20
-14.83369268863834
 42
-0.1197262810499176
  0
VERTEX
  8
0
  6
CONTINUOUS
 62
     7
 10
232.2228048665738
 20
-23.89508494788407
 42
-0.1044977235268115
  0
VERTEX
  8
0
  6
CONTINUOUS
 62
     7
 10
226.001729744353
 20
-30.82306357070089
 42
0
  0
SEQEND
  8
0
  0
POLYLINE
  8
0
  6
CONTINUOUS
 62
     7
 66
     1
 10
0
 20
0
  0
VERTEX
  8
0
  6
CONTINUOUS
 62
     7
 10
278.2258666681806
 20
-12.4259727801229
 42
0.01863018118449608
  0
VERTEX
  8
0
  6
CONTINUOUS
 62
     7
 10
276.9472908110445
 20
-12.72581608317096
 42
0.01914897136678362
  0
VERTEX
  8
0
  6
CONTINUOUS
 62
     7
 10
275.69488786198
 20
-13.12128933044658
 42
0.01982313497678843
  0
VERTEX
  8
0
  6
CONTINUOUS
 62
     7
 10
274.4768998562336
 20
-13.61308389514614
 42
0.02065958604675638
  0
VERTEX
  8
0
  6
CONTINUOUS
 62
     7
 10
273.3024574780721
 20
-14.20180775555834
 42
0.0216635050631608
  0
VERTEX
  8
0
  6
CONTINUOUS
 62
     7
 10
272.1817690088008
 20
-14.88777030190836
 42
0.02283527298842106
  0
VERTEX
  8
0
  6
CONTINUOUS
 62
     7
 10
271.1262837696584
 20
-15.67068178680397
 42
0.02416589556081596
  0
VERTEX
  8
0
  6
CONTINUOUS
 62
     7
 10
270.148793711076
 20
-16.5492480006418
 42
0.0256307478011842
  0
VERTEX
  8
0
  6
CONTINUOUS
 62
     7
 10
269.263415118363
 20
-17.52064952177604
 42
0.02718211632637096
  0
VERTEX
  8
0
  6
CONTINUOUS
 62
     7
 10
268.4853690610602
 20
-18.57991870748724
 42
0.0287423495236918
  0
VERTEX
  8
0
  6
CONTINUOUS
 62
     7
 10
267.8304653762589
 20
-19.7192734035201
 42
0.03020136029568163
  0
VERTEX
  8
0
  6
CONTINUOUS
 62
     7
 10
267.3142120274042
 20
-20.9275343716217
 42
0.0314237398416916
  0
VERTEX
  8
0
  6
CONTINUOUS
 62
     7
 10
266.9505464102389
 20
-22.18982491187352
 42
0.03226953547381886
  0
VERTEX
  8
0
  6
CONTINUOUS
 62
     7
 10
266.7503284684354
 20
-23.48777879738574
 42
0.03261578128557022
  0
VERTEX
  8
0
  6
CONTINUOUS
 62
     7
 10
266.7198890397498
 20
-24.79996770015607
 42
0.03242754396014362
  0
VERTEX
  8
0
  6
CONTINUOUS
 62
     7
 10
266.8599828146145
 20
-26.10446893128937
 42
0.03175157773620355
  0
VERTEX
  8
0
  6
CONTINUOUS
 62
     7
 10
267.1661273747768
 20
-27.38079637226249
 42
0
  0
SEQEND
  8
0
  0
POLYLINE
  8
0
  6
CONTINUOUS
 62
     7
 66
     1
 10
0
 20
0
  0
VERTEX
  8
0
  6
CONTINUOUS
 62
     7
 10
287
 20
-29.2969970703125
 42
0.03684100915015569
  0
VERTEX
  8
0
  6
CONTINUOUS
 62
     7
 10
284.3248356402441
 20
-29.49398538004669
 42
0.03801003109662183
  0
VERTEX
  8
0
  6
CONTINUOUS
 62
     7
 10
281.7095919964505
 20
-30.08659449703045
 42
0.04046201344888641
  0
VERTEX
  8
0
  6
CONTINUOUS
 62
     7
 10
279.217887000041
 20
-31.07999452506545
 42
0.04428261258127772
  0
VERTEX
  8
0
  6
CONTINUOUS
 62
     7
 10
276.9285733187973
 20
-32.47855553873525
 42
0.0494856361075645
  0
VERTEX
  8
0
  6
CONTINUOUS
 62
     7
 10
274.9404025435135
 20
-34.27746248606573
 42
0.05578176975687745
  0
VERTEX
  8
0
  6
CONTINUOUS
 62
     7
 10
273.3719381984464
 20
-36.45061958611024
 42
0.0620276577413999
  0
VERTEX
  8
0
  6
CONTINUOUS
 62
     7
 10
272.3545338266268
 20
-38.92862880642772
 42
0.06616822561189518
  0
VERTEX
  8
0
  6
CONTINUOUS
 62
     7
 10
272
 20
-41.58428955078125
 42
0.06611429329777183
  0
VERTEX
  8
0
  6
CONTINUOUS
 62
     7
 10
272.3539531246856
 20
-44.23780049723165
 42
0.06200344252648048
  0
VERTEX
  8
0
  6
CONTINUOUS
 62
     7
 10
273.3702152087653
 20
-46.71488925137595
 42
0.05578049654465626
  0
VERTEX
  8
0
  6
CONTINUOUS
 62
     7
 10
274.9377025977029
 20
-48.88812554733447
 42
0.04948567580068289
  0
VERTEX
  8
0
  6
CONTINUOUS
 62
     7
 10
276.9249249200378
 20
-50.68731492131647
 42
0.04427679459803582
  0
VERTEX
  8
0
  6
CONTINUOUS
 62
     7
 10
279.2130601449394
 20
-52.08618403471119
 42
0.04047359625088624
  0
VERTEX
  8
0
  6
CONTINUOUS
 62
     7
 10
281.7047856491424
 20
-53.08049986921474
 42
0.03804200425318257
  0
VERTEX
  8
0
  6
CONTINUOUS
 62
     7
 10
284.3219006902545
 20
-53.67415771768141
 42
0.03688218119177183
  0
VERTEX
  8
0
  6
CONTINUOUS
 62
     7
 10
287
 20
-53.87158203125
 42
0
  0
SEQEND
  8
0
  0
POLYLINE
  8
0
  6
CONTINUOUS
 62
     7
 66
     1
 10
0
 20
0
  0
VERTEX
  8
0
  6
CONTINUOUS
 62
     7
 10
344.0383911132813
 20
11.7392578125
 42
0.01901726737756887
  0
VERTEX
  8
0
  6
CONTINUOUS
 62
     7
 10
344.7802875277934
 20
11.94346042750221
 42
0.01048146639203473
  0
VERTEX
  8
0
  6
CONTINUOUS
 62
     7
 10
345.5089512742287
 20
12.19117427011613
 42
0.00584798403132529
  0
VERTEX
  8
0
  6
CONTINUOUS
 62
     7
 10
346.2305541453892
 20
12.45981979394116
 42
0.02972545651881943
  0
VERTEX
  8
0
  6
CONTINUOUS
 62
     7
 10
346.9313710034004
 20
12.77700279577018
 42
0.05876370477983722
  0
VERTEX
  8
0
  6
CONTINUOUS
 62
     7
 10
347.564458441941
 20
13.21138447360173
 42
0.05384011964619063
  0
VERTEX
  8
0
  6
CONTINUOUS
 62
     7
 10
348.0759568836148
 20
13.78452452610625
 42
0.04813922780266685
  0
VERTEX
  8
0
  6
CONTINUOUS
 62
     7
 10
348.4688295464831
 20
14.4458669733529
 42
0.05487796369658799
  0
VERTEX
  8
0
  6
CONTINUOUS
 62
     7
 10
348.7143128509875
 20
15.17353338682441
 42
0.0541462870612097
  0
VERTEX
  8
0
  6
CONTINUOUS
 62
     7
 10
348.7976684570313
 20
15.936767578125
 42
0.05419884305617147
  0
VERTEX
  8
0
  6
CONTINUOUS
 62
     7
 10
348.7141854405247
 20
16.70033662885801
 42
0.05489209035077917
  0
VERTEX
  8
0
  6
CONTINUOUS
 62
     7
 10
348.4685080172767
 20
17.42811476740723
 42
0.04805878633085563
  0
VERTEX
  8
0
  6
CONTINUOUS
 62
     7
 10
348.0762234587272
 20
18.08840077857121
 42
0.05381753314112211
  0
VERTEX
  8
0
  6
CONTINUOUS
 62
     7
 10
347.5646266869418
 20
18.66199390832974
 42
0.05878879472880356
  0
VERTEX
  8
0
  6
CONTINUOUS
 62
     7
 10
346.9315214882049
 20
19.0964274183267
 42
0.02971273090641461
  0
VERTEX
  8
0
  6
CONTINUOUS
 62
     7
 10
346.2310159380087
 20
19.41348094098505
 42
0.005850655510734188
  0
VERTEX
  8
0
  6
CONTINUOUS
 62
     7
 10
345.5096354136889
 20
19.68208142957663
 42
0.01049742877775906
  0
VERTEX
  8
0
  6
CONTINUOUS
 62
     7
 10
344.7806701833892
 20
19.92987512136062
 42
0.01899364614255826
  0
VERTEX
  8
0
  6
CONTINUOUS
 62
     7
 10
344.0388793945312
 20
20.134033203125
 42
0
  0
SEQEND
  8
0
  0
POLYLINE
  8
0
  6
CONTINUOUS
 62
     7
 66
     1
 10
0
 20
0
  0
VERTEX
  8
0
  6
CONTINUOUS
 62
     7
 10
319.3499755859375
 20
12.83447265625
 42
0.1945692154032288
  0
VERTEX
  8
0
  6
CONTINUOUS
 62
     7
 10
322.2921556690155
 20
11.39505879296542
 42
0.0255432260560504
  0
VERTEX
  8
0
  6
CONTINUOUS
 62
     7
 10
325.6707790492682
 20
10.88327782247353
 42
0.01446695208734756
  0
VERTEX
  8
0
  6
CONTINUOUS
 62
     7
 10
329.0801932817864
 20
10.6298202805985
 42
0.0116281951915351
  0
VERTEX
  8
0
  6
CONTINUOUS
 62
     7
 10
332.5
 20
10.55126953125
 42
0.01162206995909121
  0
VERTEX
  8
0
  6
CONTINUOUS
 62
     7
 10
335.9181168611577
 20
10.62974055219826
 42
0.01446986069817801
  0
VERTEX
  8
0
  6
CONTINUOUS
 62
     7
 10
339.3286362710347
 20
10.88321518977648
 42
0.02555815138180164
  0
VERTEX
  8
0
  6
CONTINUOUS
 62
     7
 10
342.7089886569307
 20
11.39530280210467
 42
0.1952972047728258
  0
VERTEX
  8
0
  6
CONTINUOUS
 62
     7
 10
345.6500181323308
 20
12.83670465238854
 42
0.1938816764728495
  0
VERTEX
  8
0
  6
CONTINUOUS
 62
     7
 10
342.7057304467704
 20
14.27453458976556
 42
0.02553303352624184
  0
VERTEX
  8
0
  6
CONTINUOUS
 62
     7
 10
339.3270920172686
 20
14.78624462557021
 42
0.01446793880136046
  0
VERTEX
  8
0
  6
CONTINUOUS
 62
     7
 10
335.9176746634861
 20
15.03967666737607
 42
0.01162545421962183
  0
VERTEX
  8
0
  6
CONTINUOUS
 62
     7
 10
332.5
 20
15.1181640625
 42
0.01162713862898095
  0
VERTEX
  8
0
  6
CONTINUOUS
 62
     7
 10
329.0818842399548
 20
15.03965678174028
 42
0.01447403324938695
  0
VERTEX
  8
0
  6
CONTINUOUS
 62
     7
 10
325.6713725496305
 20
14.78608356068752
 42
0.02556177191233864
  0
VERTEX
  8
0
  6
CONTINUOUS
 62
     7
 10
322.2910435484945
 20
14.27384547588593
 42
0.195208194593664
  0
VERTEX
  8
0
  6
CONTINUOUS
 62
     7
 10
319.3499802166011
 20
12.83255629581387
 42
0
  0
SEQEND
  8
0
  0
POLYLINE
  8
0
  6
CONTINUOUS
 62
     7
 66
     1
 10
0
 20
0
  0
VERTEX
  8
0
  6
CONTINUOUS
 62
     7
 10
324.7619020586906
 20
10.98545465218175
 42
0.04188613022366218
  0
VERTEX
  8
0
  6
CONTINUOUS
 62
     7
 10
325.2020316815067
 20
9.757465205901276
 42
0.04165468219609916
  0
VERTEX
  8
0
  6
CONTINUOUS
 62
     7
 10
325.8402726644481
 20
8.619523715053321
 42
0.04136408119837253
  0
VERTEX
  8
0
  6
CONTINUOUS
 62
     7
 10
326.6577221632236
 20
7.602647361325613
 42
0.04106062826738218
  0
VERTEX
  8
0
  6
CONTINUOUS
 62
     7
 10
327.6310259949532
 20
6.733484675914843
 42
0.04077373210742213
  0
VERTEX
  8
0
  6
CONTINUOUS
 62
     7
 10
328.7330961697152
 20
6.034276735056617
 42
0.04052967900162883
  0
VERTEX
  8
0
  6
CONTINUOUS
 62
     7
 10
329.9339586170215
 20
5.522502872004353
 42
0.04034890219004937
  0
VERTEX
  8
0
  6
CONTINUOUS
 62
     7
 10
331.2015423731039
 20
5.210673016431506
 42
0.04023730416243801
  0
VERTEX
  8
0
  6
CONTINUOUS
 62
     7
 10
332.5021782469288
 20
5.106201463604696
 42
0.0402304519624862
  0
VERTEX
  8
0
  6
CONTINUOUS
 62
     7
 10
333.8025325424921
 20
5.211333892784858
 42
0.04031713967839964
  0
VERTEX
  8
0
  6
CONTINUOUS
 62
     7
 10
335.0689700327978
 20
5.52347979420682
 42
0.04051233780466516
  0
VERTEX
  8
0
  6
CONTINUOUS
 62
     7
 10
336.2691279806176
 20
6.035445857417741
 42
0.04075999998143861
  0
VERTEX
  8
0
  6
CONTINUOUS
 62
     7
 10
337.3706153895242
 20
6.734724687252754
 42
0.04105956262824831
  0
VERTEX
  8
0
  6
CONTINUOUS
 62
     7
 10
338.343660556107
 20
7.604103517515719
 42
0.04137676030973014
  0
VERTEX
  8
0
  6
CONTINUOUS
 62
     7
 10
339.1610663312125
 20
8.62150610334422
 42
0.04167427534088646
  0
VERTEX
  8
0
  6
CONTINUOUS
 62
     7
 10
339.7992076316385
 20
9.76018557367968
 42
0.04191528628124896
  0
VERTEX
  8
0
  6
CONTINUOUS
 62
     7
 10
340.2390960257399
 20
10.98920635112402
 42
0
  0
SEQEND
  8
0
  0
POLYLINE
  8
0
  6
CONTINUOUS
 62
     7
 66
     1
 10
0
 20
0
  0
VERTEX
  8
0
  6
CONTINUOUS
 62
     7
 10
344.051715608076
 20
20.12990212514053
 42
0.02483018303989759
  0
VERTEX
  8
0
  6
CONTINUOUS
 62
     7
 10
342.6433246869508
 20
20.49201718007594
 42
0.01364847221911377
  0
VERTEX
  8
0
  6
CONTINUOUS
 62
     7
 10
341.2114792740891
 20
20.74932371331453
 42
0.009382790529359916
  0
VERTEX
  8
0
  6
CONTINUOUS
 62
     7
 10
339.7691926337412
 20
20.94166191229946
 42
0.00727539393165497
  0
VERTEX
  8
0
  6
CONTINUOUS
 62
     7
 10
338.320797470452
 20
21.08637713957117
 42
0.006095649948762569
  0
VERTEX
  8
0
  6
CONTINUOUS
 62
     7
 10
336.8688022140888
 20
21.19256328462571
 42
0.005403400979625413
  0
VERTEX
  8
0
  6
CONTINUOUS
 62
     7
 10
335.4147325520939
 20
21.26546614994454
 42
0.005011271187428417
  0
VERTEX
  8
0
  6
CONTINUOUS
 62
     7
 10
333.9593451877542
 20
21.3081605735535
 42
0.004832083732838913
  0
VERTEX
  8
0
  6
CONTINUOUS
 62
     7
 10
332.5034196395803
 20
21.32226554727441
 42
0.004831338334626825
  0
VERTEX
  8
0
  6
CONTINUOUS
 62
     7
 10
331.0475993789349
 20
21.30829529081178
 42
0.005006473239246396
  0
VERTEX
  8
0
  6
CONTINUOUS
 62
     7
 10
329.5932024064743
 20
21.26577956311035
 42
0.005400885097234756
  0
VERTEX
  8
0
  6
CONTINUOUS
 62
     7
 10
328.1390450501956
 20
21.19304361605989
 42
0.00609114848296578
  0
VERTEX
  8
0
  6
CONTINUOUS
 62
     7
 10
326.6869707961612
 20
21.087043408466
 42
0.0072698551084924
  0
VERTEX
  8
0
  6
CONTINUOUS
 62
     7
 10
325.2380796381621
 20
20.9424999376224
 42
0.009378779576632803
  0
VERTEX
  8
0
  6
CONTINUOUS
 62
     7
 10
323.7943641802776
 20
20.75022139338443
 42
0.01364228778889179
  0
VERTEX
  8
0
  6
CONTINUOUS
 62
     7
 10
322.3608499957199
 20
20.49289605000562
 42
0.02480857460879748
  0
VERTEX
  8
0
  6
CONTINUOUS
 62
     7
 10
320.950954069681
 20
20.13075436869074
 42
0
  0
SEQEND
  8
0
  0
POLYLINE
  8
0
  6
CONTINUOUS
 62
     7
 66
     1
 10
0
 20
0
  0
VERTEX
  8
0
  6
CONTINUOUS
 62
     7
 10
320.9615478515625
 20
11.7392578125
 42
-0.01902116736518531
  0
VERTEX
  8
0
  6
CONTINUOUS
 62
     7
 10
320.2196581932445
 20
11.94346536817009
 42
-0.01048044734438282
  0
VERTEX
  8
0
  6
CONTINUOUS
 62
     7
 10
319.4910031740913
 20
12.19118874252255
 42
-0.005846306595269499
  0
VERTEX
  8
0
  6
CONTINUOUS
 62
     7
 10
318.7694058753885
 20
12.45983555974878
 42
-0.02972667419059862
  0
VERTEX
  8
0
  6
CONTINUOUS
 62
     7
 10
318.0685956436375
 20
12.77702069133847
 42
-0.05876466671314502
  0
VERTEX
  8
0
  6
CONTINUOUS
 62
     7
 10
317.4355173735868
 20
13.21140599886792
 42
-0.05383890839020618
  0
VERTEX
  8
0
  6
CONTINUOUS
 62
     7
 10
316.9240270858765
 20
13.78454657954047
 42
-0.04813925308974761
  0
VERTEX
  8
0
  6
CONTINUOUS
 62
     7
 10
316.5311610980098
 20
14.44588701911422
 42
-0.05484923591801191
  0
VERTEX
  8
0
  6
CONTINUOUS
 62
     7
 10
316.2856277130515
 20
15.173534212989
 42
-0.05416178867435498
  0
VERTEX
  8
0
  6
CONTINUOUS
 62
     7
 10
316.2023315429687
 20
15.936767578125
 42
-0.05421463403930607
  0
VERTEX
  8
0
  6
CONTINUOUS
 62
     7
 10
316.2857553468964
 20
16.70033655424674
 42
-0.05486332039226072
  0
VERTEX
  8
0
  6
CONTINUOUS
 62
     7
 10
316.5314827069368
 20
17.42809479399476
 42
-0.04805891081789426
  0
VERTEX
  8
0
  6
CONTINUOUS
 62
     7
 10
316.9237605332538
 20
18.08837871803023
 42
-0.05381626318594694
  0
VERTEX
  8
0
  6
CONTINUOUS
 62
     7
 10
317.4353492041971
 20
18.66197249322896
 42
-0.05878953029024826
  0
VERTEX
  8
0
  6
CONTINUOUS
 62
     7
 10
318.0684456395614
 20
19.09640966799196
 42
-0.02971397576253095
  0
VERTEX
  8
0
  6
CONTINUOUS
 62
     7
 10
318.7689443698362
 20
19.41346538818506
 42
-0.005849064610800744
  0
VERTEX
  8
0
  6
CONTINUOUS
 62
     7
 10
319.4903191908396
 20
19.6820668793626
 42
-0.01049623716707726
  0
VERTEX
  8
0
  6
CONTINUOUS
 62
     7
 10
320.219271450075
 20
19.92986894307721
 42
-0.01899783378671455
  0
VERTEX
  8
0
  6
CONTINUOUS
 62
     7
 10
320.9610595703125
 20
20.134033203125
 42
0
  0
SEQEND
  8
0
  0
TEXT
  8
0
  6
CONTINUOUS
 62
     7
 10
-72.85714530944824
 20
-7.5
 40
15
 41
0.9991837071010045
  1
ERKV-A-400
  0
ENDSEC
  0
EOF
