  0
SECTION
  2
HEADER
  0
ENDSEC
  0
SECTION
  2
TABLES
  0
TABLE
  2
LTYPE
 70
    22
  0
LTYPE
  2
CONTINUOUS
 70
    64
  3
Solid line
 72
    65
 73
     0
 40
0.000000
  0
LTYPE
  2
DASHED
 70
    64
  3
__ __ __ __ __ __ __ __ __ __ __ __ __ __ __
 72
    65
 73
     2
 40
3.500000
 49
2.000000
 49
-1.500000
  0
LTYPE
  2
CENTER
 70
    64
  3
____ _ ____ _ ____ _ ____ _ ____ _ ____ _ ____
 72
    65
 73
     4
 40
17.500000
 49
13.000000
 49
-1.500000
 49
1.500000
 49
-1.500000
  0
LTYPE
  2
PHANTOM
 70
    64
  3
_____ _ _ _____ _ _ _____ _ _ _____ _ _ ____  
 72
    65
 73
     6
 40
15.500000
 49
8.000000
 49
-1.500000
 49
1.500000
 49
-1.500000
 49
1.500000
 49
-1.500000
  0
LTYPE
  2
DOT
 70
    64
  3
. . . . . . . . . . . . . . . . . . . . . . . .
 72
    65
 73
     2
 40
0.25
 49
0.0
 49
-0.25
  0
ENDTAB
  0
TABLE
  2
LAYER
 70
     1
  0
LAYER
  2
0
 70
     0
 62
     7
  6
CONTINUOUS
  0
ENDTAB
  0
TABLE
  2
STYLE
 70
     1
  0
STYLE
  2
STANDARD
 70
     0
 40
0.000000
 41
1.000000
 50
0.000000
 71
     0
 42
0.200000
  3
txt
  0
ENDTAB
  0
TABLE
  2
VIEW
 70
     0
  0
ENDTAB
  0
ENDSEC
  0
SECTION
  2
BLOCKS
  0
ENDSEC
  0
SECTION
  2
ENTITIES
  0
LINE
  8
0
  6
CONTINUOUS
 62
     3
 10
384.5
 20
-250
 11
190
 21
-250
  0
LINE
  8
0
  6
CONTINUOUS
 62
     7
 10
324.5
 20
-176.5
 11
324.5
 21
-323.5
  0
LINE
  8
0
  6
CONTINUOUS
 62
     7
 10
302
 20
-176.5
 11
324.5
 21
-176.5
  0
LINE
  8
0
  6
CONTINUOUS
 62
     7
 10
302
 20
-323.5
 11
324.5
 21
-323.5
  0
LINE
  8
0
  6
CONTINUOUS
 62
     7
 10
302
 20
-176.5
 11
302
 21
-323.5
  0
LINE
  8
0
  6
CONTINUOUS
 62
     7
 10
230
 20
-170
 11
230
 21
-210.9867553710938
  0
LINE
  8
0
  6
CONTINUOUS
 62
     7
 10
230
 20
-170
 11
244
 21
-170
  0
LINE
  8
0
  6
CONTINUOUS
 62
     7
 10
230
 20
-330
 11
244
 21
-330
  0
LINE
  8
0
  6
CONTINUOUS
 62
     7
 10
244
 20
-170
 11
244
 21
-330
  0
LINE
  8
0
  6
CONTINUOUS
 62
     7
 10
292
 20
-177.5
 11
302
 21
-177.5
  0
LINE
  8
0
  6
CONTINUOUS
 62
     7
 10
292
 20
-322.5
 11
302
 21
-322.5
  0
LINE
  8
0
  6
CONTINUOUS
 62
     7
 10
249
 20
-276.3078002929687
 11
287
 21
-276.3078002929687
  0
LINE
  8
0
  6
CONTINUOUS
 62
     7
 10
249
 20
-223.6921997070313
 11
287
 21
-223.6921997070313
  0
LINE
  8
0
  6
CONTINUOUS
 62
     7
 10
292.0000305175781
 20
-298.2288208007812
 11
244.0000152587891
 21
-302.0455017089844
  0
LINE
  8
0
  6
CONTINUOUS
 62
     7
 10
244.0000305175781
 20
-307.5014343261719
 11
292
 21
-303.28466796875
  0
LINE
  8
0
  6
CONTINUOUS
 62
     7
 10
292
 20
-201.7711944580078
 11
272
 21
-201.7711944580078
  0
LINE
  8
0
  6
CONTINUOUS
 62
     7
 10
243.9999847412109
 20
-192.49853515625
 11
268.5381164550781
 21
-196.1939697265625
  0
LINE
  8
0
  6
CONTINUOUS
 62
     7
 10
244.0000152587891
 20
-197.9545288085937
 11
271.9999389648437
 21
-201.7711944580078
  0
LINE
  8
0
  6
CONTINUOUS
 62
     7
 10
200
 20
-236.5
 11
200
 21
-261
  0
LINE
  8
0
  6
CONTINUOUS
 62
     7
 10
200
 20
-239
 11
230
 21
-239
  0
LINE
  8
0
  6
CONTINUOUS
 62
     7
 10
200
 20
-261
 11
230
 21
-261
  0
LINE
  8
0
  6
CONTINUOUS
 62
     7
 10
226
 20
-195
 11
226
 21
-208.4146728515625
  0
LINE
  8
0
  6
CONTINUOUS
 62
     7
 10
226
 20
-195
 11
230
 21
-195
  0
LINE
  8
0
  6
CONTINUOUS
 62
     7
 10
226
 20
-305
 11
230
 21
-305
  0
LINE
  8
0
  6
CONTINUOUS
 62
     7
 10
226
 20
-278.5956726074219
 11
226
 21
-305
  0
LINE
  8
0
  6
CONTINUOUS
 62
     7
 10
230
 20
-235
 11
230
 21
-265
  0
LINE
  8
0
  6
CONTINUOUS
 62
     7
 10
230
 20
-275.0993041992187
 11
230
 21
-330
  0
LINE
  8
0
  6
CONTINUOUS
 62
     7
 10
230
 20
-265
 11
232.5799865722656
 21
-265
  0
LINE
  8
0
  6
CONTINUOUS
 62
     7
 10
230
 20
-235
 11
232.2677917480469
 21
-235
  0
LINE
  8
0
  6
CONTINUOUS
 62
     7
 10
200
 20
-236.5
 11
225
 21
-236.5
  0
LINE
  8
0
  6
CONTINUOUS
 62
     7
 10
225
 20
-236.5
 11
225
 21
-239
  0
LINE
  8
0
  6
CONTINUOUS
 62
     7
 10
287
 20
-182.0078125
 11
292
 21
-182.0078125
  0
LINE
  8
0
  6
CONTINUOUS
 62
     7
 10
292
 20
-177.5
 11
292
 21
-182.0078125
  0
LINE
  8
0
  6
CONTINUOUS
 62
     7
 10
292
 20
-201.7711944580078
 11
292
 21
-322.5
  0
LINE
  8
0
  6
CONTINUOUS
 62
     7
 10
270.741943359375
 20
-194.8222961425781
 11
272.3185729980469
 21
-189.8637237548828
  0
LINE
  8
0
  6
CONTINUOUS
 62
     3
 10
-90
 20
-250
 11
90
 21
-250
  0
LINE
  8
0
  6
CONTINUOUS
 62
     3
 10
0
 20
-160
 11
0
 21
-340
  0
LINE
  8
0
  6
CONTINUOUS
 62
     7
 10
3
 20
-236.5
 11
3
 21
-242.5
  0
LINE
  8
0
  6
CONTINUOUS
 62
     7
 10
-3
 20
-236.5
 11
-3
 21
-242.5
  0
LINE
  8
0
  6
CONTINUOUS
 62
     7
 10
-3
 20
-242.5
 11
3
 21
-242.5
  0
LINE
  8
0
  6
CONTINUOUS
 62
     7
 10
-3
 20
-236.5
 11
3
 21
-236.5
  0
LINE
  8
0
  6
CONTINUOUS
 62
     3
 10
384.5
 20
0
 11
190
 21
0
  0
LINE
  8
0
  6
CONTINUOUS
 62
     7
 10
302
 20
73.5
 11
324.5
 21
73.5
  0
LINE
  8
0
  6
CONTINUOUS
 62
     7
 10
302
 20
-73.5
 11
324.5
 21
-73.5
  0
LINE
  8
0
  6
CONTINUOUS
 62
     7
 10
302
 20
73.5
 11
302
 21
-73.5
  0
LINE
  8
0
  6
CONTINUOUS
 62
     7
 10
230
 20
79.99996948242188
 11
230
 21
35.571044921875
  0
LINE
  8
0
  6
CONTINUOUS
 62
     7
 10
230
 20
79.99996948242188
 11
244
 21
79.99996948242188
  0
LINE
  8
0
  6
CONTINUOUS
 62
     7
 10
230
 20
-80
 11
244
 21
-80
  0
LINE
  8
0
  6
CONTINUOUS
 62
     7
 10
244
 20
79.99996948242188
 11
244
 21
-80
  0
LINE
  8
0
  6
CONTINUOUS
 62
     7
 10
292
 20
72.5
 11
292
 21
-29.2969970703125
  0
LINE
  8
0
  6
CONTINUOUS
 62
     7
 10
292
 20
-72.5
 11
302
 21
-72.5
  0
LINE
  8
0
  6
CONTINUOUS
 62
     7
 10
292
 20
72.5
 11
302
 21
72.5
  0
LINE
  8
0
  6
CONTINUOUS
 62
     7
 10
292
 20
-53.87158203125
 11
292
 21
-72.5
  0
LINE
  8
0
  6
CONTINUOUS
 62
     7
 10
267.1650085449219
 20
-27.3770580291748
 11
272.4540100097656
 21
-44.5843620300293
  0
LINE
  8
0
  6
CONTINUOUS
 62
     7
 10
249
 20
-25.12686157226563
 11
266.4733276367187
 21
-25.12686157226563
  0
LINE
  8
0
  6
CONTINUOUS
 62
     7
 10
249
 20
28.68206787109375
 11
287
 21
28.68206787109375
  0
LINE
  8
0
  6
CONTINUOUS
 62
     7
 10
249
 20
6.48492431640625
 11
287
 21
6.48492431640625
  0
LINE
  8
0
  6
CONTINUOUS
 62
     7
 10
272.397705078125
 20
-44.3948974609375
 11
272
 21
-44.3948974609375
  0
LINE
  8
0
  6
CONTINUOUS
 62
     7
 10
276.3605346679688
 20
-50.2457275390625
 11
272
 21
-50.2457275390625
  0
LINE
  8
0
  6
CONTINUOUS
 62
     7
 10
244
 20
-48.15165328979492
 11
272
 21
-44.39488983154297
  0
LINE
  8
0
  6
CONTINUOUS
 62
     7
 10
272
 20
-50.24573516845703
 11
244
 21
-54.00249481201172
  0
LINE
  8
0
  6
CONTINUOUS
 62
     7
 10
226
 20
55
 11
226
 21
37.95217895507813
  0
LINE
  8
0
  6
CONTINUOUS
 62
     7
 10
226
 20
-55
 11
230
 21
-55
  0
LINE
  8
0
  6
CONTINUOUS
 62
     7
 10
226
 20
55
 11
230
 21
55
  0
LINE
  8
0
  6
CONTINUOUS
 62
     7
 10
200
 20
11
 11
200
 21
-11
  0
LINE
  8
0
  6
CONTINUOUS
 62
     7
 10
200
 20
-11
 11
230
 21
-11
  0
LINE
  8
0
  6
CONTINUOUS
 62
     7
 10
200
 20
11
 11
230
 21
11
  0
LINE
  8
0
  6
CONTINUOUS
 62
     7
 10
230
 20
-27.09478759765625
 11
230
 21
-80
  0
LINE
  8
0
  6
CONTINUOUS
 62
     7
 10
230
 20
15
 11
230
 21
-15
  0
LINE
  8
0
  6
CONTINUOUS
 62
     7
 10
226
 20
-30.82443237304688
 11
226
 21
-55
  0
LINE
  8
0
  6
CONTINUOUS
 62
     7
 10
230
 20
15
 11
232.9286041259766
 21
15
  0
LINE
  8
0
  6
CONTINUOUS
 62
     7
 10
230
 20
-15
 11
234.2694244384766
 21
-15
  0
LINE
  8
0
  6
CONTINUOUS
 62
     7
 10
200
 20
3
 11
225
 21
3
  0
LINE
  8
0
  6
CONTINUOUS
 62
     7
 10
200
 20
-3
 11
225
 21
-3
  0
LINE
  8
0
  6
CONTINUOUS
 62
     7
 10
225
 20
3
 11
225
 21
-3
  0
LINE
  8
0
  6
CONTINUOUS
 62
     7
 10
287
 20
-29.2969970703125
 11
292
 21
-29.2969970703125
  0
LINE
  8
0
  6
CONTINUOUS
 62
     7
 10
287
 20
-53.87158203125
 11
292
 21
-53.87158203125
  0
LINE
  8
0
  6
CONTINUOUS
 62
     7
 10
244
 20
57.50146865844727
 11
292
 21
54.10739135742187
  0
LINE
  8
0
  6
CONTINUOUS
 62
     7
 10
244
 20
52.04542541503906
 11
292
 21
47.28733825683594
  0
LINE
  8
0
  6
CONTINUOUS
 62
     7
 10
278.2245788574219
 20
-12.42587280273438
 11
292
 21
-12.42587280273438
  0
LINE
  8
0
  6
CONTINUOUS
 62
     7
 10
339.5
 20
-322.5
 11
339.5
 21
-177.5
  0
LINE
  8
0
  6
CONTINUOUS
 62
     7
 10
374.5
 20
-170
 11
374.5
 21
-330
  0
LINE
  8
0
  6
CONTINUOUS
 62
     7
 10
362.5
 20
-170
 11
374.5
 21
-170
  0
LINE
  8
0
  6
CONTINUOUS
 62
     7
 10
362.5
 20
-170
 11
362.5
 21
-330
  0
LINE
  8
0
  6
CONTINUOUS
 62
     7
 10
344.5
 20
-212
 11
357.5
 21
-212
  0
LINE
  8
0
  6
CONTINUOUS
 62
     7
 10
362.5
 20
-330
 11
374.5
 21
-330
  0
LINE
  8
0
  6
CONTINUOUS
 62
     7
 10
344.5
 20
-288
 11
357.5
 21
-288
  0
LINE
  8
0
  6
CONTINUOUS
 62
     7
 10
339.5
 20
-306
 11
362.5
 21
-306
  0
LINE
  8
0
  6
CONTINUOUS
 62
     7
 10
339.5
 20
-194
 11
362.5
 21
-194
  0
LINE
  8
0
  6
CONTINUOUS
 62
     7
 10
324.5
 20
-322.5
 11
339.5
 21
-322.5
  0
LINE
  8
0
  6
CONTINUOUS
 62
     7
 10
339.5
 20
-255
 11
362.5
 21
-255
  0
LINE
  8
0
  6
CONTINUOUS
 62
     7
 10
339.5
 20
-245
 11
362.5
 21
-245
  0
LINE
  8
0
  6
CONTINUOUS
 62
     7
 10
330.5
 20
-177.0899353027344
 11
330.9100952148437
 21
-177.5000152587891
  0
LINE
  8
0
  6
CONTINUOUS
 62
     7
 10
332.5000305175781
 20
-177.08984375
 11
332.9101257324219
 21
-177.4999389648437
  0
LINE
  8
0
  6
CONTINUOUS
 62
     7
 10
324.5
 20
-177.5
 11
339.5
 21
-177.5
  0
LINE
  8
0
  6
CONTINUOUS
 62
     7
 10
332.5
 20
-180.2459716796875
 11
332.5
 21
-141.255859375
  0
LINE
  8
0
  6
CONTINUOUS
 62
     7
 10
313.0792236328125
 20
-160.08984375
 11
351.4561462402344
 21
-160.08984375
  0
LINE
  8
0
  6
CONTINUOUS
 62
     7
 10
324.5
 20
-177.0898895263672
 11
325.0902099609375
 21
-173.7424774169922
  0
LINE
  8
0
  6
CONTINUOUS
 62
     7
 10
327.0598449707031
 20
-172.08984375
 11
337.9401550292969
 21
-172.08984375
  0
LINE
  8
0
  6
CONTINUOUS
 62
     7
 10
326.3696899414063
 20
-172.2128295898438
 11
332.1597595214844
 21
-170.0841979980469
  0
LINE
  8
0
  6
CONTINUOUS
 62
     7
 10
332.8402404785156
 20
-170.0842132568359
 11
338.6302795410156
 21
-172.2128601074219
  0
LINE
  8
0
  6
CONTINUOUS
 62
     7
 10
324.4987182617188
 20
-177.08984375
 11
340.5
 21
-177.08984375
  0
LINE
  8
0
  6
CONTINUOUS
 62
     7
 10
324.7999877929688
 20
-177.08984375
 11
324.7999877929688
 21
-177.5
  0
LINE
  8
0
  6
CONTINUOUS
 62
     7
 10
340.2000122070313
 20
-177.08984375
 11
340.2000122070313
 21
-179.08984375
  0
LINE
  8
0
  6
CONTINUOUS
 62
     7
 10
339.5
 20
-179.08984375
 11
340.2000122070313
 21
-179.08984375
  0
LINE
  8
0
  6
CONTINUOUS
 62
     7
 10
339.9097595214844
 20
-173.7424926757813
 11
340.5
 21
-177.0897827148438
  0
LINE
  8
0
  6
CONTINUOUS
 62
     7
 10
324.5
 20
72.5
 11
339.5
 21
72.5
  0
LINE
  8
0
  6
CONTINUOUS
 62
     7
 10
339.5
 20
5
 11
362.5
 21
5
  0
LINE
  8
0
  6
CONTINUOUS
 62
     7
 10
339.5
 20
-5
 11
362.5
 21
-5
  0
LINE
  8
0
  6
CONTINUOUS
 62
     7
 10
324.5
 20
-72.5
 11
339.5
 21
-72.5
  0
LINE
  8
0
  6
CONTINUOUS
 62
     7
 10
339.5
 20
56
 11
362.5
 21
56
  0
LINE
  8
0
  6
CONTINUOUS
 62
     7
 10
339.5
 20
-56
 11
362.5
 21
-56
  0
LINE
  8
0
  6
CONTINUOUS
 62
     7
 10
344.5
 20
-38
 11
357.5
 21
-38
  0
LINE
  8
0
  6
CONTINUOUS
 62
     7
 10
362.5
 20
-80
 11
374.5
 21
-80
  0
LINE
  8
0
  6
CONTINUOUS
 62
     7
 10
344.5
 20
38
 11
357.5
 21
38
  0
LINE
  8
0
  6
CONTINUOUS
 62
     7
 10
362.5
 20
80
 11
362.5
 21
-80
  0
LINE
  8
0
  6
CONTINUOUS
 62
     7
 10
362.5
 20
80
 11
374.5
 21
80
  0
LINE
  8
0
  6
CONTINUOUS
 62
     7
 10
374.5
 20
80
 11
374.5
 21
-80
  0
LINE
  8
0
  6
CONTINUOUS
 62
     7
 10
339.5
 20
-72.5
 11
339.5
 21
9.170654296875
  0
LINE
  8
0
  6
CONTINUOUS
 62
     7
 10
324.5
 20
-72.5
 11
324.5
 21
11.0224609375
  0
LINE
  8
0
  6
CONTINUOUS
 62
     7
 10
324.5
 20
20.85107421875
 11
324.5
 21
72.5
  0
LINE
  8
0
  6
CONTINUOUS
 62
     7
 10
339.5
 20
20.971923828125
 11
339.5
 21
72.5
  0
LINE
  8
0
  6
CONTINUOUS
 62
     7
 10
-12.93503379821777
 20
-176.641845703125
 11
-19.50171852111816
 21
-139.4003295898437
  0
LINE
  8
0
  6
CONTINUOUS
 62
     7
 10
-15.07015037536621
 20
-146.3929138183594
 11
-10.77895545959473
 21
-170.7294921875
  0
LINE
  8
0
  6
CONTINUOUS
 62
     7
 10
-10.88455867767334
 20
-170.1304168701172
 11
-8.494161605834961
 21
-170.4522247314453
  0
LINE
  8
0
  6
CONTINUOUS
 62
     7
 10
-17.0888671875
 20
-171.2244567871094
 11
-19.22488784790039
 21
-172.3443298339844
  0
LINE
  8
0
  6
CONTINUOUS
 62
     7
 10
-21.27442741394043
 20
-147.4868927001953
 11
-16.98323249816895
 21
-171.8234710693359
  0
ARC
  8
0
  6
CONTINUOUS
 62
     7
 10
268.8359985351562
 20
-194.2162780761719
 40
1.999999999999984
 50
261.4356711065674
 51
342.3614940911165
  0
ARC
  8
0
  6
CONTINUOUS
 62
     7
 10
287
 20
-281.3078002929687
 40
5
 50
0
 51
90.00000250447847
  0
ARC
  8
0
  6
CONTINUOUS
 62
     7
 10
287
 20
-218.6921997070313
 40
5.000000000000004
 50
269.9999974955215
 51
0
  0
ARC
  8
0
  6
CONTINUOUS
 62
     7
 10
249
 20
-218.6921997070313
 40
5
 50
179.999991348578
 51
270.0000006832453
  0
ARC
  8
0
  6
CONTINUOUS
 62
     7
 10
249
 20
-281.3078002929687
 40
5.000000000000004
 50
90.00000250447815
 51
180.0000050089563
  0
CIRCLE
  8
0
  6
CONTINUOUS
 62
     7
 10
0
 20
-250
 40
80
  0
ARC
  8
0
  6
CONTINUOUS
 62
     7
 10
0
 20
-250
 40
11.00000000000001
 50
105.8266231510974
 51
74.17337821539321
  0
CIRCLE
  8
0
  6
CONTINUOUS
 62
     7
 10
0
 20
-250
 40
55
  0
CIRCLE
  8
0
  6
CONTINUOUS
 62
     7
 10
0
 20
-250
 40
50
  0
ARC
  8
0
  6
CONTINUOUS
 62
     3
 10
0
 20
-250
 40
65
 50
351.1501170622253
 51
8.84988293777467
  0
CIRCLE
  8
0
  6
CONTINUOUS
 62
     7
 10
65
 20
-250
 40
6
  0
CIRCLE
  8
0
  6
CONTINUOUS
 62
     7
 10
0
 20
-185
 40
6
  0
ARC
  8
0
  6
CONTINUOUS
 62
     3
 10
0
 20
-250
 40
65
 50
81.15011956670348
 51
98.84988544225286
  0
CIRCLE
  8
0
  6
CONTINUOUS
 62
     7
 10
-65
 20
-250
 40
6
  0
ARC
  8
0
  6
CONTINUOUS
 62
     3
 10
0
 20
-250
 40
65
 50
171.1501152409925
 51
188.8498811165419
  0
CIRCLE
  8
0
  6
CONTINUOUS
 62
     7
 10
0
 20
-315
 40
6
  0
ARC
  8
0
  6
CONTINUOUS
 62
     3
 10
0
 20
-250
 40
65.00000000000001
 50
261.1501145577471
 51
278.8498804332965
  0
ARC
  8
0
  6
CONTINUOUS
 62
     7
 10
249
 20
33.68206787109375
 40
5
 50
179.999991348578
 51
270.0000006832453
  0
ARC
  8
0
  6
CONTINUOUS
 62
     7
 10
249
 20
11.48492431640625
 40
5
 50
179.999991348578
 51
270.0000006832453
  0
ARC
  8
0
  6
CONTINUOUS
 62
     7
 10
225
 20
0
 40
3
 50
269.9999974955221
 51
90.00000250447792
  0
ARC
  8
0
  6
CONTINUOUS
 62
     7
 10
287
 20
33.68206787109375
 40
5.000000000000001
 50
269.9999974955215
 51
0
  0
ARC
  8
0
  6
CONTINUOUS
 62
     7
 10
287
 20
11.48492431640625
 40
5
 50
269.9999974955215
 51
360
  0
ARC
  8
0
  6
CONTINUOUS
 62
     7
 10
249
 20
-30.12686157226563
 40
5.000000000000001
 50
90.00000250447815
 51
180.0000050089563
  0
ARC
  8
0
  6
CONTINUOUS
 62
     7
 10
357.5
 20
-293
 40
5
 50
0
 51
90.00000250447847
  0
ARC
  8
0
  6
CONTINUOUS
 62
     7
 10
357.5
 20
-207
 40
5.000000000000004
 50
269.9999974955215
 51
0
  0
ARC
  8
0
  6
CONTINUOUS
 62
     7
 10
344.5
 20
-207
 40
5
 50
179.999991348578
 51
270.0000006832456
  0
ARC
  8
0
  6
CONTINUOUS
 62
     7
 10
344.5
 20
-293
 40
5.000000000000004
 50
90.00000250447847
 51
180.0000050089563
  0
ARC
  8
0
  6
CONTINUOUS
 62
     7
 10
337.9401550292969
 20
-174.08984375
 40
1.999999999999974
 50
10.00000397796106
 51
89.99998201391097
  0
ARC
  8
0
  6
CONTINUOUS
 62
     7
 10
320.543212890625
 20
-176.494873046875
 40
4.000000000000021
 50
351.4459282863106
 51
53.91357911911904
  0
ARC
  8
0
  6
CONTINUOUS
 62
     7
 10
344.456787109375
 20
-176.494873046875
 40
4.000000000000022
 50
126.0864395502161
 51
188.5540383028318
  0
ARC
  8
0
  6
CONTINUOUS
 62
     7
 10
332.5
 20
-160.08984375
 40
16.29999923706055
 50
306.086414050692
 51
233.91354314694
  0
CIRCLE
  8
0
  6
CONTINUOUS
 62
     7
 10
332.5
 20
-160.08984375
 40
10
  0
ARC
  8
0
  6
CONTINUOUS
 62
     7
 10
327.0598449707031
 20
-174.08984375
 40
2.000000000000013
 50
89.99998201391097
 51
170.0000206677886
  0
ARC
  8
0
  6
CONTINUOUS
 62
     7
 10
344.5
 20
-43
 40
4.999999999999997
 50
90.00000250447847
 51
180.0000050089563
  0
ARC
  8
0
  6
CONTINUOUS
 62
     7
 10
344.5
 20
43
 40
5
 50
179.999991348578
 51
270.0000006832456
  0
ARC
  8
0
  6
CONTINUOUS
 62
     7
 10
357.5
 20
43
 40
4.999999999999997
 50
269.9999974955215
 51
0
  0
ARC
  8
0
  6
CONTINUOUS
 62
     7
 10
357.5
 20
-43
 40
5
 50
0
 51
90.00000250447847
  0
ARC
  8
0
  6
CONTINUOUS
 62
     7
 10
-18.17230224609375
 20
-146.9398193359375
 40
3.150000095367433
 50
9.999999709093037
 51
189.9999620293669
  0
POLYLINE
  8
0
  6
CONTINUOUS
 62
     7
 66
     1
 10
0
 20
0
  0
VERTEX
  8
0
  6
CONTINUOUS
 62
     7
 10
226.0000690381155
 20
-208.4146099540828
 42
-0.1732920784153176
  0
VERTEX
  8
0
  6
CONTINUOUS
 62
     7
 10
232.1839993497964
 20
-213.8742647553859
 42
-0.1212092049339951
  0
VERTEX
  8
0
  6
CONTINUOUS
 62
     7
 10
233.1857894860881
 20
-222.1458181009053
 42
-0.0003663815376344817
  0
VERTEX
  8
0
  6
CONTINUOUS
 62
     7
 10
232.5617617818889
 20
-230.542142371198
 42
0.007283536024579504
  0
VERTEX
  8
0
  6
CONTINUOUS
 62
     7
 10
232.0657430018173
 20
-238.9470736120045
 42
0.01061071921223205
  0
VERTEX
  8
0
  6
CONTINUOUS
 62
     7
 10
231.8876863966273
 20
-247.3632397230252
 42
0.01021215195777989
  0
VERTEX
  8
0
  6
CONTINUOUS
 62
     7
 10
232.0615278066106
 20
-255.7789427115485
 42
0.006671870884654138
  0
VERTEX
  8
0
  6
CONTINUOUS
 62
     7
 10
232.5421919249837
 20
-264.1837970924046
 42
-0.1117217932664967
  0
VERTEX
  8
0
  6
CONTINUOUS
 62
     7
 10
231.6062275587632
 20
-272.4769794767263
 42
-0.1471526792898544
  0
VERTEX
  8
0
  6
CONTINUOUS
 62
     7
 10
226.0023825019857
 20
-278.595008025307
 42
0
  0
SEQEND
  8
0
  0
POLYLINE
  8
0
  6
CONTINUOUS
 62
     7
 66
     1
 10
0
 20
0
  0
VERTEX
  8
0
  6
CONTINUOUS
 62
     7
 10
287
 20
-182.0080261230469
 42
0.02729414574270897
  0
VERTEX
  8
0
  6
CONTINUOUS
 62
     7
 10
284.536234187923
 20
-182.1422310448878
 42
0.02858769292556869
  0
VERTEX
  8
0
  6
CONTINUOUS
 62
     7
 10
282.1034241697899
 20
-182.5493497021221
 42
0.03145287426880398
  0
VERTEX
  8
0
  6
CONTINUOUS
 62
     7
 10
279.7359716608767
 20
-183.2440100413826
 42
0.03644156390585433
  0
VERTEX
  8
0
  6
CONTINUOUS
 62
     7
 10
277.4843202072273
 20
-184.2509047233418
 42
0.04462440548513909
  0
VERTEX
  8
0
  6
CONTINUOUS
 62
     7
 10
275.424100239892
 20
-185.6053429745781
 42
0.05749376049335551
  0
VERTEX
  8
0
  6
CONTINUOUS
 62
     7
 10
273.6801817719918
 20
-187.3453519546986
 42
0.07545535955646449
  0
VERTEX
  8
0
  6
CONTINUOUS
 62
     7
 10
272.4537965337367
 20
-189.477327799373
 42
0.09188341514557387
  0
VERTEX
  8
0
  6
CONTINUOUS
 62
     7
 10
272
 20
-191.8895263671875
 42
0.09187005358216159
  0
VERTEX
  8
0
  6
CONTINUOUS
 62
     7
 10
272.453661654036
 20
-194.301371930502
 42
0.07541336874226698
  0
VERTEX
  8
0
  6
CONTINUOUS
 62
     7
 10
273.6789273509099
 20
-196.4321047291699
 42
0.05747327667528921
  0
VERTEX
  8
0
  6
CONTINUOUS
 62
     7
 10
275.4212560441567
 20
-198.1714353925668
 42
0.04463179785894836
  0
VERTEX
  8
0
  6
CONTINUOUS
 62
     7
 10
277.4806837570289
 20
-199.5261814628025
 42
0.03644950507324012
  0
VERTEX
  8
0
  6
CONTINUOUS
 62
     7
 10
279.7318960601078
 20
-200.5335560707013
 42
0.03145601781677051
  0
VERTEX
  8
0
  6
CONTINUOUS
 62
     7
 10
282.0989113193413
 20
-201.2286757836646
 42
0.02860280347113298
  0
VERTEX
  8
0
  6
CONTINUOUS
 62
     7
 10
284.5326458328389
 20
-201.6364277777836
 42
0.02729781560604363
  0
VERTEX
  8
0
  6
CONTINUOUS
 62
     7
 10
286.9966412697866
 20
-201.7710263636084
 42
0
  0
SEQEND
  8
0
  0
POLYLINE
  8
0
  6
CONTINUOUS
 62
     7
 66
     1
 10
0
 20
0
  0
VERTEX
  8
0
  6
CONTINUOUS
 62
     7
 10
226.0005609189186
 20
37.95217259517376
 42
-0.2025952453709607
  0
VERTEX
  8
0
  6
CONTINUOUS
 62
     7
 10
232.7619724738529
 20
31.8173781976908
 42
-0.1113159613900874
  0
VERTEX
  8
0
  6
CONTINUOUS
 62
     7
 10
233.6758480757823
 20
22.56371110192882
 42
0.00298222241977093
  0
VERTEX
  8
0
  6
CONTINUOUS
 62
     7
 10
232.7928628948298
 20
13.22579390915222
 42
0.02910618138500017
  0
VERTEX
  8
0
  6
CONTINUOUS
 62
     7
 10
232.7248274934071
 20
3.851539784709862
 42
0.01883125156364612
  0
VERTEX
  8
0
  6
CONTINUOUS
 62
     7
 10
233.5915053577223
 20
-5.485678585625859
 42
-0.03365229345007668
  0
VERTEX
  8
0
  6
CONTINUOUS
 62
     7
 10
234.2728046176281
 20
-14.83369268863834
 42
-0.1197262810499176
  0
VERTEX
  8
0
  6
CONTINUOUS
 62
     7
 10
232.2228048665738
 20
-23.89508494788407
 42
-0.1044977235268115
  0
VERTEX
  8
0
  6
CONTINUOUS
 62
     7
 10
226.001729744353
 20
-30.82306357070089
 42
0
  0
SEQEND
  8
0
  0
POLYLINE
  8
0
  6
CONTINUOUS
 62
     7
 66
     1
 10
0
 20
0
  0
VERTEX
  8
0
  6
CONTINUOUS
 62
     7
 10
278.2258666681806
 20
-12.4259727801229
 42
0.01863018118449608
  0
VERTEX
  8
0
  6
CONTINUOUS
 62
     7
 10
276.9472908110445
 20
-12.72581608317096
 42
0.01914897136678362
  0
VERTEX
  8
0
  6
CONTINUOUS
 62
     7
 10
275.69488786198
 20
-13.12128933044658
 42
0.01982313497678843
  0
VERTEX
  8
0
  6
CONTINUOUS
 62
     7
 10
274.4768998562336
 20
-13.61308389514614
 42
0.02065958604675638
  0
VERTEX
  8
0
  6
CONTINUOUS
 62
     7
 10
273.3024574780721
 20
-14.20180775555834
 42
0.0216635050631608
  0
VERTEX
  8
0
  6
CONTINUOUS
 62
     7
 10
272.1817690088008
 20
-14.88777030190836
 42
0.02283527298842106
  0
VERTEX
  8
0
  6
CONTINUOUS
 62
     7
 10
271.1262837696584
 20
-15.67068178680397
 42
0.02416589556081596
  0
VERTEX
  8
0
  6
CONTINUOUS
 62
     7
 10
270.148793711076
 20
-16.5492480006418
 42
0.0256307478011842
  0
VERTEX
  8
0
  6
CONTINUOUS
 62
     7
 10
269.263415118363
 20
-17.52064952177604
 42
0.02718211632637096
  0
VERTEX
  8
0
  6
CONTINUOUS
 62
     7
 10
268.4853690610602
 20
-18.57991870748724
 42
0.0287423495236918
  0
VERTEX
  8
0
  6
CONTINUOUS
 62
     7
 10
267.8304653762589
 20
-19.7192734035201
 42
0.03020136029568163
  0
VERTEX
  8
0
  6
CONTINUOUS
 62
     7
 10
267.3142120274042
 20
-20.9275343716217
 42
0.0314237398416916
  0
VERTEX
  8
0
  6
CONTINUOUS
 62
     7
 10
266.9505464102389
 20
-22.18982491187352
 42
0.03226953547381886
  0
VERTEX
  8
0
  6
CONTINUOUS
 62
     7
 10
266.7503284684354
 20
-23.48777879738574
 42
0.03261578128557022
  0
VERTEX
  8
0
  6
CONTINUOUS
 62
     7
 10
266.7198890397498
 20
-24.79996770015607
 42
0.03242754396014362
  0
VERTEX
  8
0
  6
CONTINUOUS
 62
     7
 10
266.8599828146145
 20
-26.10446893128937
 42
0.03175157773620355
  0
VERTEX
  8
0
  6
CONTINUOUS
 62
     7
 10
267.1661273747768
 20
-27.38079637226249
 42
0
  0
SEQEND
  8
0
  0
POLYLINE
  8
0
  6
CONTINUOUS
 62
     7
 66
     1
 10
0
 20
0
  0
VERTEX
  8
0
  6
CONTINUOUS
 62
     7
 10
287
 20
-29.2969970703125
 42
0.03684100915015569
  0
VERTEX
  8
0
  6
CONTINUOUS
 62
     7
 10
284.3248356402441
 20
-29.49398538004669
 42
0.03801003109662183
  0
VERTEX
  8
0
  6
CONTINUOUS
 62
     7
 10
281.7095919964505
 20
-30.08659449703045
 42
0.04046201344888641
  0
VERTEX
  8
0
  6
CONTINUOUS
 62
     7
 10
279.217887000041
 20
-31.07999452506545
 42
0.04428261258127772
  0
VERTEX
  8
0
  6
CONTINUOUS
 62
     7
 10
276.9285733187973
 20
-32.47855553873525
 42
0.0494856361075645
  0
VERTEX
  8
0
  6
CONTINUOUS
 62
     7
 10
274.9404025435135
 20
-34.27746248606573
 42
0.05578176975687745
  0
VERTEX
  8
0
  6
CONTINUOUS
 62
     7
 10
273.3719381984464
 20
-36.45061958611024
 42
0.0620276577413999
  0
VERTEX
  8
0
  6
CONTINUOUS
 62
     7
 10
272.3545338266268
 20
-38.92862880642772
 42
0.06616822561189518
  0
VERTEX
  8
0
  6
CONTINUOUS
 62
     7
 10
272
 20
-41.58428955078125
 42
0.06611429329777183
  0
VERTEX
  8
0
  6
CONTINUOUS
 62
     7
 10
272.3539531246856
 20
-44.23780049723165
 42
0.06200344252648048
  0
VERTEX
  8
0
  6
CONTINUOUS
 62
     7
 10
273.3702152087653
 20
-46.71488925137595
 42
0.05578049654465626
  0
VERTEX
  8
0
  6
CONTINUOUS
 62
     7
 10
274.9377025977029
 20
-48.88812554733447
 42
0.04948567580068289
  0
VERTEX
  8
0
  6
CONTINUOUS
 62
     7
 10
276.9249249200378
 20
-50.68731492131647
 42
0.04427679459803582
  0
VERTEX
  8
0
  6
CONTINUOUS
 62
     7
 10
279.2130601449394
 20
-52.08618403471119
 42
0.04047359625088624
  0
VERTEX
  8
0
  6
CONTINUOUS
 62
     7
 10
281.7047856491424
 20
-53.08049986921474
 42
0.03804200425318257
  0
VERTEX
  8
0
  6
CONTINUOUS
 62
     7
 10
284.3219006902545
 20
-53.67415771768141
 42
0.03688218119177183
  0
VERTEX
  8
0
  6
CONTINUOUS
 62
     7
 10
287
 20
-53.87158203125
 42
0
  0
SEQEND
  8
0
  0
POLYLINE
  8
0
  6
CONTINUOUS
 62
     7
 66
     1
 10
0
 20
0
  0
VERTEX
  8
0
  6
CONTINUOUS
 62
     7
 10
319.3499755859375
 20
12.83447265625
 42
0.1945692824531015
  0
VERTEX
  8
0
  6
CONTINUOUS
 62
     7
 10
322.2921521136235
 20
11.39505955307913
 42
0.02554323253017168
  0
VERTEX
  8
0
  6
CONTINUOUS
 62
     7
 10
325.6707718163847
 20
10.8832785855967
 42
0.01446695002794519
  0
VERTEX
  8
0
  6
CONTINUOUS
 62
     7
 10
329.0801823852635
 20
10.62982079009492
 42
0.01162823533403525
  0
VERTEX
  8
0
  6
CONTINUOUS
 62
     7
 10
332.5
 20
10.55126953125
 42
0.01162207999222164
  0
VERTEX
  8
0
  6
CONTINUOUS
 62
     7
 10
335.9181132333993
 20
10.62974048872103
 42
0.01446991748458686
  0
VERTEX
  8
0
  6
CONTINUOUS
 62
     7
 10
339.3286290098594
 20
10.88321531897752
 42
0.02555833756703689
  0
VERTEX
  8
0
  6
CONTINUOUS
 62
     7
 10
342.708977510969
 20
11.39530432406177
 42
0.1953013108079616
  0
VERTEX
  8
0
  6
CONTINUOUS
 62
     7
 10
345.6499875538739
 20
12.83671544789154
 42
0.1938789351877947
  0
VERTEX
  8
0
  6
CONTINUOUS
 62
     7
 10
342.7056944754797
 20
14.27453837711957
 42
0.02553305454209325
  0
VERTEX
  8
0
  6
CONTINUOUS
 62
     7
 10
339.3270595296578
 20
14.78624715813639
 42
0.01446795752225696
  0
VERTEX
  8
0
  6
CONTINUOUS
 62
     7
 10
335.9176457301465
 20
15.0396779138494
 42
0.01162537149201392
  0
VERTEX
  8
0
  6
CONTINUOUS
 62
     7
 10
332.5
 20
15.1181640625
 42
0.01162712554392848
  0
VERTEX
  8
0
  6
CONTINUOUS
 62
     7
 10
329.0818878660821
 20
15.03965695127291
 42
0.01447400940950193
  0
VERTEX
  8
0
  6
CONTINUOUS
 62
     7
 10
325.6713797792794
 20
14.78608432365001
 42
0.02556168375859996
  0
VERTEX
  8
0
  6
CONTINUOUS
 62
     7
 10
322.2910542215804
 20
14.27384775891904
 42
0.1952050264606716
  0
VERTEX
  8
0
  6
CONTINUOUS
 62
     7
 10
319.3499801702926
 20
12.83256590176528
 42
0
  0
SEQEND
  8
0
  0
POLYLINE
  8
0
  6
CONTINUOUS
 62
     7
 66
     1
 10
0
 20
0
  0
VERTEX
  8
0
  6
CONTINUOUS
 62
     7
 10
344.051692349189
 20
20.12990212163364
 42
0.0248303389150036
  0
VERTEX
  8
0
  6
CONTINUOUS
 62
     7
 10
342.6433031299518
 20
20.49201792107768
 42
0.01364854112582766
  0
VERTEX
  8
0
  6
CONTINUOUS
 62
     7
 10
341.2114592438061
 20
20.74932472039775
 42
0.00938283036573136
  0
VERTEX
  8
0
  6
CONTINUOUS
 62
     7
 10
339.7691740768726
 20
20.94166294941125
 42
0.007275419706888204
  0
VERTEX
  8
0
  6
CONTINUOUS
 62
     7
 10
338.320780365548
 20
21.08637806839342
 42
0.006095667176903008
  0
VERTEX
  8
0
  6
CONTINUOUS
 62
     7
 10
336.8687865353974
 20
21.19256402149388
 42
0.005403411756166566
  0
VERTEX
  8
0
  6
CONTINUOUS
 62
     7
 10
335.4147183001195
 20
21.26546664657355
 42
0.005011276167607739
  0
VERTEX
  8
0
  6
CONTINUOUS
 62
     7
 10
333.9593323691777
 20
21.30816081368535
 42
0.004832082136174248
  0
VERTEX
  8
0
  6
CONTINUOUS
 62
     7
 10
332.5034083774646
 20
21.32226554778383
 42
0.004831334188099397
  0
VERTEX
  8
0
  6
CONTINUOUS
 62
     7
 10
331.0475895542267
 20
21.30829510122438
 42
0.005006470056528638
  0
VERTEX
  8
0
  6
CONTINUOUS
 62
     7
 10
329.5931940099487
 20
21.26577923264074
 42
0.005400882552905235
  0
VERTEX
  8
0
  6
CONTINUOUS
 62
     7
 10
328.139038084235
 20
21.19304319085202
 42
0.006091146285473665
  0
VERTEX
  8
0
  6
CONTINUOUS
 62
     7
 10
326.6869652725049
 20
21.08704293577084
 42
0.00726985298896963
  0
VERTEX
  8
0
  6
CONTINUOUS
 62
     7
 10
325.2380755563478
 20
20.94249946811774
 42
0.009378776901543347
  0
VERTEX
  8
0
  6
CONTINUOUS
 62
     7
 10
323.7943615381729
 20
20.75022098813027
 42
0.01364228252149335
  0
VERTEX
  8
0
  6
CONTINUOUS
 62
     7
 10
322.3608487854663
 20
20.49289579554576
 42
0.02480855593625316
  0
VERTEX
  8
0
  6
CONTINUOUS
 62
     7
 10
320.9509542599992
 20
20.13075442938641
 42
0
  0
SEQEND
  8
0
  0
POLYLINE
  8
0
  6
CONTINUOUS
 62
     7
 66
     1
 10
0
 20
0
  0
VERTEX
  8
0
  6
CONTINUOUS
 62
     7
 10
320.9615783691406
 20
11.7392578125
 42
-0.01901918745878612
  0
VERTEX
  8
0
  6
CONTINUOUS
 62
     7
 10
320.2196839762256
 20
11.94346333333824
 42
-0.01048097705268595
  0
VERTEX
  8
0
  6
CONTINUOUS
 62
     7
 10
319.4910232604811
 20
12.19118244211692
 42
-0.005845321793747462
  0
VERTEX
  8
0
  6
CONTINUOUS
 62
     7
 10
318.769421937155
 20
12.4598276724281
 42
-0.02972403344421901
  0
VERTEX
  8
0
  6
CONTINUOUS
 62
     7
 10
318.0686036595555
 20
12.7770049034654
 42
-0.05876742985136859
  0
VERTEX
  8
0
  6
CONTINUOUS
 62
     7
 10
317.4355123841453
 20
13.21138412386407
 42
-0.05384032392353035
  0
VERTEX
  8
0
  6
CONTINUOUS
 62
     7
 10
316.9240327850251
 20
13.78453853826813
 42
-0.04813922686569898
  0
VERTEX
  8
0
  6
CONTINUOUS
 62
     7
 10
316.5311635728424
 20
14.44588170178658
 42
-0.05484953165160344
  0
VERTEX
  8
0
  6
CONTINUOUS
 62
     7
 10
316.2856281171404
 20
15.17353237695359
 42
-0.05416192064379466
  0
VERTEX
  8
0
  6
CONTINUOUS
 62
     7
 10
316.2023315429687
 20
15.936767578125
 42
-0.05421491251331163
  0
VERTEX
  8
0
  6
CONTINUOUS
 62
     7
 10
316.2857562045306
 20
16.70034044794766
 42
-0.05486362129027694
  0
VERTEX
  8
0
  6
CONTINUOUS
 62
     7
 10
316.5314860658679
 20
17.42810200679041
 42
-0.0480588978845182
  0
VERTEX
  8
0
  6
CONTINUOUS
 62
     7
 10
316.9237679155904
 20
18.08838907484148
 42
-0.05381766463336012
  0
VERTEX
  8
0
  6
CONTINUOUS
 62
     7
 10
317.4353455702775
 20
18.66199557828147
 42
-0.05879202130782771
  0
VERTEX
  8
0
  6
CONTINUOUS
 62
     7
 10
318.068452133836
 20
19.09642463619137
 42
-0.02971145702956917
  0
VERTEX
  8
0
  6
CONTINUOUS
 62
     7
 10
318.7689609318359
 20
19.4134734733483
 42
-0.005848077796687001
  0
VERTEX
  8
0
  6
CONTINUOUS
 62
     7
 10
319.4903407801377
 20
19.6820737222709
 42
-0.01049682231859706
  0
VERTEX
  8
0
  6
CONTINUOUS
 62
     7
 10
320.219300852039
 20
19.92987211109051
 42
-0.0189957956978279
  0
VERTEX
  8
0
  6
CONTINUOUS
 62
     7
 10
320.9610900878906
 20
20.134033203125
 42
0
  0
SEQEND
  8
0
  0
POLYLINE
  8
0
  6
CONTINUOUS
 62
     7
 66
     1
 10
0
 20
0
  0
VERTEX
  8
0
  6
CONTINUOUS
 62
     7
 10
344.0383911132813
 20
11.7392578125
 42
0.01901728022363898
  0
VERTEX
  8
0
  6
CONTINUOUS
 62
     7
 10
344.780288162007
 20
11.94346062636315
 42
0.01048146422237153
  0
VERTEX
  8
0
  6
CONTINUOUS
 62
     7
 10
345.5089525249099
 20
12.19117472067615
 42
0.005848017668080788
  0
VERTEX
  8
0
  6
CONTINUOUS
 62
     7
 10
346.2305560130536
 20
12.45982052807165
 42
0.02972556577506889
  0
VERTEX
  8
0
  6
CONTINUOUS
 62
     7
 10
346.9313733557618
 20
12.77700406193444
 42
0.05876385890718015
  0
VERTEX
  8
0
  6
CONTINUOUS
 62
     7
 10
347.5644609114627
 20
13.21138666895594
 42
0.05384005964148916
  0
VERTEX
  8
0
  6
CONTINUOUS
 62
     7
 10
348.0759592170976
 20
13.78452773860383
 42
0.04813933897786287
  0
VERTEX
  8
0
  6
CONTINUOUS
 62
     7
 10
348.4688315008672
 20
14.44587117241194
 42
0.05486388540024319
  0
VERTEX
  8
0
  6
CONTINUOUS
 62
     7
 10
348.7143418718705
 20
15.17353066702421
 42
0.05415427882665213
  0
VERTEX
  8
0
  6
CONTINUOUS
 62
     7
 10
348.7976684570313
 20
15.936767578125
 42
0.05420694667388386
  0
VERTEX
  8
0
  6
CONTINUOUS
 62
     7
 10
348.7142143599198
 20
16.70033974533093
 42
0.05487790612321025
  0
VERTEX
  8
0
  6
CONTINUOUS
 62
     7
 10
348.4685099482917
 20
17.42811062089228
 42
0.04805889587800579
  0
VERTEX
  8
0
  6
CONTINUOUS
 62
     7
 10
348.0762257663249
 20
18.08839760076178
 42
0.05381747357135831
  0
VERTEX
  8
0
  6
CONTINUOUS
 62
     7
 10
347.5646291145972
 20
18.66199174936878
 42
0.05878894917004639
  0
VERTEX
  8
0
  6
CONTINUOUS
 62
     7
 10
346.9315237634909
 20
19.09642619366969
 42
0.02971283688997876
  0
VERTEX
  8
0
  6
CONTINUOUS
 62
     7
 10
346.2310177310155
 20
19.41348023612414
 42
0.005850687651810143
  0
VERTEX
  8
0
  6
CONTINUOUS
 62
     7
 10
345.5096365984708
 20
19.68208100273936
 42
0.01049742747451278
  0
VERTEX
  8
0
  6
CONTINUOUS
 62
     7
 10
344.7806707488949
 20
19.92987494407607
 42
0.01899365772255154
  0
VERTEX
  8
0
  6
CONTINUOUS
 62
     7
 10
344.0388793945312
 20
20.134033203125
 42
0
  0
SEQEND
  8
0
  0
POLYLINE
  8
0
  6
CONTINUOUS
 62
     7
 66
     1
 10
0
 20
0
  0
VERTEX
  8
0
  6
CONTINUOUS
 62
     7
 10
324.7619020586906
 20
10.98545465218175
 42
0.04188613022366218
  0
VERTEX
  8
0
  6
CONTINUOUS
 62
     7
 10
325.2020316815067
 20
9.757465205901276
 42
0.04165468219609916
  0
VERTEX
  8
0
  6
CONTINUOUS
 62
     7
 10
325.8402726644481
 20
8.619523715053321
 42
0.04136408119837253
  0
VERTEX
  8
0
  6
CONTINUOUS
 62
     7
 10
326.6577221632236
 20
7.602647361325613
 42
0.04106062826738218
  0
VERTEX
  8
0
  6
CONTINUOUS
 62
     7
 10
327.6310259949532
 20
6.733484675914843
 42
0.04077373210742213
  0
VERTEX
  8
0
  6
CONTINUOUS
 62
     7
 10
328.7330961697152
 20
6.034276735056617
 42
0.04052967900162883
  0
VERTEX
  8
0
  6
CONTINUOUS
 62
     7
 10
329.9339586170215
 20
5.522502872004353
 42
0.04034890219004937
  0
VERTEX
  8
0
  6
CONTINUOUS
 62
     7
 10
331.2015423731039
 20
5.210673016431506
 42
0.04023730416243801
  0
VERTEX
  8
0
  6
CONTINUOUS
 62
     7
 10
332.5021782469288
 20
5.106201463604696
 42
0.0402304519624862
  0
VERTEX
  8
0
  6
CONTINUOUS
 62
     7
 10
333.8025325424921
 20
5.211333892784858
 42
0.04031713967839964
  0
VERTEX
  8
0
  6
CONTINUOUS
 62
     7
 10
335.0689700327978
 20
5.52347979420682
 42
0.04051233780466516
  0
VERTEX
  8
0
  6
CONTINUOUS
 62
     7
 10
336.2691279806176
 20
6.035445857417741
 42
0.04075999998143861
  0
VERTEX
  8
0
  6
CONTINUOUS
 62
     7
 10
337.3706153895242
 20
6.734724687252754
 42
0.04105956262824831
  0
VERTEX
  8
0
  6
CONTINUOUS
 62
     7
 10
338.343660556107
 20
7.604103517515719
 42
0.04137676030973014
  0
VERTEX
  8
0
  6
CONTINUOUS
 62
     7
 10
339.1610663312125
 20
8.62150610334422
 42
0.04167427534088646
  0
VERTEX
  8
0
  6
CONTINUOUS
 62
     7
 10
339.7992076316385
 20
9.76018557367968
 42
0.04191528628124896
  0
VERTEX
  8
0
  6
CONTINUOUS
 62
     7
 10
340.2390960257399
 20
10.98920635112402
 42
0
  0
SEQEND
  8
0
  0
TEXT
  8
0
  6
CONTINUOUS
 62
     7
 10
-72.85714530944824
 20
-7.5
 40
15
 41
0.9991837071010045
  1
ERKV-A-200
  0
ENDSEC
  0
EOF
