  0
SECTION
  2
HEADER
  0
ENDSEC
  0
SECTION
  2
TABLES
  0
TABLE
  2
LTYPE
 70
    22
  0
LTYPE
  2
CONTINUOUS
 70
    64
  3
Solid line
 72
    65
 73
     0
 40
0.000000
  0
LTYPE
  2
DASHED
 70
    64
  3
__ __ __ __ __ __ __ __ __ __ __ __ __ __ __
 72
    65
 73
     2
 40
3.500000
 49
2.000000
 49
-1.500000
  0
LTYPE
  2
CENTER
 70
    64
  3
____ _ ____ _ ____ _ ____ _ ____ _ ____ _ ____
 72
    65
 73
     4
 40
17.500000
 49
13.000000
 49
-1.500000
 49
1.500000
 49
-1.500000
  0
LTYPE
  2
PHANTOM
 70
    64
  3
_____ _ _ _____ _ _ _____ _ _ _____ _ _ ____  
 72
    65
 73
     6
 40
15.500000
 49
8.000000
 49
-1.500000
 49
1.500000
 49
-1.500000
 49
1.500000
 49
-1.500000
  0
LTYPE
  2
DOT
 70
    64
  3
. . . . . . . . . . . . . . . . . . . . . . . .
 72
    65
 73
     2
 40
0.25
 49
0.0
 49
-0.25
  0
ENDTAB
  0
TABLE
  2
LAYER
 70
     1
  0
LAYER
  2
0
 70
     0
 62
     7
  6
CONTINUOUS
  0
ENDTAB
  0
TABLE
  2
STYLE
 70
     1
  0
STYLE
  2
STANDARD
 70
     0
 40
0.000000
 41
1.000000
 50
0.000000
 71
     0
 42
0.200000
  3
txt
  4
BIGFONT
  0
ENDTAB
  0
TABLE
  2
VIEW
 70
     0
  0
ENDTAB
  0
ENDSEC
  0
SECTION
  2
BLOCKS
  0
ENDSEC
  0
SECTION
  2
ENTITIES
  0
LINE
  8
0
  6
CONTINUOUS
 62
     3
 10
-437.751708984375
 20
-419.5
 11
21.94920349121094
 21
-419.5
  0
LINE
  8
0
  6
CONTINUOUS
 62
     3
 10
222.0987396240234
 20
-419.5
 11
802.0987548828125
 21
-419.5
  0
LINE
  8
0
  6
CONTINUOUS
 62
     7
 10
402.0987548828125
 20
-629.5
 11
767.0987548828125
 21
-629.5
  0
LINE
  8
0
  6
CONTINUOUS
 62
     7
 10
402.0987548828125
 20
-594.5
 11
472.0987548828125
 21
-594.5
  0
LINE
  8
0
  6
CONTINUOUS
 62
     7
 10
402.0987548828125
 20
-594.5
 11
402.0987548828125
 21
-629.5
  0
LINE
  8
0
  6
CONTINUOUS
 62
     7
 10
767.0987548828125
 20
-594.5
 11
767.0987548828125
 21
-629.5
  0
LINE
  8
0
  6
CONTINUOUS
 62
     7
 10
540.4942626953125
 20
-451.9609985351562
 11
648.1092529296875
 21
-580.2115478515625
  0
LINE
  8
0
  6
CONTINUOUS
 62
     7
 10
678.7510986328125
 20
-594.5
 11
767.0987548828125
 21
-594.5
  0
LINE
  8
0
  6
CONTINUOUS
 62
     3
 10
437.0987548828125
 20
-579.5
 11
437.0987548828125
 21
-644.5
  0
LINE
  8
0
  6
CONTINUOUS
 62
     3
 10
732.0987548828125
 20
-579.5
 11
732.0987548828125
 21
-644.5
  0
LINE
  8
0
  6
CONTINUOUS
 62
     7
 10
391.0987548828125
 20
-329.4999694824219
 11
391.0987548828125
 21
-509.5
  0
LINE
  8
0
  6
CONTINUOUS
 62
     7
 10
422.0987548828125
 20
-287
 11
422.0987548828125
 21
-552
  0
LINE
  8
0
  6
CONTINUOUS
 62
     7
 10
402.0987548828125
 20
-552
 11
425.366455078125
 21
-552
  0
LINE
  8
0
  6
CONTINUOUS
 62
     7
 10
402.0987548828125
 20
-287
 11
452.098876953125
 21
-287
  0
LINE
  8
0
  6
CONTINUOUS
 62
     7
 10
391.0986328125
 20
-329.4999084472656
 11
402.0986938476563
 21
-318.4998474121094
  0
LINE
  8
0
  6
CONTINUOUS
 62
     7
 10
391.0987243652344
 20
-509.4999694824219
 11
402.0987548828125
 21
-520.5
  0
LINE
  8
0
  6
CONTINUOUS
 62
     7
 10
402.0987548828125
 20
-287
 11
402.0987548828125
 21
-552
  0
LINE
  8
0
  6
CONTINUOUS
 62
     7
 10
517.0987548828125
 20
-242
 11
517.0987548828125
 21
-387.6822204589844
  0
LINE
  8
0
  6
CONTINUOUS
 62
     7
 10
492.0987548828125
 20
-242
 11
492.0987548828125
 21
-574.5
  0
LINE
  8
0
  6
CONTINUOUS
 62
     7
 10
477.0987548828125
 20
-242
 11
517.0987548828125
 21
-242
  0
LINE
  8
0
  6
CONTINUOUS
 62
     7
 10
452.0987548828125
 20
-286.9999389648438
 11
478.4060668945312
 21
-284.6983642578125
  0
LINE
  8
0
  6
CONTINUOUS
 62
     3
 10
472.0987548828125
 20
-404.5
 11
472.0987548828125
 21
-434.5
  0
LINE
  8
0
  6
CONTINUOUS
 62
     3
 10
470.0987548828125
 20
-509.5
 11
470.0987548828125
 21
-539.5
  0
LINE
  8
0
  6
CONTINUOUS
 62
     3
 10
455.0987548828125
 20
-524.5
 11
485.0987548828125
 21
-524.5
  0
LINE
  8
0
  6
CONTINUOUS
 62
     7
 10
477.0987548828125
 20
-242
 11
477.0987548828125
 21
-278.4227294921875
  0
LINE
  8
0
  6
CONTINUOUS
 62
     7
 10
242.0987396240234
 20
-367
 11
242.0987396240234
 21
-467
  0
LINE
  8
0
  6
CONTINUOUS
 62
     7
 10
242.0987396240234
 20
-467
 11
382.0987548828125
 21
-467
  0
LINE
  8
0
  6
CONTINUOUS
 62
     7
 10
382.0987548828125
 20
-364.5
 11
382.0987548828125
 21
-474.5
  0
LINE
  8
0
  6
CONTINUOUS
 62
     7
 10
382.0987548828125
 20
-364.5
 11
391.0987548828125
 21
-364.5
  0
LINE
  8
0
  6
CONTINUOUS
 62
     7
 10
382.0987548828125
 20
-474.5
 11
391.0987548828125
 21
-474.5
  0
LINE
  8
0
  6
DASHED
 62
     7
 10
449.5987548828125
 20
-594.5
 11
449.5987548828125
 21
-629.5
  0
LINE
  8
0
  6
DASHED
 62
     7
 10
424.5987548828125
 20
-594.5
 11
424.5987548828125
 21
-629.5
  0
LINE
  8
0
  6
DASHED
 62
     7
 10
719.5987548828125
 20
-594.5
 11
719.5987548828125
 21
-629.5
  0
LINE
  8
0
  6
DASHED
 62
     7
 10
744.5987548828125
 20
-594.5
 11
744.5987548828125
 21
-629.5
  0
LINE
  8
0
  6
CONTINUOUS
 62
     7
 10
242.0987396240234
 20
-367
 11
352.0987548828125
 21
-367
  0
LINE
  8
0
  6
CONTINUOUS
 62
     7
 10
430.7166442871094
 20
-495.9981689453125
 11
426.5511474609375
 21
-543.6090087890625
  0
LINE
  8
0
  6
CONTINUOUS
 62
     7
 10
480.5841369628906
 20
-419.5
 11
472.0988464355469
 21
-411.0147094726562
  0
LINE
  8
0
  6
CONTINUOUS
 62
     7
 10
472.0987854003906
 20
-411.0147705078125
 11
463.613525390625
 21
-419.5000305175781
  0
LINE
  8
0
  6
CONTINUOUS
 62
     7
 10
472.0986633300781
 20
-427.9853210449219
 11
463.6134033203125
 21
-419.5000610351563
  0
LINE
  8
0
  6
CONTINUOUS
 62
     7
 10
480.583984375
 20
-419.4999694824219
 11
472.0986633300781
 21
-427.9852600097656
  0
LINE
  8
0
  6
CONTINUOUS
 62
     7
 10
242.0987396240234
 20
-372
 11
382.0987548828125
 21
-372
  0
LINE
  8
0
  6
CONTINUOUS
 62
     7
 10
470.0987854003906
 20
-516.0146484375
 11
461.6134643554688
 21
-524.5
  0
LINE
  8
0
  6
CONTINUOUS
 62
     7
 10
470.0987243652344
 20
-532.9852905273438
 11
461.6134643554688
 21
-524.5000610351562
  0
LINE
  8
0
  6
CONTINUOUS
 62
     7
 10
478.5840148925781
 20
-524.5
 11
470.0986938476562
 21
-532.9852905273438
  0
LINE
  8
0
  6
CONTINUOUS
 62
     7
 10
478.5841064453125
 20
-524.5
 11
470.0988159179688
 21
-516.0147094726562
  0
LINE
  8
0
  6
CONTINUOUS
 62
     7
 10
352.0987548828125
 20
-367
 11
352.0987548828125
 21
-372
  0
LINE
  8
0
  6
CONTINUOUS
 62
     7
 10
597.0987548828125
 20
-242
 11
597.0987548828125
 21
-519.4195556640625
  0
LINE
  8
0
  6
CONTINUOUS
 62
     7
 10
522.0987548828125
 20
-239.5
 11
592.0987548828125
 21
-239.5
  0
LINE
  8
0
  6
CONTINUOUS
 62
     7
 10
517.0986938476562
 20
-244.5000457763672
 11
522.0987548828125
 21
-239.5000152587891
  0
LINE
  8
0
  6
CONTINUOUS
 62
     7
 10
592.0986938476563
 20
-239.5000762939453
 11
597.0986938476563
 21
-244.5000762939453
  0
LINE
  8
0
  6
CONTINUOUS
 62
     7
 10
531.098876953125
 20
-229.5
 11
563.0988159179687
 21
-229.5
  0
LINE
  8
0
  6
CONTINUOUS
 62
     7
 10
527.4590454101563
 20
-239.4999847412109
 11
531.0986938476563
 21
-229.5000305175781
  0
LINE
  8
0
  6
CONTINUOUS
 62
     7
 10
566.738525390625
 20
-239.4999847412109
 11
563.0987548828125
 21
-229.4999542236328
  0
LINE
  8
0
  6
CONTINUOUS
 62
     7
 10
522.0987548828125
 20
-246.5777587890625
 11
592.0987548828125
 21
-246.5777587890625
  0
LINE
  8
0
  6
CONTINUOUS
 62
     7
 10
522.0987548828125
 20
-285.0732421875
 11
592.0987548828125
 21
-285.0732421875
  0
LINE
  8
0
  6
CONTINUOUS
 62
     7
 10
522.0987548828125
 20
-299.7942504882812
 11
592.0987548828125
 21
-299.7942504882812
  0
LINE
  8
0
  6
CONTINUOUS
 62
     7
 10
522.0987548828125
 20
-315.4463806152344
 11
592.0987548828125
 21
-315.4463806152344
  0
LINE
  8
0
  6
CONTINUOUS
 62
     7
 10
522.0987548828125
 20
-332.5659790039062
 11
592.0987548828125
 21
-332.5659790039062
  0
LINE
  8
0
  6
CONTINUOUS
 62
     7
 10
522.0987548828125
 20
-369.52099609375
 11
592.0987548828125
 21
-369.52099609375
  0
LINE
  8
0
  6
CONTINUOUS
 62
     7
 10
522.0987548828125
 20
-389.21923828125
 11
592.0987548828125
 21
-389.21923828125
  0
LINE
  8
0
  6
CONTINUOUS
 62
     7
 10
522.0987548828125
 20
-409.0905151367188
 11
592.0987548828125
 21
-409.0905151367188
  0
LINE
  8
0
  6
CONTINUOUS
 62
     7
 10
526.4517822265625
 20
-429.9093627929688
 11
592.0987548828125
 21
-429.9093627929688
  0
LINE
  8
0
  6
CONTINUOUS
 62
     7
 10
538.664794921875
 20
-449.78076171875
 11
592.0987548828125
 21
-449.78076171875
  0
LINE
  8
0
  6
CONTINUOUS
 62
     7
 10
555.1934814453125
 20
-469.4788208007812
 11
592.0987548828125
 21
-469.4788208007812
  0
LINE
  8
0
  6
CONTINUOUS
 62
     7
 10
586.20263671875
 20
-506.4341430664063
 11
592.0987548828125
 21
-506.4341430664063
  0
LINE
  8
0
  6
CONTINUOUS
 62
     7
 10
534.5986938476563
 20
-226.5000152587891
 11
535.8942260742188
 21
-219.1527252197266
  0
LINE
  8
0
  6
CONTINUOUS
 62
     7
 10
558.3031616210938
 20
-219.1527404785156
 11
559.5986938476562
 21
-226.5000610351562
  0
LINE
  8
0
  6
CONTINUOUS
 62
     7
 10
537.8638916015625
 20
-217.5
 11
556.3336181640625
 21
-217.5
  0
LINE
  8
0
  6
CONTINUOUS
 62
     7
 10
537.4405517578125
 20
-217.5452728271484
 11
546.6754150390625
 21
-215.5452728271484
  0
LINE
  8
0
  6
CONTINUOUS
 62
     7
 10
547.5220336914062
 20
-215.5453186035156
 11
556.7568969726563
 21
-217.5453186035156
  0
LINE
  8
0
  6
CONTINUOUS
 62
     7
 10
534.5987548828125
 20
-226.5
 11
534.5987548828125
 21
-229.5
  0
LINE
  8
0
  6
CONTINUOUS
 62
     7
 10
559.5987548828125
 20
-226.5000305175781
 11
559.5987548828125
 21
-229.5
  0
LINE
  8
0
  6
CONTINUOUS
 62
     3
 10
222.0987396240234
 20
212.5
 11
802.0987548828125
 21
212.5
  0
LINE
  8
0
  6
CONTINUOUS
 62
     7
 10
391.0987548828125
 20
302.5
 11
391.0987548828125
 21
122.5
  0
LINE
  8
0
  6
CONTINUOUS
 62
     7
 10
422.0987548828125
 20
345
 11
422.0987548828125
 21
80
  0
LINE
  8
0
  6
CONTINUOUS
 62
     7
 10
402.0987548828125
 20
80
 11
452.0975952148438
 21
80
  0
LINE
  8
0
  6
CONTINUOUS
 62
     7
 10
402.0987548828125
 20
345
 11
452.098876953125
 21
345
  0
LINE
  8
0
  6
CONTINUOUS
 62
     7
 10
391.0986938476562
 20
302.5001831054687
 11
402.0987548828125
 21
313.5002136230469
  0
LINE
  8
0
  6
CONTINUOUS
 62
     7
 10
391.0987854003906
 20
122.5000228881836
 11
402.0987854003906
 21
111.5000381469727
  0
LINE
  8
0
  6
CONTINUOUS
 62
     7
 10
402.0987548828125
 20
410
 11
402.0987548828125
 21
348.6569213867187
  0
LINE
  8
0
  6
CONTINUOUS
 62
     7
 10
517.0987548828125
 20
407
 11
517.0987548828125
 21
18
  0
LINE
  8
0
  6
CONTINUOUS
 62
     7
 10
492.0987548828125
 20
425
 11
492.0987548828125
 21
238.4807739257813
  0
LINE
  8
0
  6
CONTINUOUS
 62
     7
 10
452.0987854003906
 20
345.0003967285156
 11
478.4060974121094
 21
347.302001953125
  0
LINE
  8
0
  6
CONTINUOUS
 62
     7
 10
452.0975952148438
 20
80.00017547607422
 11
478.4061584472656
 21
77.69847869873047
  0
LINE
  8
0
  6
CONTINUOUS
 62
     7
 10
417.0987548828125
 20
0
 11
752.0987548828125
 21
0
  0
LINE
  8
0
  6
CONTINUOUS
 62
     7
 10
417.0987548828125
 20
425
 11
752.0987548828125
 21
425
  0
LINE
  8
0
  6
CONTINUOUS
 62
     7
 10
492.0987548828125
 20
186.5192260742188
 11
492.0987548828125
 21
0
  0
LINE
  8
0
  6
CONTINUOUS
 62
     3
 10
732.0987548828125
 20
407.5
 11
732.0987548828125
 21
367.5
  0
LINE
  8
0
  6
CONTINUOUS
 62
     3
 10
437.0987548828125
 20
407.5
 11
437.0987548828125
 21
367.5
  0
LINE
  8
0
  6
CONTINUOUS
 62
     3
 10
417.0987548828125
 20
37.5
 11
457.0987548828125
 21
37.5
  0
LINE
  8
0
  6
CONTINUOUS
 62
     3
 10
417.0987548828125
 20
387.5
 11
457.0987548828125
 21
387.5
  0
LINE
  8
0
  6
CONTINUOUS
 62
     3
 10
437.0987548828125
 20
57.5
 11
437.0987548828125
 21
17.5
  0
LINE
  8
0
  6
CONTINUOUS
 62
     3
 10
732.0987548828125
 20
57.5
 11
732.0987548828125
 21
17.5
  0
LINE
  8
0
  6
CONTINUOUS
 62
     3
 10
712.0987548828125
 20
387.5
 11
752.0987548828125
 21
387.5
  0
LINE
  8
0
  6
CONTINUOUS
 62
     3
 10
712.0987548828125
 20
37.5
 11
752.0987548828125
 21
37.5
  0
LINE
  8
0
  6
CONTINUOUS
 62
     7
 10
242.0987396240234
 20
260
 11
242.0987396240234
 21
165
  0
LINE
  8
0
  6
CONTINUOUS
 62
     7
 10
382.0987548828125
 20
267.5
 11
382.0987548828125
 21
157.5
  0
LINE
  8
0
  6
CONTINUOUS
 62
     7
 10
382.0987548828125
 20
267.5
 11
391.0987548828125
 21
267.5
  0
LINE
  8
0
  6
CONTINUOUS
 62
     7
 10
382.0987548828125
 20
157.5
 11
391.0987548828125
 21
157.5
  0
LINE
  8
0
  6
CONTINUOUS
 62
     7
 10
242.0987396240234
 20
260
 11
382.0987548828125
 21
260
  0
LINE
  8
0
  6
CONTINUOUS
 62
     7
 10
242.0987396240234
 20
165
 11
382.0987548828125
 21
165
  0
LINE
  8
0
  6
CONTINUOUS
 62
     7
 10
242.0987396240234
 20
225
 11
359.5987548828125
 21
225
  0
LINE
  8
0
  6
CONTINUOUS
 62
     7
 10
242.0987396240234
 20
200
 11
359.5987548828125
 21
200
  0
LINE
  8
0
  6
CONTINUOUS
 62
     7
 10
402.0987548828125
 20
345
 11
402.0987548828125
 21
80
  0
LINE
  8
0
  6
CONTINUOUS
 62
     7
 10
402.0987548828125
 20
76.47503662109375
 11
402.0987548828125
 21
15
  0
LINE
  8
0
  6
CONTINUOUS
 62
     7
 10
517.0987548828125
 20
18
 11
652.0987548828125
 21
18
  0
LINE
  8
0
  6
CONTINUOUS
 62
     7
 10
517.0987548828125
 20
407
 11
652.0987548828125
 21
407
  0
LINE
  8
0
  6
CONTINUOUS
 62
     3
 10
472.0987548828125
 20
88.7576904296875
 11
472.0987548828125
 21
59.75439453125
  0
LINE
  8
0
  6
CONTINUOUS
 62
     7
 10
464.0277099609375
 20
65.3499755859375
 11
480.1697998046875
 21
65.3499755859375
  0
LINE
  8
0
  6
CONTINUOUS
 62
     7
 10
463.5911865234375
 20
74.3499755859375
 11
480.6063232421875
 21
74.3499755859375
  0
LINE
  8
0
  6
CONTINUOUS
 62
     7
 10
463.5911254882813
 20
74.35002899169922
 11
463.7358703613281
 21
78.98185729980469
  0
LINE
  8
0
  6
CONTINUOUS
 62
     7
 10
480.6062316894531
 20
74.34999847412109
 11
480.5121154785156
 21
77.36189270019531
  0
LINE
  8
0
  6
CONTINUOUS
 62
     7
 10
464.0277099609375
 20
65.3499755859375
 11
464.0277099609375
 21
74.3499755859375
  0
LINE
  8
0
  6
CONTINUOUS
 62
     7
 10
480.1697998046875
 20
65.3499755859375
 11
480.1697998046875
 21
74.3499755859375
  0
LINE
  8
0
  6
CONTINUOUS
 62
     3
 10
472.0986938476562
 20
74.35001373291016
 11
480.1697387695312
 21
65.35002136230469
  0
LINE
  8
0
  6
CONTINUOUS
 62
     3
 10
480.1698303222656
 20
74.35004425048828
 11
472.0987243652344
 21
65.35000610351563
  0
LINE
  8
0
  6
CONTINUOUS
 62
     7
 10
472.0987548828125
 20
65.3499755859375
 11
472.0987548828125
 21
74.3499755859375
  0
LINE
  8
0
  6
CONTINUOUS
 62
     3
 10
472.0987548828125
 20
74.34992980957031
 11
464.0276794433594
 21
65.34992980957031
  0
LINE
  8
0
  6
CONTINUOUS
 62
     3
 10
472.0987548828125
 20
65.34994506835937
 11
464.0276794433594
 21
74.34994506835938
  0
LINE
  8
0
  6
CONTINUOUS
 62
     7
 10
352.0987548828125
 20
225
 11
352.0987548828125
 21
200
  0
LINE
  8
0
  6
CONTINUOUS
 62
     7
 10
522.0987548828125
 20
32.5
 11
592.0987548828125
 21
32.5
  0
LINE
  8
0
  6
CONTINUOUS
 62
     7
 10
522.0987548828125
 20
392.5
 11
592.0987548828125
 21
392.5
  0
LINE
  8
0
  6
CONTINUOUS
 62
     7
 10
517.0987548828125
 20
387.5
 11
522.0987548828125
 21
392.4999694824219
  0
LINE
  8
0
  6
CONTINUOUS
 62
     7
 10
592.0986938476563
 20
392.4999694824219
 11
597.0986938476563
 21
387.4999694824219
  0
LINE
  8
0
  6
CONTINUOUS
 62
     7
 10
517.0986938476562
 20
37.50004196166992
 11
522.0987548828125
 21
32.50001525878906
  0
LINE
  8
0
  6
CONTINUOUS
 62
     7
 10
592.0987548828125
 20
32.4999885559082
 11
597.0986938476563
 21
37.49997711181641
  0
LINE
  8
0
  6
CONTINUOUS
 62
     7
 10
522.0987548828125
 20
385.4221801757813
 11
592.0987548828125
 21
385.4221801757813
  0
LINE
  8
0
  6
CONTINUOUS
 62
     7
 10
522.0987548828125
 20
370.1149291992187
 11
592.0987548828125
 21
370.1149291992187
  0
LINE
  8
0
  6
CONTINUOUS
 62
     7
 10
522.0987548828125
 20
359.3772583007813
 11
592.0987548828125
 21
359.3772583007813
  0
LINE
  8
0
  6
CONTINUOUS
 62
     7
 10
522.0987548828125
 20
346.9267578125
 11
592.0987548828125
 21
346.9267578125
  0
LINE
  8
0
  6
CONTINUOUS
 62
     7
 10
522.0987548828125
 20
332.2057495117187
 11
592.0987548828125
 21
332.2057495117187
  0
LINE
  8
0
  6
CONTINUOUS
 62
     7
 10
522.0987548828125
 20
262.4790649414063
 11
592.0987548828125
 21
262.4790649414063
  0
LINE
  8
0
  6
CONTINUOUS
 62
     7
 10
522.0987548828125
 20
242.4999389648438
 11
592.0987548828125
 21
242.4999389648438
  0
LINE
  8
0
  6
CONTINUOUS
 62
     7
 10
522.0987548828125
 20
182.5000610351563
 11
592.0987548828125
 21
182.5000610351563
  0
LINE
  8
0
  6
CONTINUOUS
 62
     7
 10
522.0987548828125
 20
162.52099609375
 11
592.0987548828125
 21
162.52099609375
  0
LINE
  8
0
  6
CONTINUOUS
 62
     7
 10
522.0987548828125
 20
92.79437255859375
 11
592.0987548828125
 21
92.79437255859375
  0
LINE
  8
0
  6
CONTINUOUS
 62
     7
 10
522.0987548828125
 20
78.0733642578125
 11
592.0987548828125
 21
78.0733642578125
  0
LINE
  8
0
  6
CONTINUOUS
 62
     7
 10
522.0987548828125
 20
65.62295532226562
 11
592.0987548828125
 21
65.62295532226562
  0
LINE
  8
0
  6
CONTINUOUS
 62
     7
 10
522.0987548828125
 20
54.88497924804687
 11
592.0987548828125
 21
54.88497924804687
  0
LINE
  8
0
  6
CONTINUOUS
 62
     7
 10
522.0987548828125
 20
39.5777587890625
 11
592.0987548828125
 21
39.5777587890625
  0
LINE
  8
0
  6
CONTINUOUS
 62
     7
 10
527.0987548828125
 20
217.5
 11
567.0987548828125
 21
217.5
  0
LINE
  8
0
  6
CONTINUOUS
 62
     7
 10
527.0987548828125
 20
207.5
 11
567.0987548828125
 21
207.5
  0
LINE
  8
0
  6
CONTINUOUS
 62
     7
 10
597.0987548828125
 20
390
 11
597.0987548828125
 21
35
  0
LINE
  8
0
  6
CONTINUOUS
 62
     3
 10
-207.9012603759766
 20
-155.5
 11
-207.9012603759766
 21
-649.5
  0
LINE
  8
0
  6
CONTINUOUS
 62
     3
 10
-156.6517486572266
 20
-330.7320556640625
 11
-141.6517333984375
 21
-304.7512817382812
  0
LINE
  8
0
  6
CONTINUOUS
 62
     3
 10
-259.1519775390625
 20
-330.7328186035156
 11
-274.1520080566406
 21
-304.7520141601563
  0
LINE
  8
0
  6
CONTINUOUS
 62
     3
 10
-259.1514892578125
 20
-508.2673645019531
 11
-274.1515197753906
 21
-534.2481689453125
  0
LINE
  8
0
  6
CONTINUOUS
 62
     3
 10
-156.6519470214844
 20
-508.2677917480469
 11
-141.6518859863281
 21
-534.2486572265625
  0
LINE
  8
0
  6
CONTINUOUS
 62
     7
 10
4.598739624023438
 20
-454.5
 11
4.598739624023438
 21
-629.5
  0
LINE
  8
0
  6
CONTINUOUS
 62
     7
 10
-420.4012451171875
 20
-454.5
 11
-420.4012451171875
 21
-629.5
  0
LINE
  8
0
  6
CONTINUOUS
 62
     7
 10
-420.4012451171875
 20
-629.5
 11
-310.4012451171875
 21
-629.5
  0
LINE
  8
0
  6
CONTINUOUS
 62
     7
 10
-420.4012451171875
 20
-594.5
 11
-310.4012451171875
 21
-594.5
  0
LINE
  8
0
  6
CONTINUOUS
 62
     3
 10
-382.9012451171875
 20
-579.5
 11
-382.9012451171875
 21
-644.5
  0
LINE
  8
0
  6
CONTINUOUS
 62
     3
 10
-32.90126037597656
 20
-579.5
 11
-32.90126037597656
 21
-644.5
  0
LINE
  8
0
  6
CONTINUOUS
 62
     7
 10
-310.4012451171875
 20
-594.5
 11
-310.4012451171875
 21
-629.5
  0
LINE
  8
0
  6
CONTINUOUS
 62
     7
 10
-105.4012603759766
 20
-594.5
 11
-105.4012603759766
 21
-629.5
  0
LINE
  8
0
  6
CONTINUOUS
 62
     7
 10
-302.4012451171875
 20
-604.5
 11
-240.9012603759766
 21
-604.5
  0
LINE
  8
0
  6
CONTINUOUS
 62
     7
 10
-307.4012451171875
 20
-624.5
 11
-108.4012603759766
 21
-624.5
  0
LINE
  8
0
  6
CONTINUOUS
 62
     7
 10
-105.4012603759766
 20
-629.5
 11
4.598739624023438
 21
-629.5
  0
LINE
  8
0
  6
CONTINUOUS
 62
     7
 10
-105.4012603759766
 20
-594.5
 11
4.598739624023438
 21
-594.5
  0
LINE
  8
0
  6
CONTINUOUS
 62
     7
 10
-105.4016876220703
 20
-594.5001220703125
 11
-114.6922454833984
 21
-541.8106689453125
  0
LINE
  8
0
  6
CONTINUOUS
 62
     7
 10
-85.24786376953125
 20
-582.1047973632812
 11
-87.90123748779297
 21
-567.0567626953125
  0
LINE
  8
0
  6
CONTINUOUS
 62
     7
 10
-330.5547180175781
 20
-582.1047973632812
 11
-327.9012756347656
 21
-567.0563354492187
  0
LINE
  8
0
  6
CONTINUOUS
 62
     7
 10
-327.9012451171875
 20
-478.92431640625
 11
-327.9012451171875
 21
-567.0543823242187
  0
LINE
  8
0
  6
CONTINUOUS
 62
     7
 10
-87.90126037597656
 20
-478.92431640625
 11
-87.90126037597656
 21
-567.0545043945313
  0
LINE
  8
0
  6
CONTINUOUS
 62
     3
 10
-71.62911224365234
 20
-363.0538330078125
 11
-43.91267395019531
 21
-351.5733032226562
  0
LINE
  8
0
  6
CONTINUOUS
 62
     3
 10
-151.4565887451172
 20
-283.2272338867188
 11
-139.9761047363281
 21
-255.5108947753906
  0
LINE
  8
0
  6
CONTINUOUS
 62
     3
 10
-264.3479919433594
 20
-283.22802734375
 11
-275.8284912109375
 21
-255.5115661621094
  0
LINE
  8
0
  6
CONTINUOUS
 62
     3
 10
-344.1735229492188
 20
-363.0547180175781
 11
-371.8898010253906
 21
-351.5742797851562
  0
LINE
  8
0
  6
CONTINUOUS
 62
     3
 10
-344.1738586425781
 20
-475.9450988769531
 11
-371.8901672363281
 21
-487.4255676269531
  0
LINE
  8
0
  6
CONTINUOUS
 62
     3
 10
-264.3494262695313
 20
-555.7713623046875
 11
-275.8299255371094
 21
-583.4877319335938
  0
LINE
  8
0
  6
CONTINUOUS
 62
     3
 10
-151.4583740234375
 20
-555.7734985351562
 11
-139.9778594970703
 21
-583.4898681640625
  0
LINE
  8
0
  6
CONTINUOUS
 62
     3
 10
-71.62972259521484
 20
-475.9466857910156
 11
-43.91328430175781
 21
-487.4272155761719
  0
LINE
  8
0
  6
CONTINUOUS
 62
     7
 10
-227.2662506103516
 20
-247.4978332519531
 11
-227.2662506103516
 21
-276.05908203125
  0
LINE
  8
0
  6
CONTINUOUS
 62
     7
 10
-188.5363311767578
 20
-247.4978332519531
 11
-188.5363311767578
 21
-276.05908203125
  0
LINE
  8
0
  6
CONTINUOUS
 62
     7
 10
-310.4012756347656
 20
-594.5
 11
-301.1106262207031
 21
-541.8106079101563
  0
LINE
  8
0
  6
DASHED
 62
     7
 10
-370.4012451171875
 20
-594.5
 11
-370.4012451171875
 21
-629.5
  0
LINE
  8
0
  6
DASHED
 62
     7
 10
-395.4012451171875
 20
-594.5
 11
-395.4012451171875
 21
-629.5
  0
LINE
  8
0
  6
DASHED
 62
     7
 10
-20.40126037597656
 20
-594.5
 11
-20.40126037597656
 21
-629.5
  0
LINE
  8
0
  6
DASHED
 62
     7
 10
-45.40126037597656
 20
-594.5
 11
-45.40126037597656
 21
-629.5
  0
LINE
  8
0
  6
CONTINUOUS
 62
     7
 10
-220.4012603759766
 20
-367
 11
-195.4012603759766
 21
-367
  0
LINE
  8
0
  6
CONTINUOUS
 62
     7
 10
-220.4012603759766
 20
-381
 11
-195.4012603759766
 21
-381
  0
LINE
  8
0
  6
CONTINUOUS
 62
     7
 10
-195.4012603759766
 20
-367
 11
-195.4012603759766
 21
-381
  0
LINE
  8
0
  6
CONTINUOUS
 62
     7
 10
-220.4012603759766
 20
-367
 11
-220.4012603759766
 21
-381
  0
LINE
  8
0
  6
CONTINUOUS
 62
     7
 10
-174.9012603759766
 20
-604.5
 11
-113.4012603759766
 21
-604.5
  0
LINE
  8
0
  6
CONTINUOUS
 62
     3
 10
-99.63111877441406
 20
-524.5
 11
-67.14393615722656
 21
-524.5
  0
LINE
  8
0
  6
CONTINUOUS
 62
     7
 10
-60.75123596191406
 20
-427.5710754394531
 11
-60.75123596191406
 21
-411.4289245605469
  0
LINE
  8
0
  6
CONTINUOUS
 62
     7
 10
-69.75123596191406
 20
-428.007568359375
 11
-69.75123596191406
 21
-410.992431640625
  0
LINE
  8
0
  6
CONTINUOUS
 62
     7
 10
-69.75125885009766
 20
-428.007568359375
 11
-75.66286468505859
 21
-427.8228149414063
  0
LINE
  8
0
  6
CONTINUOUS
 62
     7
 10
-69.75125885009766
 20
-410.9924011230469
 11
-75.66292572021484
 21
-411.1771545410156
  0
LINE
  8
0
  6
CONTINUOUS
 62
     7
 10
-60.75123596191406
 20
-427.5710754394531
 11
-69.75123596191406
 21
-427.5710754394531
  0
LINE
  8
0
  6
CONTINUOUS
 62
     7
 10
-60.75123596191406
 20
-411.4289245605469
 11
-69.75123596191406
 21
-411.4289245605469
  0
LINE
  8
0
  6
CONTINUOUS
 62
     7
 10
-73.25123596191406
 20
-532.571044921875
 11
-73.25123596191406
 21
-516.428955078125
  0
LINE
  8
0
  6
CONTINUOUS
 62
     7
 10
-82.25123596191406
 20
-533.007568359375
 11
-82.25123596191406
 21
-515.992431640625
  0
LINE
  8
0
  6
CONTINUOUS
 62
     7
 10
-82.25129699707031
 20
-533.007568359375
 11
-87.90131378173828
 21
-532.8309936523437
  0
LINE
  8
0
  6
CONTINUOUS
 62
     7
 10
-82.25126647949219
 20
-515.992431640625
 11
-87.90128326416016
 21
-516.1690063476563
  0
LINE
  8
0
  6
CONTINUOUS
 62
     7
 10
-73.25123596191406
 20
-532.571044921875
 11
-82.25123596191406
 21
-532.571044921875
  0
LINE
  8
0
  6
CONTINUOUS
 62
     7
 10
-73.25123596191406
 20
-516.428955078125
 11
-82.25123596191406
 21
-516.428955078125
  0
LINE
  8
0
  6
CONTINUOUS
 62
     3
 10
-82.25122833251953
 20
-524.5
 11
-73.25122833251953
 21
-516.4288940429688
  0
LINE
  8
0
  6
CONTINUOUS
 62
     3
 10
-82.25123596191406
 20
-516.4288940429688
 11
-73.25123596191406
 21
-524.5
  0
LINE
  8
0
  6
CONTINUOUS
 62
     3
 10
-73.25123596191406
 20
-524.5
 11
-82.25122833251953
 21
-532.5711059570312
  0
LINE
  8
0
  6
CONTINUOUS
 62
     3
 10
-82.25123596191406
 20
-524.5
 11
-73.25123596191406
 21
-532.5711059570312
  0
LINE
  8
0
  6
CONTINUOUS
 62
     7
 10
-73.25123596191406
 20
-524.5
 11
-82.25123596191406
 21
-524.5
  0
LINE
  8
0
  6
CONTINUOUS
 62
     3
 10
-69.75125122070313
 20
-419.4999694824219
 11
-60.75125503540039
 21
-411.4288940429687
  0
LINE
  8
0
  6
CONTINUOUS
 62
     3
 10
-69.75118255615234
 20
-411.4289855957031
 11
-60.75118255615234
 21
-419.5000610351563
  0
LINE
  8
0
  6
CONTINUOUS
 62
     3
 10
-60.75123596191406
 20
-419.4999694824219
 11
-69.75123596191406
 21
-427.571044921875
  0
LINE
  8
0
  6
CONTINUOUS
 62
     3
 10
-69.75124359130859
 20
-419.4999694824219
 11
-60.75124359130859
 21
-427.571044921875
  0
LINE
  8
0
  6
CONTINUOUS
 62
     7
 10
-60.75123596191406
 20
-419.5
 11
-69.75123596191406
 21
-419.5
  0
LINE
  8
0
  6
CONTINUOUS
 62
     7
 10
-157.9222564697266
 20
-246.5776977539062
 11
-159.0074768066406
 21
-247.7014312744141
  0
LINE
  8
0
  6
CONTINUOUS
 62
     7
 10
-257.8802490234375
 20
-246.5777893066406
 11
-256.7951354980469
 21
-247.7014465332031
  0
LINE
  8
0
  6
CONTINUOUS
 62
     7
 10
-238.754638671875
 20
-244.2517547607422
 11
-237.9011688232422
 21
-242.0175628662109
  0
LINE
  8
0
  6
CONTINUOUS
 62
     7
 10
-177.0479125976562
 20
-244.2517700195313
 11
-177.9013519287109
 21
-242.0176391601563
  0
LINE
  8
0
  6
CONTINUOUS
 62
     7
 10
-223.9011993408203
 20
-229.5
 11
-191.9011993408203
 21
-229.5
  0
LINE
  8
0
  6
CONTINUOUS
 62
     7
 10
-187.8539733886719
 20
-240.6197814941406
 11
-191.9012451171875
 21
-229.5
  0
LINE
  8
0
  6
CONTINUOUS
 62
     7
 10
-227.9485321044922
 20
-240.6198577880859
 11
-223.9012298583984
 21
-229.5000152587891
  0
LINE
  8
0
  6
CONTINUOUS
 62
     7
 10
-196.7842559814453
 20
-218.6569061279297
 11
-195.4013061523438
 21
-226.5000152587891
  0
LINE
  8
0
  6
CONTINUOUS
 62
     7
 10
-202.9012756347656
 20
-216.4976806640625
 11
-197.8813018798828
 21
-217.5286560058594
  0
LINE
  8
0
  6
CONTINUOUS
 62
     7
 10
-202.9012603759766
 20
-180.5
 11
-202.9012603759766
 21
-223.7000122070313
  0
LINE
  8
0
  6
CONTINUOUS
 62
     7
 10
-219.0183410644531
 20
-218.6568908691406
 11
-220.4012908935547
 21
-226.5000152587891
  0
LINE
  8
0
  6
CONTINUOUS
 62
     7
 10
-212.9012451171875
 20
-216.4976043701172
 11
-217.9212188720703
 21
-217.5285797119141
  0
LINE
  8
0
  6
CONTINUOUS
 62
     7
 10
-212.9012603759766
 20
-180.5
 11
-212.9012603759766
 21
-223.7000122070313
  0
LINE
  8
0
  6
CONTINUOUS
 62
     7
 10
-195.4012603759766
 20
-226.5000305175781
 11
-195.4012603759766
 21
-229.5
  0
LINE
  8
0
  6
CONTINUOUS
 62
     7
 10
-220.4012603759766
 20
-226.5
 11
-220.4012603759766
 21
-229.5
  0
LINE
  8
0
  6
CONTINUOUS
 62
     7
 10
-399.7001342773438
 20
-358.9676818847656
 11
-397.5642700195312
 21
-358.6658630371094
  0
LINE
  8
0
  6
CONTINUOUS
 62
     7
 10
509.1374816894531
 20
-200.5
 11
585.0562133789062
 21
-200.5
  0
LINE
  8
0
  6
CONTINUOUS
 62
     7
 10
547.0987548828125
 20
-168.7601165771484
 11
547.0987548828125
 21
-246.8173828125
  0
LINE
  8
0
  6
CONTINUOUS
 62
     7
 10
619.0987548828125
 20
390
 11
619.0987548828125
 21
252.7269287109375
  0
LINE
  8
0
  6
CONTINUOUS
 62
     7
 10
597.0987548828125
 20
35
 11
619.0987548828125
 21
35
  0
LINE
  8
0
  6
CONTINUOUS
 62
     7
 10
782.0987548828125
 20
412.5
 11
782.0987548828125
 21
12.5
  0
LINE
  8
0
  6
CONTINUOUS
 62
     7
 10
757.0987548828125
 20
412.5
 11
757.0987548828125
 21
12.5
  0
LINE
  8
0
  6
CONTINUOUS
 62
     7
 10
757.0987548828125
 20
12.5
 11
782.0987548828125
 21
12.5
  0
LINE
  8
0
  6
CONTINUOUS
 62
     7
 10
624.0987548828125
 20
62.5
 11
752.0987548828125
 21
62.5
  0
LINE
  8
0
  6
CONTINUOUS
 62
     7
 10
624.0987548828125
 20
362.5
 11
752.0987548828125
 21
362.5
  0
LINE
  8
0
  6
CONTINUOUS
 62
     7
 10
757.0987548828125
 20
412.5
 11
782.0987548828125
 21
412.5
  0
LINE
  8
0
  6
CONTINUOUS
 62
     7
 10
597.0987548828125
 20
390
 11
619.0987548828125
 21
390
  0
LINE
  8
0
  6
CONTINUOUS
 62
     7
 10
597.0987548828125
 20
256.6061706542969
 11
677.0987548828125
 21
242.5000152587891
  0
LINE
  8
0
  6
CONTINUOUS
 62
     7
 10
597.0987548828125
 20
168.3939056396484
 11
677.0987548828125
 21
182.5000610351563
  0
LINE
  8
0
  6
CONTINUOUS
 62
     7
 10
677.0987548828125
 20
242.5
 11
677.0987548828125
 21
182.5
  0
LINE
  8
0
  6
CONTINUOUS
 62
     7
 10
652.0985717773437
 20
224.52099609375
 11
640.0777587890625
 21
212.5001831054688
  0
LINE
  8
0
  6
CONTINUOUS
 62
     7
 10
640.0779418945312
 20
212.4999389648437
 11
652.0987548828125
 21
200.4791259765625
  0
LINE
  8
0
  6
CONTINUOUS
 62
     7
 10
652.098876953125
 20
200.4791107177734
 11
664.1196899414063
 21
212.4999237060547
  0
LINE
  8
0
  6
CONTINUOUS
 62
     7
 10
664.11962890625
 20
212.4999694824219
 11
652.0987548828125
 21
224.5207824707031
  0
LINE
  8
0
  6
CONTINUOUS
 62
     7
 10
652.0987548828125
 20
230.9534912109375
 11
652.0987548828125
 21
194.046630859375
  0
LINE
  8
0
  6
CONTINUOUS
 62
     7
 10
619.0987548828125
 20
172.2730712890625
 11
619.0987548828125
 21
35
  0
LINE
  8
0
  6
CONTINUOUS
 62
     7
 10
597.0987548828125
 20
-242
 11
677.0987548828125
 21
-242
  0
LINE
  8
0
  6
CONTINUOUS
 62
     7
 10
619.0987548828125
 20
-247.8736572265625
 11
619.0987548828125
 21
-545.63818359375
  0
LINE
  8
0
  6
CONTINUOUS
 62
     7
 10
782.0987548828125
 20
-219.5
 11
782.0987548828125
 21
-619.5
  0
LINE
  8
0
  6
CONTINUOUS
 62
     7
 10
757.0987548828125
 20
-219.5
 11
757.0987548828125
 21
-594.5
  0
LINE
  8
0
  6
CONTINUOUS
 62
     7
 10
757.0987548828125
 20
-219.5
 11
782.0987548828125
 21
-219.5
  0
LINE
  8
0
  6
CONTINUOUS
 62
     7
 10
767.0987548828125
 20
-619.5
 11
782.0987548828125
 21
-619.5
  0
LINE
  8
0
  6
CONTINUOUS
 62
     7
 10
677.0987548828125
 20
-242
 11
677.0987548828125
 21
-274.7568359375
  0
LINE
  8
0
  6
CONTINUOUS
 62
     7
 10
682.0987548828125
 20
-269.5
 11
752.0987548828125
 21
-269.5
  0
LINE
  8
0
  6
CONTINUOUS
 62
     7
 10
639.1211547851562
 20
-569.5
 11
752.0987548828125
 21
-569.5
  0
LINE
  8
0
  6
CONTINUOUS
 62
     7
 10
628.3529052734375
 20
-278.5736083984375
 11
669.4173583984375
 21
-278.5736083984375
  0
LINE
  8
0
  6
CONTINUOUS
 62
     7
 10
652.0986938476563
 20
-237.6022644042969
 11
640.9063720703125
 21
-226.6023406982422
  0
LINE
  8
0
  6
CONTINUOUS
 62
     7
 10
652.0987548828125
 20
-220.390625
 11
652.0987548828125
 21
-247.8218994140625
  0
LINE
  8
0
  6
CONTINUOUS
 62
     7
 10
640.9064331054687
 20
-237.6024627685547
 11
652.0988159179688
 21
-226.6024475097656
  0
LINE
  8
0
  6
CONTINUOUS
 62
     7
 10
665.55224609375
 20
-237.6023254394531
 11
665.4148559570313
 21
-241.9998321533203
  0
LINE
  8
0
  6
CONTINUOUS
 62
     7
 10
663.2911376953125
 20
-226.6024169921875
 11
640.9063720703125
 21
-226.6024169921875
  0
LINE
  8
0
  6
CONTINUOUS
 62
     7
 10
665.5521240234375
 20
-237.6024169921875
 11
638.6453857421875
 21
-237.6024169921875
  0
LINE
  8
0
  6
CONTINUOUS
 62
     7
 10
638.6453247070313
 20
-237.6023864746094
 11
638.7827758789063
 21
-242.0000305175781
  0
LINE
  8
0
  6
CONTINUOUS
 62
     7
 10
663.2911376953125
 20
-226.6024169921875
 11
663.2911376953125
 21
-237.6024169921875
  0
LINE
  8
0
  6
CONTINUOUS
 62
     7
 10
640.9063720703125
 20
-226.6024169921875
 11
640.9063720703125
 21
-237.6024169921875
  0
LINE
  8
0
  6
CONTINUOUS
 62
     7
 10
652.0987548828125
 20
-226.6024169921875
 11
652.0987548828125
 21
-237.6024169921875
  0
LINE
  8
0
  6
CONTINUOUS
 62
     7
 10
663.291015625
 20
-237.6022186279297
 11
652.0986938476563
 21
-226.602294921875
  0
LINE
  8
0
  6
CONTINUOUS
 62
     7
 10
652.0989379882813
 20
-237.6025543212891
 11
663.2913208007813
 21
-226.6025390625
  0
ARC
  8
0
  6
CONTINUOUS
 62
     7
 10
472.0987548828125
 20
-574.5
 40
19.99999999999996
 50
270.0000179860893
 51
0
  0
ARC
  8
0
  6
CONTINUOUS
 62
     7
 10
678.7510986328125
 20
-554.5
 40
40.00000000000004
 50
219.9999869972261
 51
270.0000179860893
  0
ARC
  8
0
  6
CONTINUOUS
 62
     7
 10
617.0987548828125
 20
-387.6822204589844
 40
99.99999999999996
 50
179.9999776881997
 51
219.9999833547605
  0
ARC
  8
0
  6
CONTINUOUS
 62
     7
 10
346.8555297851562
 20
-536.636474609375
 40
80.00000000000001
 50
313.6728929920274
 51
354.9999280015804
  0
ARC
  8
0
  6
CONTINUOUS
 62
     7
 10
425.735595703125
 20
-495.5623779296875
 40
5.000000000000021
 50
355.0000172209265
 51
89.99998201391097
  0
ARC
  8
0
  6
CONTINUOUS
 62
     7
 10
467.0987548828125
 20
-275.6494445800781
 40
10.00000000000002
 50
274.9999964962944
 51
0
  0
CIRCLE
  8
0
  6
CONTINUOUS
 62
     3
 10
470.0987548828125
 20
-524.5
 40
8.507550239562988
  0
CIRCLE
  8
0
  6
CONTINUOUS
 62
     3
 10
472.0987548828125
 20
-419.5
 40
8.507550239562988
  0
ARC
  8
0
  6
CONTINUOUS
 62
     7
 10
477.0987548828125
 20
-269.7554321289063
 40
15
 50
274.9999964962946
 51
0
  0
ARC
  8
0
  6
CONTINUOUS
 62
     7
 10
547.0987548828125
 20
-200.5
 40
24.99999999999998
 50
306.4238458862582
 51
233.5761318019415
  0
CIRCLE
  8
0
  6
CONTINUOUS
 62
     7
 10
547.0987548828125
 20
-200.5
 40
15
  0
ARC
  8
0
  6
CONTINUOUS
 62
     7
 10
537.8638916015625
 20
-219.5
 40
2.000000000000013
 50
89.99998201391097
 51
170.0000206677889
  0
ARC
  8
0
  6
CONTINUOUS
 62
     7
 10
556.3336181640625
 20
-219.5
 40
1.999999999999969
 50
9.999994586451429
 51
89.99998201391097
  0
ARC
  8
0
  6
CONTINUOUS
 62
     7
 10
528.6923828125
 20
-225.4440612792969
 40
6.000000000000009
 50
349.8636347103541
 51
53.57615411374177
  0
ARC
  8
0
  6
CONTINUOUS
 62
     7
 10
565.505126953125
 20
-225.4440612792969
 40
6.000000000000001
 50
126.4238645555931
 51
189.9999620293669
  0
ARC
  8
0
  6
CONTINUOUS
 62
     7
 10
477.0987548828125
 20
362.2445678710937
 40
15.00000000000002
 50
275.0000374774297
 51
0
  0
ARC
  8
0
  6
CONTINUOUS
 62
     7
 10
477.0987548828125
 20
62.75543212890625
 40
15
 50
359.9999453584866
 51
84.99990788105706
  0
ARC
  8
0
  6
CONTINUOUS
 62
     7
 10
417.0987548828125
 20
15
 40
15
 50
179.9999776881997
 51
270.000028004002
  0
ARC
  8
0
  6
CONTINUOUS
 62
     7
 10
752.0987548828125
 20
15
 40
15
 50
270.0000179860892
 51
350.4059320936593
  0
ARC
  8
0
  6
CONTINUOUS
 62
     7
 10
752.0987548828125
 20
410
 40
15
 50
9.59406790634076
 51
89.99998201391075
  0
ARC
  8
0
  6
CONTINUOUS
 62
     7
 10
417.0987548828125
 20
410
 40
15
 50
89.99998201391075
 51
179.9999640278213
  0
ARC
  8
0
  6
CONTINUOUS
 62
     7
 10
497.0987548828125
 20
212.5
 40
20.00000000000001
 50
120.000030660061
 51
239.9999520370951
  0
ARC
  8
0
  6
CONTINUOUS
 62
     7
 10
482.0987548828125
 20
238.4807739257813
 40
10.00000000000002
 50
299.9999300284562
 51
0
  0
ARC
  8
0
  6
CONTINUOUS
 62
     7
 10
482.0987548828125
 20
186.5192260742188
 40
10
 50
0
 51
60.00006997154374
  0
ARC
  8
0
  6
CONTINUOUS
 62
     7
 10
359.5987548828125
 20
212.5
 40
12.49999999999999
 50
270.0000179860895
 51
89.99998201391058
  0
CIRCLE
  8
0
  6
CONTINUOUS
 62
     7
 10
437.0987548828125
 20
387.5
 40
12.5
  0
CIRCLE
  8
0
  6
CONTINUOUS
 62
     7
 10
732.0987548828125
 20
387.5
 40
12.5
  0
CIRCLE
  8
0
  6
CONTINUOUS
 62
     7
 10
437.0987548828125
 20
37.5
 40
12.5
  0
CIRCLE
  8
0
  6
CONTINUOUS
 62
     7
 10
732.0987548828125
 20
37.5
 40
12.5
  0
ARC
  8
0
  6
CONTINUOUS
 62
     7
 10
652.0987548828125
 20
399
 40
7.999999999999979
 50
24.78092863906684
 51
90.00000250447847
  0
ARC
  8
0
  6
CONTINUOUS
 62
     7
 10
547.0987548828125
 20
212.5
 40
20.04728698730469
 50
194.4426212363323
 51
345.557383999995
  0
ARC
  8
0
  6
CONTINUOUS
 62
     7
 10
547.0987548828125
 20
212.5
 40
12.50000000000001
 50
23.57817843000465
 51
156.4218368242354
  0
ARC
  8
0
  6
CONTINUOUS
 62
     7
 10
527.0987548828125
 20
212.5
 40
4.99999999999999
 50
89.99998201391031
 51
270.0000006832456
  0
ARC
  8
0
  6
CONTINUOUS
 62
     7
 10
567.0987548828125
 20
212.5
 40
4.99999999999999
 50
270.0000179860897
 51
89.99998201391031
  0
ARC
  8
0
  6
CONTINUOUS
 62
     7
 10
547.0987548828125
 20
212.5
 40
12.5
 50
203.5781631757644
 51
336.4218215699954
  0
ARC
  8
0
  6
CONTINUOUS
 62
     7
 10
547.0987548828125
 20
212.5
 40
20.04728698730464
 50
14.44260916981582
 51
165.5573787636676
  0
CIRCLE
  8
0
  6
CONTINUOUS
 62
     7
 10
-207.9012603759766
 20
-419.5
 40
90
  0
CIRCLE
  8
0
  6
CONTINUOUS
 62
     7
 10
-207.9012603759766
 20
-419.5
 40
132.5
  0
ARC
  8
0
  6
CONTINUOUS
 62
     3
 10
-207.9012603759766
 20
-419.5
 40
117.5
 50
352.6806463420093
 51
7.319326337234041
  0
ARC
  8
0
  6
CONTINUOUS
 62
     3
 10
-207.9012603759766
 20
-419.5
 40
117.5
 50
52.68066508713432
 51
67.31933483707535
  0
ARC
  8
0
  6
CONTINUOUS
 62
     3
 10
-207.9012603759766
 20
-419.5
 40
117.5
 50
112.6806633416918
 51
127.3193296765383
  0
ARC
  8
0
  6
CONTINUOUS
 62
     3
 10
-207.9012603759766
 20
-419.5
 40
117.5
 50
172.6806513509656
 51
187.3193313461904
  0
ARC
  8
0
  6
CONTINUOUS
 62
     3
 10
-207.9012603759766
 20
-419.5
 40
117.5
 50
232.6806566630834
 51
247.3193366583082
  0
ARC
  8
0
  6
CONTINUOUS
 62
     3
 10
-207.9012603759766
 20
-419.5
 40
117.5
 50
292.6806515025463
 51
307.3193314977711
  0
ARC
  8
0
  6
CONTINUOUS
 62
     7
 10
-207.9012603759766
 20
-454.5
 40
212.5
 50
0
 51
179.9999640278213
  0
ARC
  8
0
  6
CONTINUOUS
 62
     7
 10
-113.4012603759766
 20
-596.5
 40
8.000000000000053
 50
270.0000179860893
 51
0
  0
ARC
  8
0
  6
CONTINUOUS
 62
     7
 10
-108.4012603759766
 20
-627.5
 40
3
 50
0
 51
89.9999820139107
  0
ARC
  8
0
  6
CONTINUOUS
 62
     7
 10
-307.4012451171875
 20
-627.5
 40
3.000000000000034
 50
89.99998201391097
 51
179.9999640278219
  0
ARC
  8
0
  6
CONTINUOUS
 62
     7
 10
-302.4012451171875
 20
-596.5
 40
7.999999999999981
 50
179.9999776881995
 51
270.0000280040021
  0
ARC
  8
0
  6
CONTINUOUS
 62
     7
 10
-345.3271484375
 20
-579.5
 40
14.99999999999994
 50
270.0000179860892
 51
349.9999772390186
  0
ARC
  8
0
  6
CONTINUOUS
 62
     7
 10
-70.47535705566406
 20
-579.5
 40
15
 50
189.9999656718325
 51
270.0000179860893
  0
ARC
  8
0
  6
CONTINUOUS
 62
     7
 10
-129.4639434814453
 20
-544.415283203125
 40
14.99999999999998
 50
10.00000824682919
 51
122.1257357939305
  0
ARC
  8
0
  6
CONTINUOUS
 62
     7
 10
-286.3385009765625
 20
-544.415283203125
 40
15.00000000000004
 50
57.87424872445838
 51
170.0000206677891
  0
ARC
  8
0
  6
CONTINUOUS
 62
     7
 10
-72.90126037597656
 20
-478.92431640625
 40
15
 50
156.2418886603624
 51
179.9999640278213
  0
ARC
  8
0
  6
CONTINUOUS
 62
     7
 10
-342.9012451171875
 20
-478.92431640625
 40
15
 50
0
 51
23.75813342406682
  0
ARC
  8
0
  6
CONTINUOUS
 62
     3
 10
-207.9012603759766
 20
-419.5
 40
162.5
 50
17.2092831610616
 51
27.79072833646124
  0
ARC
  8
0
  6
CONTINUOUS
 62
     3
 10
-207.9012603759766
 20
-419.5
 40
162.5
 50
62.20928782839527
 51
72.79073983398408
  0
ARC
  8
0
  6
CONTINUOUS
 62
     3
 10
-207.9012603759766
 20
-419.5
 40
162.5
 50
107.2093676278098
 51
117.7908059730203
  0
ARC
  8
0
  6
CONTINUOUS
 62
     3
 10
-207.9012603759766
 20
-419.5
 40
162.5
 50
152.2093586347651
 51
162.790810640354
  0
ARC
  8
0
  6
CONTINUOUS
 62
     3
 10
-207.9012603759766
 20
-419.5
 40
162.5
 50
197.2092849822944
 51
207.7907369878832
  0
ARC
  8
0
  6
CONTINUOUS
 62
     3
 10
-207.9012603759766
 20
-419.5
 40
162.5
 50
242.2092623288714
 51
252.7907006740819
  0
ARC
  8
0
  6
CONTINUOUS
 62
     3
 10
-207.9012603759766
 20
-419.5
 40
162.5
 50
287.2092123546917
 51
297.7906643602805
  0
ARC
  8
0
  6
CONTINUOUS
 62
     3
 10
-207.9012603759766
 20
-419.5
 40
162.5
 50
332.2091231069243
 51
342.7905597445875
  0
ARC
  8
0
  6
CONTINUOUS
 62
     7
 10
-207.9012603759766
 20
-419.5
 40
47.50000000000001
 50
105.2575454498303
 51
74.74246957703872
  0
ARC
  8
0
  6
CONTINUOUS
 62
     7
 10
-193.5363311767578
 20
-247.4978332519531
 40
5
 50
0
 51
86.03046731359601
  0
ARC
  8
0
  6
CONTINUOUS
 62
     7
 10
-222.2662506103516
 20
-247.4978332519531
 40
5.000000000000004
 50
93.96955135573879
 51
179.9999640278213
  0
ARC
  8
0
  6
CONTINUOUS
 62
     7
 10
-242.2662506103516
 20
-276.05908203125
 40
15
 50
283.4727710296145
 51
0
  0
ARC
  8
0
  6
CONTINUOUS
 62
     7
 10
-173.5363311767578
 20
-276.05908203125
 40
15
 50
179.9999776881996
 51
256.5271793378284
  0
ARC
  8
0
  6
CONTINUOUS
 62
     7
 10
-240.9012603759766
 20
-601.5
 40
3.000000000000003
 50
269.9999974955221
 51
0
  0
ARC
  8
0
  6
CONTINUOUS
 62
     7
 10
-174.9012603759766
 20
-601.5
 40
3.000000000000006
 50
179.9999913485786
 51
270.0000006832452
  0
ARC
  8
0
  6
CONTINUOUS
 62
     7
 10
-207.9012603759766
 20
-419.5
 40
180
 50
66.2311012871847
 51
73.87937636503574
  0
ARC
  8
0
  6
CONTINUOUS
 62
     7
 10
-207.9012603759766
 20
-419.5
 40
180
 50
80.40592264530639
 51
99.59405504289326
  0
ARC
  8
0
  6
CONTINUOUS
 62
     7
 10
-207.9012603759766
 20
-419.5
 40
180
 50
106.1206627948664
 51
113.76891738215
  0
ARC
  8
0
  6
CONTINUOUS
 62
     7
 10
-198.1629180908203
 20
-218.9000244140625
 40
1.399999976158137
 50
9.999995440224284
 51
78.39428850076517
  0
ARC
  8
0
  6
CONTINUOUS
 62
     7
 10
-207.9012603759766
 20
-180.5
 40
5
 50
0
 51
179.9999640278213
  0
ARC
  8
0
  6
CONTINUOUS
 62
     7
 10
-201.5012359619141
 20
-223.7000122070313
 40
1.399999976158135
 50
179.9999776881999
 51
270.0000280040018
  0
ARC
  8
0
  6
CONTINUOUS
 62
     7
 10
-214.3012847900391
 20
-223.7000122070313
 40
1.399999976158144
 50
269.9999633445764
 51
0
  0
ARC
  8
0
  6
CONTINUOUS
 62
     7
 10
-217.6396026611328
 20
-218.9000244140625
 40
1.399999976158153
 50
101.6056755270559
 51
169.9999660262754
  0
ARC
  8
0
  6
DASHED
 62
     7
 10
-207.9012603759766
 20
-300.2000122070312
 40
1.200000047683718
 50
89.99998201391004
 51
100.9419177435146
  0
ARC
  8
0
  6
DASHED
 62
     7
 10
-207.9012603759766
 20
-300.2000122070312
 40
1.200000047683716
 50
79.05804628430651
 51
89.99998201391004
  0
CIRCLE
  8
0
  6
CONTINUOUS
 62
     3
 10
-207.9012603759766
 20
-419.5
 40
8
  0
CIRCLE
  8
0
  6
CONTINUOUS
 62
     7
 10
-207.9012603759766
 20
-419.5
 40
7.099999904632568
  0
ARC
  8
0
  6
CONTINUOUS
 62
     7
 10
752.0987548828125
 20
-574.5
 40
5
 50
0
 51
90.00000250447782
  0
ARC
  8
0
  6
CONTINUOUS
 62
     7
 10
624.0987548828125
 20
57.5
 40
4.999999999999997
 50
90.00000250447782
 51
180.0000050089563
  0
ARC
  8
0
  6
CONTINUOUS
 62
     7
 10
752.0987548828125
 20
57.5
 40
5
 50
0
 51
90.00000250447782
  0
ARC
  8
0
  6
CONTINUOUS
 62
     7
 10
752.0987548828125
 20
367.5
 40
5.000000000000004
 50
269.9999974955222
 51
0
  0
ARC
  8
0
  6
CONTINUOUS
 62
     7
 10
624.0987548828125
 20
367.5
 40
4.999999999999943
 50
179.999991348578
 51
270.0000006832456
  0
ARC
  8
0
  6
CONTINUOUS
 62
     7
 10
-207.9012603759766
 20
-419.5
 40
200
 50
16.30816947367264
 51
86.75468593167079
  0
ARC
  8
0
  6
CONTINUOUS
 62
     7
 10
-207.9012603759766
 20
-419.5
 40
200
 50
93.24533273766387
 51
163.6918355352837
  0
ARC
  8
0
  6
CONTINUOUS
 62
     7
 10
624.0987548828125
 20
57.5
 40
4.999999999999997
 50
90.00000250447782
 51
180.0000050089563
  0
ARC
  8
0
  6
CONTINUOUS
 62
     7
 10
752.0987548828125
 20
57.5
 40
5
 50
0
 51
90.00000250447782
  0
ARC
  8
0
  6
CONTINUOUS
 62
     7
 10
752.0987548828125
 20
367.5
 40
5.000000000000004
 50
269.9999974955222
 51
0
  0
ARC
  8
0
  6
CONTINUOUS
 62
     7
 10
624.0987548828125
 20
367.5
 40
4.999999999999943
 50
179.999991348578
 51
270.0000006832456
  0
CIRCLE
  8
0
  6
CONTINUOUS
 62
     7
 10
652.0987548828125
 20
212.5
 40
13.45343780517578
  0
ARC
  8
0
  6
CONTINUOUS
 62
     7
 10
752.0987548828125
 20
-264.5
 40
5.000000000000004
 50
269.9999974955222
 51
0
  0
ARC
  8
0
  6
CONTINUOUS
 62
     7
 10
682.0987548828125
 20
-264.5
 40
4.999999999999943
 50
179.999991348578
 51
270.0000006832456
  0
ARC
  8
0
  6
CONTINUOUS
 62
     7
 10
752.0987548828125
 20
-574.5
 40
5
 50
0
 51
90.00000250447782
  0
TEXT
  8
0
  6
CONTINUOUS
 62
     7
 10
-313.3298292160034
 20
203.5
 40
18
 41
0.8437660991215337
  1
ＥＲＫ－ＮＦ－２２０００
  0
ENDSEC
  0
EOF
