  0
SECTION
  2
HEADER
  0
ENDSEC
  0
SECTION
  2
TABLES
  0
TABLE
  2
LTYPE
 70
    22
  0
LTYPE
  2
CONTINUOUS
 70
    64
  3
Solid line
 72
    65
 73
     0
 40
0.000000
  0
LTYPE
  2
DASHED
 70
    64
  3
__ __ __ __ __ __ __ __ __ __ __ __ __ __ __
 72
    65
 73
     2
 40
3.500000
 49
2.000000
 49
-1.500000
  0
LTYPE
  2
CENTER
 70
    64
  3
____ _ ____ _ ____ _ ____ _ ____ _ ____ _ ____
 72
    65
 73
     4
 40
17.500000
 49
13.000000
 49
-1.500000
 49
1.500000
 49
-1.500000
  0
LTYPE
  2
PHANTOM
 70
    64
  3
_____ _ _ _____ _ _ _____ _ _ _____ _ _ ____  
 72
    65
 73
     6
 40
15.500000
 49
8.000000
 49
-1.500000
 49
1.500000
 49
-1.500000
 49
1.500000
 49
-1.500000
  0
LTYPE
  2
DOT
 70
    64
  3
. . . . . . . . . . . . . . . . . . . . . . . .
 72
    65
 73
     2
 40
0.25
 49
0.0
 49
-0.25
  0
ENDTAB
  0
TABLE
  2
LAYER
 70
     1
  0
LAYER
  2
0
 70
     0
 62
     7
  6
CONTINUOUS
  0
ENDTAB
  0
TABLE
  2
STYLE
 70
     1
  0
STYLE
  2
STANDARD
 70
     0
 40
0.000000
 41
1.000000
 50
0.000000
 71
     0
 42
0.200000
  3
txt
  4
BIGFONT
  0
ENDTAB
  0
TABLE
  2
VIEW
 70
     0
  0
ENDTAB
  0
ENDSEC
  0
SECTION
  2
BLOCKS
  0
ENDSEC
  0
SECTION
  2
ENTITIES
  0
LINE
  8
0
  6
CONTINUOUS
 62
     7
 10
-232.9012603759766
 20
-199.5980834960938
 11
-233.3028869628906
 21
-201.3013610839844
  0
LINE
  8
0
  6
CONTINUOUS
 62
     3
 10
172.0987396240234
 20
172.5
 11
650.0986938476562
 21
172.5
  0
LINE
  8
0
  6
CONTINUOUS
 62
     7
 10
417.0986633300781
 20
27.50020217895508
 11
422.0987243652344
 21
22.50013160705566
  0
LINE
  8
0
  6
CONTINUOUS
 62
     7
 10
490.0989379882813
 20
22.49988174438477
 11
495.0989074707031
 21
27.49986457824707
  0
LINE
  8
0
  6
CONTINUOUS
 62
     7
 10
422.0987548828125
 20
22.5
 11
490.0987548828125
 21
22.5
  0
LINE
  8
0
  6
CONTINUOUS
 62
     7
 10
422.0989379882812
 20
28.87246704101562
 11
490.0986938476563
 21
28.87246704101562
  0
LINE
  8
0
  6
CONTINUOUS
 62
     7
 10
422.0989379882812
 20
40.35296630859375
 11
490.0986938476563
 21
40.35296630859375
  0
LINE
  8
0
  6
CONTINUOUS
 62
     7
 10
422.0989379882812
 20
50.58673095703125
 11
490.0986938476563
 21
50.58673095703125
  0
LINE
  8
0
  6
CONTINUOUS
 62
     7
 10
422.0989379882812
 20
59.9244384765625
 11
490.0986938476563
 21
59.9244384765625
  0
LINE
  8
0
  6
CONTINUOUS
 62
     7
 10
422.0989379882812
 20
73.37005615234375
 11
490.0986938476563
 21
73.37005615234375
  0
LINE
  8
0
  6
CONTINUOUS
 62
     7
 10
422.0989379882812
 20
129.2434692382813
 11
490.0986938476563
 21
129.2434692382813
  0
LINE
  8
0
  6
CONTINUOUS
 62
     7
 10
422.0989379882812
 20
147.5
 11
490.0986938476563
 21
147.5
  0
LINE
  8
0
  6
CONTINUOUS
 62
     7
 10
422.0989379882812
 20
197.5000610351562
 11
490.0986938476563
 21
197.5000610351562
  0
LINE
  8
0
  6
CONTINUOUS
 62
     7
 10
422.0989379882812
 20
215.7567138671875
 11
490.0986938476563
 21
215.7567138671875
  0
LINE
  8
0
  6
CONTINUOUS
 62
     7
 10
422.0989379882812
 20
271.6300048828125
 11
490.0986938476563
 21
271.6300048828125
  0
LINE
  8
0
  6
CONTINUOUS
 62
     7
 10
422.0989379882812
 20
285.0756225585937
 11
490.0986938476563
 21
285.0756225585937
  0
LINE
  8
0
  6
CONTINUOUS
 62
     7
 10
422.0989379882812
 20
294.413330078125
 11
490.0986938476563
 21
294.413330078125
  0
LINE
  8
0
  6
CONTINUOUS
 62
     7
 10
422.0989379882812
 20
304.6470336914063
 11
490.0986938476563
 21
304.6470336914063
  0
LINE
  8
0
  6
CONTINUOUS
 62
     7
 10
422.0989379882812
 20
316.1275634765625
 11
490.0986938476563
 21
316.1275634765625
  0
LINE
  8
0
  6
CONTINUOUS
 62
     7
 10
422.0987548828125
 20
322.5000610351563
 11
490.0987548828125
 21
322.5000610351563
  0
LINE
  8
0
  6
CONTINUOUS
 62
     7
 10
490.0985107421875
 20
322.5001525878906
 11
495.0985107421875
 21
317.5001525878906
  0
LINE
  8
0
  6
CONTINUOUS
 62
     7
 10
417.098876953125
 20
317.4998779296875
 11
422.0988464355469
 21
322.4998779296875
  0
LINE
  8
0
  6
CONTINUOUS
 62
     7
 10
425.0986938476563
 20
177.5
 11
465.0986938476563
 21
177.5
  0
LINE
  8
0
  6
CONTINUOUS
 62
     7
 10
425.0986938476563
 20
167.5
 11
465.0986938476563
 21
167.5
  0
LINE
  8
0
  6
CONTINUOUS
 62
     7
 10
337.0987548828125
 20
282.5
 11
337.0987548828125
 21
62.5
  0
LINE
  8
0
  6
CONTINUOUS
 62
     7
 10
319.0987548828125
 20
62.5
 11
367.0986938476562
 21
62.5
  0
LINE
  8
0
  6
CONTINUOUS
 62
     7
 10
319.0987548828125
 20
282.5
 11
367.0989990234375
 21
282.5
  0
LINE
  8
0
  6
CONTINUOUS
 62
     7
 10
309.0987548828125
 20
247.5001831054687
 11
309.0987548828125
 21
97.50006103515625
  0
LINE
  8
0
  6
CONTINUOUS
 62
     7
 10
319.0987548828125
 20
282.5
 11
319.0987548828125
 21
62.5
  0
LINE
  8
0
  6
CONTINUOUS
 62
     7
 10
309.0987243652344
 20
247.5002288818359
 11
316.5986633300781
 21
251.830322265625
  0
LINE
  8
0
  6
CONTINUOUS
 62
     7
 10
309.0987548828125
 20
97.50005340576172
 11
316.5987243652344
 21
93.16994476318359
  0
LINE
  8
0
  6
CONTINUOUS
 62
     7
 10
417.0987548828125
 20
337.5
 11
417.0987548828125
 21
7.5
  0
LINE
  8
0
  6
CONTINUOUS
 62
     7
 10
395.0987548828125
 20
352.5
 11
395.0987548828125
 21
197.2183837890625
  0
LINE
  8
0
  6
CONTINUOUS
 62
     7
 10
367.0989990234375
 20
282.5001525878906
 11
381.4060974121094
 21
283.7518615722656
  0
LINE
  8
0
  6
CONTINUOUS
 62
     7
 10
367.0987243652344
 20
62.50003051757812
 11
381.4061279296875
 21
61.24829483032227
  0
LINE
  8
0
  6
CONTINUOUS
 62
     7
 10
332.0987548828125
 20
352.5
 11
602.0987548828125
 21
352.5
  0
LINE
  8
0
  6
CONTINUOUS
 62
     7
 10
332.0987548828125
 20
-7.5
 11
602.0987548828125
 21
-7.5
  0
LINE
  8
0
  6
CONTINUOUS
 62
     3
 10
327.0987548828125
 20
22.5
 11
357.0987548828125
 21
22.5
  0
LINE
  8
0
  6
CONTINUOUS
 62
     3
 10
327.0987548828125
 20
322.5
 11
357.0987548828125
 21
322.5
  0
LINE
  8
0
  6
CONTINUOUS
 62
     7
 10
317.0987548828125
 20
337.5
 11
317.0987548828125
 21
277.5
  0
LINE
  8
0
  6
CONTINUOUS
 62
     7
 10
317.0987548828125
 20
67.5
 11
317.0987548828125
 21
7.5
  0
LINE
  8
0
  6
CONTINUOUS
 62
     3
 10
342.0987548828125
 20
337.5
 11
342.0987548828125
 21
307.5
  0
LINE
  8
0
  6
CONTINUOUS
 62
     3
 10
342.0987548828125
 20
37.5
 11
342.0987548828125
 21
7.5
  0
LINE
  8
0
  6
CONTINUOUS
 62
     7
 10
395.0987548828125
 20
147.7816162109375
 11
395.0987548828125
 21
-7.5
  0
LINE
  8
0
  6
CONTINUOUS
 62
     7
 10
192.0987396240234
 20
210
 11
192.0987396240234
 21
135
  0
LINE
  8
0
  6
CONTINUOUS
 62
     7
 10
192.0987396240234
 20
210
 11
302.0987548828125
 21
210
  0
LINE
  8
0
  6
CONTINUOUS
 62
     7
 10
192.0987396240234
 20
135
 11
302.0987548828125
 21
135
  0
LINE
  8
0
  6
CONTINUOUS
 62
     7
 10
302.0987548828125
 20
215
 11
302.0987548828125
 21
130
  0
LINE
  8
0
  6
CONTINUOUS
 62
     7
 10
302.0987548828125
 20
130
 11
309.0987548828125
 21
130
  0
LINE
  8
0
  6
CONTINUOUS
 62
     7
 10
302.0987548828125
 20
215
 11
309.0987548828125
 21
215
  0
LINE
  8
0
  6
CONTINUOUS
 62
     7
 10
192.0987396240234
 20
182.5
 11
287.0987548828125
 21
182.5
  0
LINE
  8
0
  6
CONTINUOUS
 62
     7
 10
192.0987396240234
 20
162.5
 11
287.0987548828125
 21
162.5
  0
LINE
  8
0
  6
CONTINUOUS
 62
     7
 10
417.0987548828125
 20
7.5
 11
537.0987548828125
 21
7.5
  0
LINE
  8
0
  6
CONTINUOUS
 62
     7
 10
417.0987548828125
 20
337.5
 11
537.0987548828125
 21
337.5
  0
LINE
  8
0
  6
CONTINUOUS
 62
     7
 10
369.0276489257812
 20
47.85000610351563
 11
385.1697998046875
 21
47.85000610351563
  0
LINE
  8
0
  6
CONTINUOUS
 62
     7
 10
368.5911865234375
 20
56.8499755859375
 11
385.6063232421875
 21
56.8499755859375
  0
LINE
  8
0
  6
CONTINUOUS
 62
     7
 10
368.5911865234375
 20
56.85002517700195
 11
368.7632141113281
 21
62.35445022583008
  0
LINE
  8
0
  6
CONTINUOUS
 62
     7
 10
385.6063232421875
 20
56.84999084472656
 11
385.4985046386719
 21
60.29972457885742
  0
LINE
  8
0
  6
CONTINUOUS
 62
     7
 10
369.0276489257812
 20
47.85000610351563
 11
369.0276489257812
 21
56.8499755859375
  0
LINE
  8
0
  6
CONTINUOUS
 62
     7
 10
385.1697998046875
 20
47.85000610351563
 11
385.1697998046875
 21
56.8499755859375
  0
LINE
  8
0
  6
CONTINUOUS
 62
     3
 10
377.0987548828125
 20
72.5382080078125
 11
377.0987548828125
 21
37.85000610351562
  0
LINE
  8
0
  6
CONTINUOUS
 62
     3
 10
377.0987548828125
 20
56.84996032714844
 11
385.1698303222656
 21
47.84996032714844
  0
LINE
  8
0
  6
CONTINUOUS
 62
     3
 10
385.1698303222656
 20
56.84995651245117
 11
377.0987548828125
 21
47.84995651245117
  0
LINE
  8
0
  6
CONTINUOUS
 62
     3
 10
369.0276489257812
 20
56.84999084472656
 11
377.0987243652344
 21
47.84999084472656
  0
LINE
  8
0
  6
CONTINUOUS
 62
     3
 10
377.0986938476563
 20
56.84999847412109
 11
369.0276489257812
 21
47.84999465942383
  0
LINE
  8
0
  6
CONTINUOUS
 62
     7
 10
377.0990600585938
 20
47.8499755859375
 11
377.0990600585938
 21
56.8499755859375
  0
LINE
  8
0
  6
CONTINUOUS
 62
     7
 10
282.0987548828125
 20
182.5
 11
282.0987548828125
 21
162.5
  0
LINE
  8
0
  6
CONTINUOUS
 62
     7
 10
617.0987548828125
 20
337.5
 11
617.0987548828125
 21
322.5
  0
LINE
  8
0
  6
CONTINUOUS
 62
     7
 10
617.0987548828125
 20
22.5
 11
617.0987548828125
 21
7.5
  0
LINE
  8
0
  6
CONTINUOUS
 62
     3
 10
592.0987548828125
 20
337.5
 11
592.0987548828125
 21
307.5
  0
LINE
  8
0
  6
CONTINUOUS
 62
     3
 10
592.0987548828125
 20
37.5
 11
592.0987548828125
 21
7.5
  0
LINE
  8
0
  6
CONTINUOUS
 62
     3
 10
577.0987548828125
 20
22.5
 11
607.0987548828125
 21
22.5
  0
LINE
  8
0
  6
CONTINUOUS
 62
     3
 10
577.0987548828125
 20
322.5
 11
607.0987548828125
 21
322.5
  0
LINE
  8
0
  6
CONTINUOUS
 62
     3
 10
172.0987396240234
 20
-347.5
 11
650.0986938476562
 21
-347.5
  0
LINE
  8
0
  6
CONTINUOUS
 62
     7
 10
422.0987548828125
 20
-197.5
 11
490.0987548828125
 21
-197.5
  0
LINE
  8
0
  6
CONTINUOUS
 62
     7
 10
417.0986938476563
 20
-202.5000457763672
 11
422.0987243652344
 21
-197.5000152587891
  0
LINE
  8
0
  6
CONTINUOUS
 62
     7
 10
490.0987243652344
 20
-197.5000610351562
 11
495.0987243652344
 21
-202.5000610351562
  0
LINE
  8
0
  6
CONTINUOUS
 62
     7
 10
461.0987548828125
 20
-187.5000305175781
 11
429.0987548828125
 21
-187.5000305175781
  0
LINE
  8
0
  6
CONTINUOUS
 62
     7
 10
461.0987243652344
 20
-187.5000457763672
 11
464.7384338378906
 21
-197.5000305175781
  0
LINE
  8
0
  6
CONTINUOUS
 62
     7
 10
429.0987243652344
 20
-187.5001373291016
 11
425.4590759277344
 21
-197.5
  0
LINE
  8
0
  6
CONTINUOUS
 62
     7
 10
422.0987548828125
 20
-203.8724670410156
 11
490.0987548828125
 21
-203.8724670410156
  0
LINE
  8
0
  6
CONTINUOUS
 62
     7
 10
422.0987548828125
 20
-234.9244689941406
 11
490.0987548828125
 21
-234.9244689941406
  0
LINE
  8
0
  6
CONTINUOUS
 62
     7
 10
422.0987548828125
 20
-248.3700866699219
 11
490.0987548828125
 21
-248.3700866699219
  0
LINE
  8
0
  6
CONTINUOUS
 62
     7
 10
422.0987548828125
 20
-260.1091613769531
 11
490.0987548828125
 21
-260.1091613769531
  0
LINE
  8
0
  6
CONTINUOUS
 62
     7
 10
422.0987548828125
 20
-276.5270385742188
 11
490.0987548828125
 21
-276.5270385742188
  0
LINE
  8
0
  6
CONTINUOUS
 62
     7
 10
422.0987548828125
 20
-304.2433471679688
 11
490.0987548828125
 21
-304.2433471679688
  0
LINE
  8
0
  6
CONTINUOUS
 62
     7
 10
422.0987548828125
 20
-323.0888977050781
 11
490.0987548828125
 21
-323.0888977050781
  0
LINE
  8
0
  6
CONTINUOUS
 62
     7
 10
422.0987548828125
 20
-337.9924926757813
 11
490.0987548828125
 21
-337.9924926757813
  0
LINE
  8
0
  6
CONTINUOUS
 62
     7
 10
425.3922119140625
 20
-357.0074462890625
 11
490.0987548828125
 21
-357.0074462890625
  0
LINE
  8
0
  6
CONTINUOUS
 62
     7
 10
433.4360046386719
 20
-371.9110412597656
 11
490.0987548828125
 21
-371.9110412597656
  0
LINE
  8
0
  6
CONTINUOUS
 62
     7
 10
448.3347778320313
 20
-390.756591796875
 11
490.0987548828125
 21
-390.756591796875
  0
LINE
  8
0
  6
CONTINUOUS
 62
     7
 10
432.5987548828125
 20
-184.5000305175781
 11
433.8942565917969
 21
-177.1527404785156
  0
LINE
  8
0
  6
CONTINUOUS
 62
     7
 10
456.3031616210938
 20
-177.1527099609375
 11
457.5986938476562
 21
-184.5000305175781
  0
LINE
  8
0
  6
CONTINUOUS
 62
     7
 10
435.8638916015625
 20
-175.5000305175781
 11
454.3336181640625
 21
-175.5000305175781
  0
LINE
  8
0
  6
CONTINUOUS
 62
     7
 10
435.4405517578125
 20
-175.5453338623047
 11
444.6754455566406
 21
-173.5453186035156
  0
LINE
  8
0
  6
CONTINUOUS
 62
     7
 10
445.5221252441406
 20
-173.5453033447266
 11
454.7569580078125
 21
-175.5452880859375
  0
LINE
  8
0
  6
CONTINUOUS
 62
     7
 10
432.5987548828125
 20
-184.5000305175781
 11
432.5987548828125
 21
-187.5000305175781
  0
LINE
  8
0
  6
CONTINUOUS
 62
     7
 10
457.5987548828125
 20
-184.5000305175781
 11
457.5987548828125
 21
-187.5000305175781
  0
LINE
  8
0
  6
CONTINUOUS
 62
     7
 10
317.0987548828125
 20
-532.5
 11
617.0987548828125
 21
-532.5
  0
LINE
  8
0
  6
CONTINUOUS
 62
     7
 10
367.0986328125
 20
-237.4998931884766
 11
381.4060974121094
 21
-236.2481536865234
  0
LINE
  8
0
  6
CONTINUOUS
 62
     7
 10
417.0987548828125
 20
-199.5
 11
417.0987548828125
 21
-317.1337890625
  0
LINE
  8
0
  6
CONTINUOUS
 62
     7
 10
395.0987548828125
 20
-199.5
 11
395.0987548828125
 21
-487.5
  0
LINE
  8
0
  6
CONTINUOUS
 62
     7
 10
382.0987548828125
 20
-199.5
 11
417.0987548828125
 21
-199.5
  0
LINE
  8
0
  6
CONTINUOUS
 62
     7
 10
382.0987548828125
 20
-199.5
 11
382.0987548828125
 21
-227.0243530273438
  0
LINE
  8
0
  6
CONTINUOUS
 62
     7
 10
320.0987548828125
 20
-502.5
 11
380.0987548828125
 21
-502.5
  0
LINE
  8
0
  6
CONTINUOUS
 62
     7
 10
317.0987548828125
 20
-502.5
 11
317.0987548828125
 21
-532.5
  0
LINE
  8
0
  6
CONTINUOUS
 62
     7
 10
617.0987548828125
 20
-505.5
 11
617.0987548828125
 21
-532.5
  0
LINE
  8
0
  6
CONTINUOUS
 62
     3
 10
342.0987548828125
 20
-492.5
 11
342.0987548828125
 21
-542.5
  0
LINE
  8
0
  6
CONTINUOUS
 62
     3
 10
592.0987548828125
 20
-492.5
 11
592.0987548828125
 21
-542.5
  0
LINE
  8
0
  6
CONTINUOUS
 62
     3
 10
365.0987548828125
 20
-432.5
 11
385.0987548828125
 21
-432.5
  0
LINE
  8
0
  6
CONTINUOUS
 62
     3
 10
375.0987548828125
 20
-422.5
 11
375.0987548828125
 21
-442.5
  0
LINE
  8
0
  6
CONTINUOUS
 62
     7
 10
319.0987548828125
 20
-237.5
 11
319.0987548828125
 21
-457.5
  0
LINE
  8
0
  6
CONTINUOUS
 62
     7
 10
337.0987548828125
 20
-237.5
 11
337.0987548828125
 21
-457.5
  0
LINE
  8
0
  6
CONTINUOUS
 62
     7
 10
309.0987548828125
 20
-422.5000610351562
 11
319.0987548828125
 21
-428.2735595703125
  0
LINE
  8
0
  6
CONTINUOUS
 62
     7
 10
319.0987548828125
 20
-457.5
 11
341.0357055664062
 21
-457.5
  0
LINE
  8
0
  6
CONTINUOUS
 62
     7
 10
309.0987548828125
 20
-272.4999389648438
 11
309.0987548828125
 21
-422.5
  0
LINE
  8
0
  6
CONTINUOUS
 62
     7
 10
309.0986938476563
 20
-272.4999389648438
 11
319.0987243652344
 21
-266.7264099121094
  0
LINE
  8
0
  6
CONTINUOUS
 62
     7
 10
319.0987548828125
 20
-237.5
 11
367.0977783203125
 21
-237.5
  0
LINE
  8
0
  6
CONTINUOUS
 62
     7
 10
192.0987396240234
 20
-305.5
 11
192.0987396240234
 21
-385
  0
LINE
  8
0
  6
CONTINUOUS
 62
     7
 10
192.0987396240234
 20
-310
 11
302.0987548828125
 21
-310
  0
LINE
  8
0
  6
CONTINUOUS
 62
     7
 10
192.0987396240234
 20
-385
 11
302.0987548828125
 21
-385
  0
LINE
  8
0
  6
CONTINUOUS
 62
     7
 10
302.0987548828125
 20
-305
 11
302.0987548828125
 21
-390
  0
LINE
  8
0
  6
CONTINUOUS
 62
     7
 10
302.0987548828125
 20
-305
 11
309.0987548828125
 21
-305
  0
LINE
  8
0
  6
CONTINUOUS
 62
     7
 10
302.0987548828125
 20
-390
 11
309.0987548828125
 21
-390
  0
LINE
  8
0
  6
CONTINUOUS
 62
     3
 10
377.0987548828125
 20
-357.5
 11
377.0987548828125
 21
-337.5
  0
LINE
  8
0
  6
CONTINUOUS
 62
     7
 10
192.0987396240234
 20
-305.5
 11
282.0987548828125
 21
-305.5
  0
LINE
  8
0
  6
CONTINUOUS
 62
     7
 10
560.7510375976562
 20
-502.5
 11
614.0987548828125
 21
-502.5
  0
LINE
  8
0
  6
DASHED
 62
     7
 10
353.0987548828125
 20
-502.5
 11
353.0987548828125
 21
-532.5
  0
LINE
  8
0
  6
DASHED
 62
     7
 10
331.0987548828125
 20
-502.5
 11
331.0987548828125
 21
-532.5
  0
LINE
  8
0
  6
DASHED
 62
     7
 10
603.0987548828125
 20
-502.5
 11
603.0987548828125
 21
-532.5
  0
LINE
  8
0
  6
DASHED
 62
     7
 10
581.0987548828125
 20
-502.5
 11
581.0987548828125
 21
-532.5
  0
LINE
  8
0
  6
CONTINUOUS
 62
     7
 10
440.4942016601563
 20
-381.41259765625
 11
530.1091918945313
 21
-488.2115478515625
  0
LINE
  8
0
  6
CONTINUOUS
 62
     7
 10
385.5841369628906
 20
-347.5
 11
377.0988159179688
 21
-339.0147094726563
  0
LINE
  8
0
  6
CONTINUOUS
 62
     7
 10
377.0987243652344
 20
-339.0147094726563
 11
368.6134338378906
 21
-347.5
  0
LINE
  8
0
  6
CONTINUOUS
 62
     7
 10
377.0986938476563
 20
-355.9852600097656
 11
368.6133728027344
 21
-347.4999694824219
  0
LINE
  8
0
  6
CONTINUOUS
 62
     7
 10
385.5839538574219
 20
-347.5000305175781
 11
377.0986633300781
 21
-355.9852905273437
  0
LINE
  8
0
  6
CONTINUOUS
 62
     7
 10
375.0986938476563
 20
-424.0146789550781
 11
366.6134033203125
 21
-432.4999694824219
  0
LINE
  8
0
  6
CONTINUOUS
 62
     7
 10
375.0987243652344
 20
-440.9852905273438
 11
366.6134338378906
 21
-432.5
  0
LINE
  8
0
  6
CONTINUOUS
 62
     7
 10
383.5839538574219
 20
-432.5
 11
375.0986633300781
 21
-440.9852905273438
  0
LINE
  8
0
  6
CONTINUOUS
 62
     7
 10
383.5840454101562
 20
-432.5000305175781
 11
375.0987548828125
 21
-424.0147094726563
  0
LINE
  8
0
  6
CONTINUOUS
 62
     7
 10
341.0356750488281
 20
-457.5000305175781
 11
345.0256958007813
 21
-411.8937072753906
  0
LINE
  8
0
  6
CONTINUOUS
 62
     7
 10
282.0987548828125
 20
-305.5
 11
282.0987548828125
 21
-310
  0
LINE
  8
0
  6
CONTINUOUS
 62
     7
 10
-182.9012451171875
 20
-199.5980377197266
 11
-182.4996032714844
 21
-201.3013610839844
  0
LINE
  8
0
  6
CONTINUOUS
 62
     7
 10
-251.1579284667969
 20
-203.8723754882812
 11
-250.4514312744141
 21
-204.6015014648438
  0
LINE
  8
0
  6
CONTINUOUS
 62
     7
 10
-164.6447448730469
 20
-203.8724517822266
 11
-165.3511352539063
 21
-204.6014862060547
  0
LINE
  8
0
  6
CONTINUOUS
 62
     7
 10
-191.9012603759766
 20
-187.5000305175781
 11
-223.9012603759766
 21
-187.5000305175781
  0
LINE
  8
0
  6
CONTINUOUS
 62
     7
 10
-191.9012756347656
 20
-187.5000305175781
 11
-187.7675628662109
 21
-198.8573150634766
  0
LINE
  8
0
  6
CONTINUOUS
 62
     7
 10
-223.9012603759766
 20
-187.5001220703125
 11
-228.0349731445313
 21
-198.8574066162109
  0
LINE
  8
0
  6
CONTINUOUS
 62
     7
 10
-196.7842254638672
 20
-176.6569213867188
 11
-195.4012756347656
 21
-184.5000305175781
  0
LINE
  8
0
  6
CONTINUOUS
 62
     7
 10
-202.9012756347656
 20
-174.4976654052734
 11
-197.8813018798828
 21
-175.5286407470703
  0
LINE
  8
0
  6
CONTINUOUS
 62
     7
 10
-202.9012603759766
 20
-138.5000305175781
 11
-202.9012603759766
 21
-181.7000427246094
  0
LINE
  8
0
  6
CONTINUOUS
 62
     7
 10
-219.0183258056641
 20
-176.6569213867188
 11
-220.4012756347656
 21
-184.5000305175781
  0
LINE
  8
0
  6
CONTINUOUS
 62
     7
 10
-212.9012451171875
 20
-174.4976654052734
 11
-217.9212188720703
 21
-175.5286407470703
  0
LINE
  8
0
  6
CONTINUOUS
 62
     7
 10
-212.9012603759766
 20
-138.5000305175781
 11
-212.9012603759766
 21
-181.7000427246094
  0
LINE
  8
0
  6
CONTINUOUS
 62
     7
 10
-220.4012603759766
 20
-184.5000305175781
 11
-220.4012603759766
 21
-187.5000305175781
  0
LINE
  8
0
  6
CONTINUOUS
 62
     7
 10
-195.4012603759766
 20
-184.5000610351563
 11
-195.4012603759766
 21
-187.5000305175781
  0
LINE
  8
0
  6
CONTINUOUS
 62
     7
 10
-387.9012451171875
 20
-532.5
 11
-297.9012451171875
 21
-532.5
  0
LINE
  8
0
  6
CONTINUOUS
 62
     3
 10
-281.5133361816406
 20
-390.0001525878906
 11
-298.8338317871094
 21
-400.0001525878906
  0
LINE
  8
0
  6
CONTINUOUS
 62
     3
 10
-281.5136413574219
 20
-305.0000305175781
 11
-298.8341674804687
 21
-295.0000305175781
  0
LINE
  8
0
  6
CONTINUOUS
 62
     3
 10
-134.2889556884766
 20
-305.0000305175781
 11
-116.9684448242187
 21
-295.0000305175781
  0
LINE
  8
0
  6
CONTINUOUS
 62
     3
 10
-134.2891845703125
 20
-390
 11
-116.9686737060547
 21
-400
  0
LINE
  8
0
  6
CONTINUOUS
 62
     7
 10
-27.90126037597656
 20
-379.5
 11
-27.90126037597656
 21
-532.5
  0
LINE
  8
0
  6
CONTINUOUS
 62
     7
 10
-387.9012451171875
 20
-379.5
 11
-387.9012451171875
 21
-532.5
  0
LINE
  8
0
  6
CONTINUOUS
 62
     7
 10
-384.9012451171875
 20
-502.5
 11
-300.9012451171875
 21
-502.5
  0
LINE
  8
0
  6
CONTINUOUS
 62
     3
 10
-357.9012451171875
 20
-492.5
 11
-357.9012451171875
 21
-542.5
  0
LINE
  8
0
  6
CONTINUOUS
 62
     3
 10
-57.90126037597656
 20
-492.5
 11
-57.90126037597656
 21
-542.5
  0
LINE
  8
0
  6
CONTINUOUS
 62
     7
 10
-297.9012451171875
 20
-505.5
 11
-297.9012451171875
 21
-532.5
  0
LINE
  8
0
  6
CONTINUOUS
 62
     7
 10
-117.9012603759766
 20
-505.5
 11
-117.9012603759766
 21
-532.5
  0
LINE
  8
0
  6
CONTINUOUS
 62
     7
 10
-292.9012451171875
 20
-527.5
 11
-122.9012603759766
 21
-527.5
  0
LINE
  8
0
  6
CONTINUOUS
 62
     7
 10
-289.9012451171875
 20
-510.5
 11
-235.9012603759766
 21
-510.5
  0
LINE
  8
0
  6
CONTINUOUS
 62
     7
 10
-117.9012603759766
 20
-532.5
 11
-27.90126037597656
 21
-532.5
  0
LINE
  8
0
  6
CONTINUOUS
 62
     7
 10
-114.9012603759766
 20
-502.5
 11
-30.90126037597656
 21
-502.5
  0
LINE
  8
0
  6
CONTINUOUS
 62
     7
 10
-179.9012603759766
 20
-510.5
 11
-125.9012603759766
 21
-510.5
  0
LINE
  8
0
  6
CONTINUOUS
 62
     7
 10
-117.9013366699219
 20
-502.5
 11
-126.988639831543
 21
-450.9633178710937
  0
LINE
  8
0
  6
CONTINUOUS
 62
     7
 10
-297.9012756347656
 20
-502.5
 11
-288.81396484375
 21
-450.9632873535156
  0
LINE
  8
0
  6
CONTINUOUS
 62
     7
 10
-313.7155456542969
 20
-490.1047668457031
 11
-307.9011840820313
 21
-457.1298828125
  0
LINE
  8
0
  6
CONTINUOUS
 62
     7
 10
-102.0868225097656
 20
-490.1047058105469
 11
-107.9012222290039
 21
-457.1295776367187
  0
LINE
  8
0
  6
CONTINUOUS
 62
     7
 10
-107.9012603759766
 20
-396.4898071289063
 11
-107.9012603759766
 21
-457.1295776367187
  0
LINE
  8
0
  6
CONTINUOUS
 62
     7
 10
-307.9012451171875
 20
-396.4898071289063
 11
-307.9012451171875
 21
-457.1298217773437
  0
LINE
  8
0
  6
CONTINUOUS
 62
     3
 10
-99.34664916992187
 20
-392.4668273925781
 11
-71.63026428222656
 21
-403.9473571777344
  0
LINE
  8
0
  6
CONTINUOUS
 62
     3
 10
-252.8665771484375
 20
-238.9442291259766
 11
-264.3471069335937
 21
-211.227783203125
  0
LINE
  8
0
  6
CONTINUOUS
 62
     3
 10
-162.9362640380859
 20
-456.055908203125
 11
-151.4557189941406
 21
-483.7723693847656
  0
LINE
  8
0
  6
CONTINUOUS
 62
     3
 10
-252.8669586181641
 20
-456.0558471679687
 11
-264.3474731445313
 21
-483.7722778320313
  0
LINE
  8
0
  6
CONTINUOUS
 62
     3
 10
-316.4573364257813
 20
-302.534912109375
 11
-344.1737060546875
 21
-291.0544128417969
  0
LINE
  8
0
  6
CONTINUOUS
 62
     3
 10
-316.4573364257813
 20
-392.4647827148437
 11
-344.1737060546875
 21
-403.9452819824219
  0
LINE
  8
0
  6
CONTINUOUS
 62
     7
 10
-226.6362457275391
 20
-203.2008056640625
 11
-226.6362457275391
 21
-236.6100158691406
  0
LINE
  8
0
  6
CONTINUOUS
 62
     7
 10
-189.1662750244141
 20
-203.2008056640625
 11
-189.1662750244141
 21
-236.6100158691406
  0
LINE
  8
0
  6
CONTINUOUS
 62
     3
 10
-122.9012603759766
 20
-432.5
 11
-83.25123596191406
 21
-432.5
  0
LINE
  8
0
  6
CONTINUOUS
 62
     7
 10
-217.9012603759766
 20
-305.5
 11
-217.9012603759766
 21
-317.5
  0
LINE
  8
0
  6
CONTINUOUS
 62
     7
 10
-197.9012603759766
 20
-305.5
 11
-197.9012603759766
 21
-317.5
  0
LINE
  8
0
  6
CONTINUOUS
 62
     3
 10
-99.34542846679687
 20
-302.53466796875
 11
-71.62899017333984
 21
-291.0541381835937
  0
LINE
  8
0
  6
CONTINUOUS
 62
     3
 10
-162.9359436035156
 20
-238.9441528320312
 11
-151.4554138183594
 21
-211.2277221679688
  0
LINE
  8
0
  6
CONTINUOUS
 62
     7
 10
-217.9012603759766
 20
-317.5
 11
-197.9012603759766
 21
-317.5
  0
LINE
  8
0
  6
CONTINUOUS
 62
     7
 10
-217.9012603759766
 20
-305.5
 11
-197.9012603759766
 21
-305.5
  0
LINE
  8
0
  6
DASHED
 62
     7
 10
-68.90126037597656
 20
-502.5
 11
-68.90126037597656
 21
-532.5
  0
LINE
  8
0
  6
DASHED
 62
     7
 10
-46.90126037597656
 20
-502.5
 11
-46.90126037597656
 21
-532.5
  0
LINE
  8
0
  6
DASHED
 62
     7
 10
-346.9012451171875
 20
-502.5
 11
-346.9012451171875
 21
-532.5
  0
LINE
  8
0
  6
DASHED
 62
     7
 10
-368.9012451171875
 20
-502.5
 11
-368.9012451171875
 21
-532.5
  0
LINE
  8
0
  6
CONTINUOUS
 62
     7
 10
-93.25123596191406
 20
-440.5710754394531
 11
-93.25123596191406
 21
-424.4289245605469
  0
LINE
  8
0
  6
CONTINUOUS
 62
     7
 10
-102.2512359619141
 20
-441.007568359375
 11
-102.2512359619141
 21
-423.992431640625
  0
LINE
  8
0
  6
CONTINUOUS
 62
     7
 10
-102.2512435913086
 20
-441.007568359375
 11
-107.9012603759766
 21
-440.8310241699219
  0
LINE
  8
0
  6
CONTINUOUS
 62
     7
 10
-102.2512741088867
 20
-423.992431640625
 11
-107.9012832641602
 21
-424.1689758300781
  0
LINE
  8
0
  6
CONTINUOUS
 62
     7
 10
-93.25123596191406
 20
-440.5710754394531
 11
-102.2512359619141
 21
-440.5710754394531
  0
LINE
  8
0
  6
CONTINUOUS
 62
     7
 10
-93.25123596191406
 20
-424.4289245605469
 11
-102.2512359619141
 21
-424.4289245605469
  0
LINE
  8
0
  6
CONTINUOUS
 62
     7
 10
-83.25123596191406
 20
-355.5710754394531
 11
-83.25123596191406
 21
-339.4289245605469
  0
LINE
  8
0
  6
CONTINUOUS
 62
     7
 10
-92.25123596191406
 20
-356.007568359375
 11
-92.25123596191406
 21
-338.992431640625
  0
LINE
  8
0
  6
CONTINUOUS
 62
     7
 10
-92.25119018554687
 20
-356.007568359375
 11
-98.21641540527344
 21
-355.8211364746094
  0
LINE
  8
0
  6
CONTINUOUS
 62
     7
 10
-92.25125122070313
 20
-338.9924621582031
 11
-98.21647644042969
 21
-339.1788635253906
  0
LINE
  8
0
  6
CONTINUOUS
 62
     7
 10
-83.25123596191406
 20
-355.5710754394531
 11
-92.25123596191406
 21
-355.5710754394531
  0
LINE
  8
0
  6
CONTINUOUS
 62
     7
 10
-83.25123596191406
 20
-339.4289245605469
 11
-92.25123596191406
 21
-339.4289245605469
  0
LINE
  8
0
  6
CONTINUOUS
 62
     3
 10
-102.2512588500977
 20
-424.4289245605469
 11
-93.25121307373047
 21
-432.5000305175781
  0
LINE
  8
0
  6
CONTINUOUS
 62
     3
 10
-102.251220703125
 20
-432.4999389648437
 11
-93.25121307373047
 21
-424.4288635253906
  0
LINE
  8
0
  6
CONTINUOUS
 62
     3
 10
-102.2512969970703
 20
-432.5
 11
-93.25129699707031
 21
-440.571044921875
  0
LINE
  8
0
  6
CONTINUOUS
 62
     3
 10
-102.2512359619141
 20
-440.5710754394531
 11
-93.25123596191406
 21
-432.5
  0
LINE
  8
0
  6
CONTINUOUS
 62
     7
 10
-93.25123596191406
 20
-432.4996643066406
 11
-102.2512359619141
 21
-432.4996643066406
  0
LINE
  8
0
  6
CONTINUOUS
 62
     3
 10
-92.25129699707031
 20
-339.4289245605469
 11
-83.25129699707031
 21
-347.4999694824219
  0
LINE
  8
0
  6
CONTINUOUS
 62
     3
 10
-92.25125122070313
 20
-347.5
 11
-83.25125885009766
 21
-339.4289245605469
  0
LINE
  8
0
  6
CONTINUOUS
 62
     3
 10
-92.25125885009766
 20
-347.4999389648438
 11
-83.25125885009766
 21
-355.5710144042969
  0
LINE
  8
0
  6
CONTINUOUS
 62
     3
 10
-92.251220703125
 20
-355.5710754394531
 11
-83.25122833251953
 21
-347.5
  0
LINE
  8
0
  6
CONTINUOUS
 62
     7
 10
-83.25123596191406
 20
-347.4996643066406
 11
-92.25123596191406
 21
-347.4996643066406
  0
LINE
  8
0
  6
CONTINUOUS
 62
     3
 10
-405.0339660644531
 20
-347.5
 11
-10.76854133605957
 21
-347.5
  0
LINE
  8
0
  6
CONTINUOUS
 62
     3
 10
-207.9012603759766
 20
-113.5000305175781
 11
-207.9012603759766
 21
-547.5
  0
LINE
  8
0
  6
CONTINUOUS
 62
     7
 10
495.0987243652344
 20
-199.5
 11
495.0987243652344
 21
-446.4877319335937
  0
LINE
  8
0
  6
CONTINUOUS
 62
     7
 10
495.0987243652344
 20
320.5
 11
495.0987243652344
 21
24.5
  0
LINE
  8
0
  6
CONTINUOUS
 62
     7
 10
445.5221252441406
 20
-122.1389465332031
 11
445.5221252441406
 21
-206.8559265136719
  0
LINE
  8
0
  6
CONTINUOUS
 62
     7
 10
406.0245056152344
 20
-158.5000305175781
 11
482.3344421386719
 21
-158.5000305175781
  0
LINE
  8
0
  6
CONTINUOUS
 62
     7
 10
495.0987243652344
 20
-199.5
 11
575.0986938476563
 21
-199.5
  0
LINE
  8
0
  6
CONTINUOUS
 62
     7
 10
575.0986938476563
 20
-199.5
 11
575.0986938476563
 21
-246.0582275390625
  0
LINE
  8
0
  6
CONTINUOUS
 62
     7
 10
520.0986938476562
 20
-457.5
 11
603.0986938476562
 21
-457.5
  0
LINE
  8
0
  6
CONTINUOUS
 62
     7
 10
580.0986938476562
 20
-237.5
 11
603.0986938476562
 21
-237.5
  0
LINE
  8
0
  6
CONTINUOUS
 62
     7
 10
608.0986938476563
 20
-497.5
 11
630.0986938476562
 21
-497.5
  0
LINE
  8
0
  6
CONTINUOUS
 62
     7
 10
608.0986938476563
 20
-197.5
 11
630.0986938476562
 21
-197.5
  0
LINE
  8
0
  6
CONTINUOUS
 62
     7
 10
608.0986938476563
 20
-197.5
 11
608.0986938476563
 21
-497.5
  0
LINE
  8
0
  6
CONTINUOUS
 62
     7
 10
630.0986938476562
 20
-197.5
 11
630.0986938476562
 21
-497.5
  0
LINE
  8
0
  6
CONTINUOUS
 62
     7
 10
550.0986938476563
 20
-175.4627685546875
 11
550.0986938476563
 21
-210.234375
  0
LINE
  8
0
  6
CONTINUOUS
 62
     7
 10
519.0452270507812
 20
-248.427734375
 11
568.638427734375
 21
-248.427734375
  0
LINE
  8
0
  6
CONTINUOUS
 62
     7
 10
561.2910766601562
 20
-184.1024169921875
 11
538.9063110351562
 21
-184.1024169921875
  0
LINE
  8
0
  6
CONTINUOUS
 62
     7
 10
563.5521240234375
 20
-195.1024169921875
 11
536.645263671875
 21
-195.1024169921875
  0
LINE
  8
0
  6
CONTINUOUS
 62
     7
 10
536.645263671875
 20
-195.1023254394531
 11
536.78271484375
 21
-199.4999542236328
  0
LINE
  8
0
  6
CONTINUOUS
 62
     7
 10
561.2910766601562
 20
-184.1024169921875
 11
561.2910766601562
 21
-195.1024169921875
  0
LINE
  8
0
  6
CONTINUOUS
 62
     7
 10
538.9063110351562
 20
-184.1024169921875
 11
538.9063110351562
 21
-195.1024169921875
  0
LINE
  8
0
  6
CONTINUOUS
 62
     7
 10
550.0986938476563
 20
-184.1024169921875
 11
550.0986938476563
 21
-195.1024169921875
  0
LINE
  8
0
  6
CONTINUOUS
 62
     7
 10
561.2910766601562
 20
-195.1023712158203
 11
550.0987548828125
 21
-184.1024475097656
  0
LINE
  8
0
  6
CONTINUOUS
 62
     7
 10
550.0986938476563
 20
-195.1023559570313
 11
561.2910766601562
 21
-184.1023406982422
  0
LINE
  8
0
  6
CONTINUOUS
 62
     7
 10
550.0988159179687
 20
-195.1024169921875
 11
538.9063720703125
 21
-184.1024017333984
  0
LINE
  8
0
  6
CONTINUOUS
 62
     7
 10
538.9063720703125
 20
-195.1024322509766
 11
550.0987548828125
 21
-184.1024169921875
  0
LINE
  8
0
  6
CONTINUOUS
 62
     7
 10
563.5521850585938
 20
-195.1024169921875
 11
563.4147338867188
 21
-199.4998931884766
  0
LINE
  8
0
  6
CONTINUOUS
 62
     7
 10
515.0986938476562
 20
-199.5
 11
515.0986938476562
 21
-470.3227844238281
  0
LINE
  8
0
  6
CONTINUOUS
 62
     7
 10
520.0986938476562
 20
282.5
 11
603.0986938476562
 21
282.5
  0
LINE
  8
0
  6
CONTINUOUS
 62
     7
 10
495.0987243652344
 20
320.5
 11
515.0986938476562
 21
320.5
  0
LINE
  8
0
  6
CONTINUOUS
 62
     7
 10
495.0987243652344
 20
24.5
 11
515.0986938476562
 21
24.5
  0
LINE
  8
0
  6
CONTINUOUS
 62
     7
 10
520.0986938476562
 20
62.5
 11
603.0986938476562
 21
62.5
  0
LINE
  8
0
  6
CONTINUOUS
 62
     7
 10
515.0986938476562
 20
320.5
 11
515.0986938476562
 21
213.0796203613281
  0
LINE
  8
0
  6
CONTINUOUS
 62
     7
 10
608.0986938476563
 20
22.5
 11
630.0986938476562
 21
22.5
  0
LINE
  8
0
  6
CONTINUOUS
 62
     7
 10
608.0986938476563
 20
322.5
 11
630.0986938476562
 21
322.5
  0
LINE
  8
0
  6
CONTINUOUS
 62
     7
 10
608.0986938476563
 20
322.5
 11
608.0986938476563
 21
22.5
  0
LINE
  8
0
  6
CONTINUOUS
 62
     7
 10
630.0986938476562
 20
322.5
 11
630.0986938476562
 21
22.5
  0
LINE
  8
0
  6
CONTINUOUS
 62
     7
 10
515.0986938476562
 20
131.9203796386719
 11
515.0986938476562
 21
24.5
  0
LINE
  8
0
  6
CONTINUOUS
 62
     7
 10
575.0986938476563
 20
202.5
 11
575.0986938476563
 21
142.5
  0
LINE
  8
0
  6
CONTINUOUS
 62
     7
 10
515.0987548828125
 20
213.0796051025391
 11
575.0987548828125
 21
202.4999847412109
  0
LINE
  8
0
  6
CONTINUOUS
 62
     7
 10
550.0986938476563
 20
190.9534301757813
 11
550.0986938476563
 21
153.6951446533203
  0
LINE
  8
0
  6
CONTINUOUS
 62
     7
 10
550.0986938476563
 20
184.5208129882813
 11
538.077880859375
 21
172.5
  0
LINE
  8
0
  6
CONTINUOUS
 62
     7
 10
562.1195678710938
 20
172.5000152587891
 11
550.0987548828125
 21
184.5208282470703
  0
LINE
  8
0
  6
CONTINUOUS
 62
     7
 10
538.0779418945312
 20
172.4999542236328
 11
550.0987548828125
 21
160.4791412353516
  0
LINE
  8
0
  6
CONTINUOUS
 62
     7
 10
550.0986938476563
 20
160.4791870117188
 11
562.1195068359375
 21
172.5
  0
LINE
  8
0
  6
CONTINUOUS
 62
     7
 10
515.0987548828125
 20
131.9203796386719
 11
575.0987548828125
 21
142.5
  0
ARC
  8
0
  6
CONTINUOUS
 62
     7
 10
445.0987548828125
 20
172.5
 40
20.13370323181152
 50
14.37929160866251
 51
165.6207082776519
  0
ARC
  8
0
  6
CONTINUOUS
 62
     7
 10
445.0986938476562
 20
172.5
 40
12.50000000000001
 50
23.57817843000465
 51
156.4218368242354
  0
ARC
  8
0
  6
CONTINUOUS
 62
     7
 10
465.0986938476563
 20
172.5
 40
4.99999999999999
 50
270.0000179860891
 51
89.99998201391097
  0
ARC
  8
0
  6
CONTINUOUS
 62
     7
 10
425.0986938476563
 20
172.5
 40
4.99999999999999
 50
89.99998201391097
 51
270.0000006832456
  0
ARC
  8
0
  6
CONTINUOUS
 62
     7
 10
445.0986938476562
 20
172.5
 40
12.5
 50
203.5781631757644
 51
336.4218215699954
  0
ARC
  8
0
  6
CONTINUOUS
 62
     7
 10
445.0987548828125
 20
172.5
 40
20.13370323181152
 50
194.3792917223481
 51
345.6207083913375
  0
ARC
  8
0
  6
CONTINUOUS
 62
     7
 10
314.0987548828125
 20
88.8397216796875
 40
5
 50
0
 51
59.99998117908478
  0
ARC
  8
0
  6
CONTINUOUS
 62
     7
 10
314.0987548828125
 20
256.1602783203125
 40
5.000000000000009
 50
299.9999300284562
 51
0
  0
ARC
  8
0
  6
CONTINUOUS
 62
     7
 10
380.0987548828125
 20
298.6946411132812
 40
14.99999999999998
 50
275.0000238170512
 51
0
  0
ARC
  8
0
  6
CONTINUOUS
 62
     7
 10
380.0987548828125
 20
46.30535888671875
 40
15
 50
0
 51
84.99997618294857
  0
ARC
  8
0
  6
CONTINUOUS
 62
     7
 10
332.0987548828125
 20
337.5
 40
15
 50
89.99998201391075
 51
179.9999640278213
  0
ARC
  8
0
  6
CONTINUOUS
 62
     7
 10
332.0987548828125
 20
277.5
 40
15
 50
179.9999776881996
 51
209.9264925177455
  0
ARC
  8
0
  6
CONTINUOUS
 62
     7
 10
332.0987548828125
 20
67.5
 40
14.99999999999998
 50
150.0735038397888
 51
179.9999640278213
  0
ARC
  8
0
  6
CONTINUOUS
 62
     7
 10
332.0987548828125
 20
7.5
 40
15
 50
179.9999776881997
 51
270.000028004002
  0
ARC
  8
0
  6
CONTINUOUS
 62
     7
 10
402.0987548828125
 20
172.5
 40
20.00000000000001
 50
124.518146154511
 51
235.481836542645
  0
ARC
  8
0
  6
CONTINUOUS
 62
     7
 10
385.0987548828125
 20
197.2183837890625
 40
9.999999999999996
 50
304.5181582210276
 51
0
  0
ARC
  8
0
  6
CONTINUOUS
 62
     7
 10
287.0987548828125
 20
172.5
 40
10.00000000000001
 50
270.0000179860893
 51
89.99998201391064
  0
ARC
  8
0
  6
CONTINUOUS
 62
     7
 10
385.0987548828125
 20
147.7816162109375
 40
10
 50
0
 51
55.48184177897245
  0
CIRCLE
  8
0
  6
CONTINUOUS
 62
     7
 10
342.0987548828125
 20
22.5
 40
11
  0
CIRCLE
  8
0
  6
CONTINUOUS
 62
     7
 10
342.0987548828125
 20
322.5
 40
11
  0
ARC
  8
0
  6
CONTINUOUS
 62
     7
 10
537.0987548828125
 20
332.5
 40
4.999999999999977
 50
6.865607969727686
 51
90.00000250447782
  0
ARC
  8
0
  6
CONTINUOUS
 62
     7
 10
537.0987548828125
 20
12.5
 40
5
 50
269.9999974955222
 51
355.0391469477946
  0
ARC
  8
0
  6
CONTINUOUS
 62
     7
 10
602.0987548828125
 20
337.5
 40
15
 50
0
 51
89.99998201391075
  0
ARC
  8
0
  6
CONTINUOUS
 62
     7
 10
602.0987548828125
 20
7.5
 40
15
 50
270.0000179860892
 51
360
  0
CIRCLE
  8
0
  6
CONTINUOUS
 62
     7
 10
592.0987548828125
 20
322.5
 40
11
  0
CIRCLE
  8
0
  6
CONTINUOUS
 62
     7
 10
592.0987548828125
 20
22.5
 40
11
  0
ARC
  8
0
  6
CONTINUOUS
 62
     7
 10
445.0987548828125
 20
-158.5000305175781
 40
25.00000000000001
 50
306.4238458862583
 51
233.5761318019414
  0
CIRCLE
  8
0
  6
CONTINUOUS
 62
     7
 10
445.0987548828125
 20
-158.5000305175781
 40
15
  0
ARC
  8
0
  6
CONTINUOUS
 62
     7
 10
435.8638916015625
 20
-177.5000305175781
 40
2.000000000000013
 50
89.99998201391097
 51
170.0000206677886
  0
ARC
  8
0
  6
CONTINUOUS
 62
     7
 10
454.3336181640625
 20
-177.5000305175781
 40
2.000000000000025
 50
9.999994586451145
 51
89.99998201391097
  0
ARC
  8
0
  6
CONTINUOUS
 62
     7
 10
426.6923828125
 20
-183.444091796875
 40
6.000000000000009
 50
349.8636347103541
 51
53.57615411374177
  0
ARC
  8
0
  6
CONTINUOUS
 62
     7
 10
463.505126953125
 20
-183.444091796875
 40
6.000000000000001
 50
126.4238645555931
 51
189.9999620293668
  0
ARC
  8
0
  6
CONTINUOUS
 62
     7
 10
372.0987548828125
 20
-227.0243530273438
 40
9.999999999999986
 50
274.9999691755379
 51
0
  0
ARC
  8
0
  6
CONTINUOUS
 62
     7
 10
271.4761352539062
 20
-449.4097290039062
 40
70
 50
310.6737705878532
 51
353.3631794618058
  0
ARC
  8
0
  6
CONTINUOUS
 62
     7
 10
380.0987548828125
 20
-487.5
 40
15
 50
270.0000179860892
 51
0
  0
ARC
  8
0
  6
CONTINUOUS
 62
     7
 10
320.0987548828125
 20
-505.5
 40
2.999999999999977
 50
89.99998201391097
 51
179.9999640278208
  0
ARC
  8
0
  6
CONTINUOUS
 62
     7
 10
614.0987548828125
 20
-505.5
 40
3
 50
0
 51
89.99998201390989
  0
ARC
  8
0
  6
CONTINUOUS
 62
     7
 10
380.0987548828125
 20
-221.3052673339844
 40
15.00000000000001
 50
275.0000238170512
 51
0
  0
ARC
  8
0
  6
CONTINUOUS
 62
     7
 10
560.7510375976562
 20
-462.5
 40
40.00000000000004
 50
219.9999869972261
 51
270.0000179860893
  0
ARC
  8
0
  6
CONTINUOUS
 62
     7
 10
517.0987548828125
 20
-317.1337890625
 40
100
 50
179.9999776881997
 51
219.9999833547605
  0
CIRCLE
  8
0
  6
CONTINUOUS
 62
     3
 10
377.0987548828125
 20
-347.5
 40
8.507550239562988
  0
CIRCLE
  8
0
  6
CONTINUOUS
 62
     3
 10
375.0987548828125
 20
-432.5
 40
8.507550239562988
  0
ARC
  8
0
  6
CONTINUOUS
 62
     7
 10
342.0371704101563
 20
-411.6322326660156
 40
2.99999999999997
 50
355.0001030251782
 51
89.99998201391097
  0
ARC
  8
0
  6
CONTINUOUS
 62
     7
 10
-207.9012603759766
 20
-347.5
 40
150
 50
80.40595679625224
 51
99.59408919383911
  0
ARC
  8
0
  6
CONTINUOUS
 62
     7
 10
-207.9012603759766
 20
-347.5
 40
150
 50
106.7608291050151
 51
112.3943349814957
  0
ARC
  8
0
  6
CONTINUOUS
 62
     7
 10
-207.9012603759766
 20
-347.5
 40
150
 50
67.60560855575807
 51
73.23914858318459
  0
ARC
  8
0
  6
CONTINUOUS
 62
     7
 10
-198.1629180908203
 20
-176.9000244140625
 40
1.399999976158137
 50
9.999995440224284
 51
78.39428850076517
  0
ARC
  8
0
  6
CONTINUOUS
 62
     7
 10
-207.9012603759766
 20
-138.5000305175781
 40
5
 50
0
 51
179.9999640278213
  0
ARC
  8
0
  6
CONTINUOUS
 62
     7
 10
-201.5012359619141
 20
-181.7000427246094
 40
1.399999976158135
 50
179.9999776881999
 51
270.0000280040018
  0
ARC
  8
0
  6
CONTINUOUS
 62
     7
 10
-214.3012847900391
 20
-181.7000427246094
 40
1.399999976158144
 50
269.9999633445764
 51
0
  0
ARC
  8
0
  6
CONTINUOUS
 62
     7
 10
-217.6396026611328
 20
-176.9000244140625
 40
1.399999976158153
 50
101.6056755270559
 51
169.9999660262754
  0
CIRCLE
  8
0
  6
CONTINUOUS
 62
     7
 10
-207.9012603759766
 20
-347.5
 40
75
  0
CIRCLE
  8
0
  6
CONTINUOUS
 62
     7
 10
-207.9012603759766
 20
-347.5
 40
110
  0
ARC
  8
0
  6
CONTINUOUS
 62
     3
 10
-207.9012603759766
 20
-347.5
 40
95
 50
23.96605804278047
 51
36.0338821551691
  0
ARC
  8
0
  6
CONTINUOUS
 62
     3
 10
-207.9012603759766
 20
-347.5
 40
95
 50
83.966056297338
 51
96.03390773048332
  0
ARC
  8
0
  6
CONTINUOUS
 62
     3
 10
-207.9012603759766
 20
-347.5
 40
95.00000000000001
 50
143.9660579669901
 51
156.0338957397571
  0
ARC
  8
0
  6
CONTINUOUS
 62
     3
 10
-207.9012603759766
 20
-347.5
 40
95
 50
203.9660632791079
 51
216.0339010518749
  0
ARC
  8
0
  6
CONTINUOUS
 62
     3
 10
-207.9012603759766
 20
-347.5
 40
95.00000000000001
 50
263.96606494876
 51
276.0338890611487
  0
ARC
  8
0
  6
CONTINUOUS
 62
     3
 10
-207.9012603759766
 20
-347.5
 40
95
 50
323.9660632033175
 51
336.0338873157062
  0
ARC
  8
0
  6
CONTINUOUS
 62
     7
 10
-207.9012603759766
 20
-379.5
 40
180
 50
0
 51
179.9999640278213
  0
ARC
  8
0
  6
CONTINUOUS
 62
     7
 10
-289.9012451171875
 20
-502.5
 40
7.999999999999981
 50
179.9999776881995
 51
270.0000280040021
  0
ARC
  8
0
  6
CONTINUOUS
 62
     7
 10
-125.9012603759766
 20
-502.5
 40
7.999999999999996
 50
270.0000179860893
 51
0
  0
ARC
  8
0
  6
CONTINUOUS
 62
     7
 10
-292.9012451171875
 20
-532.5
 40
5.000000000000019
 50
89.99998201391097
 51
179.9999640278219
  0
ARC
  8
0
  6
CONTINUOUS
 62
     7
 10
-122.9012603759766
 20
-532.5
 40
5
 50
0
 51
89.99998201391064
  0
ARC
  8
0
  6
CONTINUOUS
 62
     7
 10
-179.9012603759766
 20
-507.5
 40
3
 50
179.9999776881992
 51
270.0000280040019
  0
ARC
  8
0
  6
CONTINUOUS
 62
     7
 10
-235.9012603759766
 20
-507.5
 40
2.999999999999977
 50
270.0000179860896
 51
0
  0
ARC
  8
0
  6
CONTINUOUS
 62
     7
 10
-87.31471252441406
 20
-487.5
 40
15
 50
189.9999793322108
 51
270.0000179860893
  0
ARC
  8
0
  6
CONTINUOUS
 62
     7
 10
-328.4877319335937
 20
-487.5
 40
15
 50
270.0000179860892
 51
349.9999917531706
  0
ARC
  8
0
  6
CONTINUOUS
 62
     7
 10
-141.7606964111328
 20
-453.5680236816406
 40
15.00000000000001
 50
9.999968119468106
 51
121.9464160074611
  0
ARC
  8
0
  6
CONTINUOUS
 62
     7
 10
-274.0418090820313
 20
-453.5679931640625
 40
15.00000000000001
 50
58.05376658641376
 51
170.0000206677891
  0
ARC
  8
0
  6
CONTINUOUS
 62
     7
 10
-207.9012603759766
 20
-347.5
 40
132.5
 50
331.0102046339863
 51
343.9897565477341
  0
ARC
  8
0
  6
CONTINUOUS
 62
     3
 10
-207.9012603759766
 20
-347.5
 40
132.5
 50
106.010204975609
 51
118.9897773799243
  0
ARC
  8
0
  6
CONTINUOUS
 62
     3
 10
-207.9012603759766
 20
-347.5
 40
132.5
 50
286.010172645896
 51
298.9897450502113
  0
ARC
  8
0
  6
CONTINUOUS
 62
     3
 10
-207.9012603759766
 20
-347.5
 40
132.5
 50
241.0101816389407
 51
253.9897472130668
  0
ARC
  8
0
  6
CONTINUOUS
 62
     3
 10
-207.9012603759766
 20
-347.5
 40
132.5
 50
151.0101959825643
 51
163.9897547265013
  0
ARC
  8
0
  6
CONTINUOUS
 62
     3
 10
-207.9012603759766
 20
-347.5
 40
132.5
 50
196.010217952742
 51
208.9897630363006
  0
ARC
  8
0
  6
CONTINUOUS
 62
     3
 10
-207.9012603759766
 20
-347.5
 40
132.5
 50
331.0102046339863
 51
343.9897565477341
  0
ARC
  8
0
  6
CONTINUOUS
 62
     7
 10
-192.1662750244141
 20
-203.2008056640625
 40
3
 50
0
 51
84.89928553420415
  0
ARC
  8
0
  6
CONTINUOUS
 62
     7
 10
-223.6362457275391
 20
-203.2008056640625
 40
2.999999999999994
 50
95.10073313513033
 51
179.9999640278214
  0
ARC
  8
0
  6
CONTINUOUS
 62
     7
 10
-229.6362457275391
 20
-236.6100158691406
 40
3.000000000000006
 50
281.089554103657
 51
0
  0
ARC
  8
0
  6
CONTINUOUS
 62
     7
 10
-186.1662750244141
 20
-236.6100158691406
 40
3
 50
179.9999776881997
 51
258.9104235845427
  0
ARC
  8
0
  6
CONTINUOUS
 62
     7
 10
-92.90126037597656
 20
-396.4898071289063
 40
14.99999999999999
 50
156.9261096906576
 51
179.9999640278213
  0
ARC
  8
0
  6
CONTINUOUS
 62
     7
 10
-322.9012451171875
 20
-396.4898071289063
 40
15
 50
0
 51
23.07391410131913
  0
ARC
  8
0
  6
CONTINUOUS
 62
     7
 10
-207.9012603759766
 20
-347.5
 40
37.50000000000003
 50
105.4660233138666
 51
74.53398488281326
  0
ARC
  8
0
  6
CONTINUOUS
 62
     7
 10
-30.90126037597656
 20
-505.5
 40
3
 50
0
 51
89.99998201391062
  0
ARC
  8
0
  6
CONTINUOUS
 62
     7
 10
-114.9012603759766
 20
-505.5
 40
2.999999999999977
 50
89.9999820139107
 51
179.9999640278208
  0
ARC
  8
0
  6
CONTINUOUS
 62
     7
 10
-300.9012451171875
 20
-505.5
 40
3
 50
0
 51
89.99998201391097
  0
ARC
  8
0
  6
CONTINUOUS
 62
     3
 10
-207.9012603759766
 20
-347.5
 40
132.5
 50
16.01020588622543
 51
28.98977487544615
  0
ARC
  8
0
  6
CONTINUOUS
 62
     3
 10
-207.9012603759766
 20
-347.5
 40
132.5
 50
61.01020713846451
 51
73.98977271259065
  0
CIRCLE
  8
0
  6
CONTINUOUS
 62
     3
 10
-207.9012603759766
 20
-347.5
 40
8
  0
CIRCLE
  8
0
  6
CONTINUOUS
 62
     7
 10
-207.9012603759766
 20
-347.5
 40
7.099999904632568
  0
ARC
  8
0
  6
CONTINUOUS
 62
     7
 10
603.0986938476562
 20
-232.5
 40
5.000000000000004
 50
269.9999974955222
 51
0
  0
ARC
  8
0
  6
CONTINUOUS
 62
     7
 10
580.0986938476562
 20
-232.5
 40
4.999999999999943
 50
179.999991348578
 51
270.0000006832456
  0
ARC
  8
0
  6
CONTINUOUS
 62
     7
 10
603.0986938476562
 20
-462.5
 40
5
 50
0
 51
90.00000250447782
  0
ARC
  8
0
  6
CONTINUOUS
 62
     7
 10
520.0986938476562
 20
-462.5
 40
5.000000000000004
 50
90.00000250447782
 51
180.0000050089563
  0
ARC
  8
0
  6
CONTINUOUS
 62
     7
 10
603.0986938476562
 20
57.5
 40
5
 50
0
 51
90.00000250447782
  0
ARC
  8
0
  6
CONTINUOUS
 62
     7
 10
520.0986938476562
 20
57.5
 40
4.999999999999997
 50
90.00000250447782
 51
180.0000050089563
  0
ARC
  8
0
  6
CONTINUOUS
 62
     7
 10
520.0986938476562
 20
287.5
 40
4.999999999999943
 50
179.999991348578
 51
270.0000006832456
  0
ARC
  8
0
  6
CONTINUOUS
 62
     7
 10
603.0986938476562
 20
287.5
 40
5.000000000000004
 50
269.9999974955222
 51
0
  0
CIRCLE
  8
0
  6
CONTINUOUS
 62
     7
 10
550.0986938476563
 20
172.5
 40
13.45343780517578
  0
ARC
  8
0
  6
CONTINUOUS
 62
     7
 10
-207.9012603759766
 20
-347.5
 40
150
 50
67.60560855575807
 51
112.3943896230091
  0
TEXT
  8
0
  6
CONTINUOUS
 62
     7
 10
-304.3298296928406
 20
163.5
 40
18
 41
0.8440876583091353
  1
ＥＲＫ－ＮＥ－５５００
  0
ENDSEC
  0
EOF
