  0
SECTION
  2
HEADER
  0
ENDSEC
  0
SECTION
  2
TABLES
  0
TABLE
  2
LTYPE
 70
    22
  0
LTYPE
  2
CONTINUOUS
 70
    64
  3
Solid line
 72
    65
 73
     0
 40
0.000000
  0
LTYPE
  2
DASHED
 70
    64
  3
__ __ __ __ __ __ __ __ __ __ __ __ __ __ __
 72
    65
 73
     2
 40
3.500000
 49
2.000000
 49
-1.500000
  0
LTYPE
  2
CENTER
 70
    64
  3
____ _ ____ _ ____ _ ____ _ ____ _ ____ _ ____
 72
    65
 73
     4
 40
17.500000
 49
13.000000
 49
-1.500000
 49
1.500000
 49
-1.500000
  0
LTYPE
  2
PHANTOM
 70
    64
  3
_____ _ _ _____ _ _ _____ _ _ _____ _ _ ____  
 72
    65
 73
     6
 40
15.500000
 49
8.000000
 49
-1.500000
 49
1.500000
 49
-1.500000
 49
1.500000
 49
-1.500000
  0
LTYPE
  2
DOT
 70
    64
  3
. . . . . . . . . . . . . . . . . . . . . . . .
 72
    65
 73
     2
 40
0.25
 49
0.0
 49
-0.25
  0
ENDTAB
  0
TABLE
  2
LAYER
 70
     1
  0
LAYER
  2
0
 70
     0
 62
     7
  6
CONTINUOUS
  0
ENDTAB
  0
TABLE
  2
STYLE
 70
     1
  0
STYLE
  2
STANDARD
 70
     0
 40
0.000000
 41
1.000000
 50
0.000000
 71
     0
 42
0.200000
  3
txt
  0
ENDTAB
  0
TABLE
  2
VIEW
 70
     0
  0
ENDTAB
  0
ENDSEC
  0
SECTION
  2
BLOCKS
  0
ENDSEC
  0
SECTION
  2
ENTITIES
  0
LINE
  8
0
  6
CONTINUOUS
 62
     3
 10
400
 20
-575
 11
1096
 21
-575
  0
LINE
  8
0
  6
CONTINUOUS
 62
     7
 10
828.705810546875
 20
-452.5955200195313
 11
868.9231567382813
 21
-463.3717346191406
  0
LINE
  8
0
  6
CONTINUOUS
 62
     7
 10
775
 20
-397.5
 11
775
 21
-674.9194946289063
  0
LINE
  8
0
  6
CONTINUOUS
 62
     7
 10
775
 20
-397.5
 11
810
 21
-397.5
  0
LINE
  8
0
  6
CONTINUOUS
 62
     7
 10
825
 20
-444.1954956054688
 11
825
 21
-705.8045043945312
  0
LINE
  8
0
  6
CONTINUOUS
 62
     7
 10
893
 20
-460
 11
893
 21
-690
  0
LINE
  8
0
  6
CONTINUOUS
 62
     7
 10
875
 20
-460
 11
875
 21
-690
  0
LINE
  8
0
  6
CONTINUOUS
 62
     7
 10
875
 20
-460
 11
893
 21
-460
  0
LINE
  8
0
  6
CONTINUOUS
 62
     7
 10
875
 20
-690
 11
893
 21
-690
  0
LINE
  8
0
  6
CONTINUOUS
 62
     7
 10
846.9903564453125
 20
-647.5
 11
872.5000610351562
 21
-662.22802734375
  0
LINE
  8
0
  6
CONTINUOUS
 62
     7
 10
830
 20
-647.5
 11
846.9903564453125
 21
-647.5
  0
LINE
  8
0
  6
CONTINUOUS
 62
     7
 10
807.0864868164062
 20
-713.1586303710937
 11
820.8682861328125
 21
-710.7285766601562
  0
LINE
  8
0
  6
CONTINUOUS
 62
     7
 10
797
 20
-397.5
 11
797
 21
-701.1380615234375
  0
LINE
  8
0
  6
CONTINUOUS
 62
     7
 10
810
 20
-397.5
 11
810
 21
-433.1596069335937
  0
LINE
  8
0
  6
CONTINUOUS
 62
     7
 10
830
 20
-502.5
 11
846.9903564453125
 21
-502.5
  0
LINE
  8
0
  6
CONTINUOUS
 62
     7
 10
846.9903564453125
 20
-502.5
 11
872.5
 21
-487.7720031738281
  0
LINE
  8
0
  6
CONTINUOUS
 62
     7
 10
825
 20
-571
 11
875
 21
-571
  0
LINE
  8
0
  6
CONTINUOUS
 62
     7
 10
825
 20
-579
 11
875
 21
-579
  0
LINE
  8
0
  6
CONTINUOUS
 62
     3
 10
792
 20
-370.8123168945313
 11
792
 21
-408.6688232421875
  0
LINE
  8
0
  6
CONTINUOUS
 62
     7
 10
801.1317138671875
 20
-435.7914123535156
 11
820.8682250976563
 21
-439.271484375
  0
LINE
  8
0
  6
CONTINUOUS
 62
     7
 10
828.7058715820313
 20
-697.4044189453125
 11
868.923095703125
 21
-686.6282348632812
  0
LINE
  8
0
  6
CONTINUOUS
 62
     7
 10
801.4823608398438
 20
-380.6600036621094
 11
782.5176391601562
 21
-380.6600036621094
  0
LINE
  8
0
  6
CONTINUOUS
 62
     7
 10
802.6937255859375
 20
-390.6600036621094
 11
781.3062744140625
 21
-390.6600036621094
  0
LINE
  8
0
  6
CONTINUOUS
 62
     7
 10
802.6937866210937
 20
-390.6599731445313
 11
802.47998046875
 21
-397.5
  0
LINE
  8
0
  6
CONTINUOUS
 62
     7
 10
781.3062133789063
 20
-390.6600036621094
 11
781.5199584960938
 21
-397.5
  0
LINE
  8
0
  6
CONTINUOUS
 62
     7
 10
801.4823608398438
 20
-380.6600036621094
 11
801.4823608398438
 21
-390.6600036621094
  0
LINE
  8
0
  6
CONTINUOUS
 62
     7
 10
782.5176391601562
 20
-380.6600036621094
 11
782.5176391601562
 21
-390.6600036621094
  0
LINE
  8
0
  6
CONTINUOUS
 62
     3
 10
792
 20
-380.6600341796875
 11
782.5176391601562
 21
-390.6600036621094
  0
LINE
  8
0
  6
CONTINUOUS
 62
     7
 10
792
 20
-380.6600036621094
 11
792
 21
-390.6600036621094
  0
LINE
  8
0
  6
CONTINUOUS
 62
     3
 10
792
 20
-390.6600341796875
 11
801.4823608398438
 21
-380.6600341796875
  0
LINE
  8
0
  6
CONTINUOUS
 62
     3
 10
801.4823608398438
 20
-390.6600036621094
 11
791.9999389648437
 21
-380.6599731445312
  0
LINE
  8
0
  6
CONTINUOUS
 62
     3
 10
782.5176391601562
 20
-380.6599426269531
 11
792
 21
-390.6599731445313
  0
LINE
  8
0
  6
CONTINUOUS
 62
     7
 10
897
 20
-457.5
 11
941
 21
-457.5
  0
LINE
  8
0
  6
CONTINUOUS
 62
     7
 10
897
 20
-692.5
 11
941
 21
-692.5
  0
LINE
  8
0
  6
CONTINUOUS
 62
     7
 10
897
 20
-686.4676513671875
 11
941
 21
-686.4676513671875
  0
LINE
  8
0
  6
CONTINUOUS
 62
     7
 10
893
 20
-461.5000305175781
 11
897.0000610351562
 21
-457.5000305175781
  0
LINE
  8
0
  6
CONTINUOUS
 62
     7
 10
940.9999389648438
 20
-457.5
 11
944.9999389648437
 21
-461.5
  0
LINE
  8
0
  6
CONTINUOUS
 62
     7
 10
945.0000610351563
 20
-688.5
 11
941.0000610351563
 21
-692.5
  0
LINE
  8
0
  6
CONTINUOUS
 62
     7
 10
897
 20
-692.5
 11
893
 21
-688.5
  0
LINE
  8
0
  6
CONTINUOUS
 62
     7
 10
897
 20
-500.0578002929687
 11
941
 21
-500.0578002929687
  0
LINE
  8
0
  6
CONTINUOUS
 62
     7
 10
897
 20
-513.7132568359375
 11
941
 21
-513.7132568359375
  0
LINE
  8
0
  6
CONTINUOUS
 62
     7
 10
897
 20
-522.4596557617187
 11
941
 21
-522.4596557617187
  0
LINE
  8
0
  6
CONTINUOUS
 62
     7
 10
897
 20
-537.8353271484375
 11
941
 21
-537.8353271484375
  0
LINE
  8
0
  6
CONTINUOUS
 62
     7
 10
897
 20
-547.447998046875
 11
941
 21
-547.447998046875
  0
LINE
  8
0
  6
CONTINUOUS
 62
     7
 10
897
 20
-564.00048828125
 11
941
 21
-564.00048828125
  0
LINE
  8
0
  6
CONTINUOUS
 62
     7
 10
897
 20
-586.0003051757812
 11
941
 21
-586.0003051757812
  0
LINE
  8
0
  6
CONTINUOUS
 62
     7
 10
897
 20
-602.5516357421875
 11
941
 21
-602.5516357421875
  0
LINE
  8
0
  6
CONTINUOUS
 62
     7
 10
897
 20
-612.1639404296875
 11
941
 21
-612.1639404296875
  0
LINE
  8
0
  6
CONTINUOUS
 62
     7
 10
897
 20
-627.5404052734375
 11
941
 21
-627.5404052734375
  0
LINE
  8
0
  6
CONTINUOUS
 62
     7
 10
897
 20
-636.2864379882813
 11
941
 21
-636.2864379882813
  0
LINE
  8
0
  6
CONTINUOUS
 62
     7
 10
897
 20
-649.94091796875
 11
941
 21
-649.94091796875
  0
LINE
  8
0
  6
CONTINUOUS
 62
     7
 10
897
 20
-665.4974365234375
 11
941
 21
-665.4974365234375
  0
LINE
  8
0
  6
CONTINUOUS
 62
     7
 10
897
 20
-675.2504272460938
 11
941
 21
-675.2504272460938
  0
LINE
  8
0
  6
CONTINUOUS
 62
     7
 10
897
 20
-680.0982055664062
 11
941
 21
-680.0982055664062
  0
LINE
  8
0
  6
CONTINUOUS
 62
     7
 10
700
 20
-395
 11
770
 21
-395
  0
LINE
  8
0
  6
CONTINUOUS
 62
     7
 10
695.0000610351563
 20
-400.0000305175781
 11
700.0000610351563
 21
-395.0000610351562
  0
LINE
  8
0
  6
CONTINUOUS
 62
     7
 10
770
 20
-395.0000305175781
 11
775
 21
-400
  0
LINE
  8
0
  6
CONTINUOUS
 62
     7
 10
709.0001220703125
 20
-385
 11
741.0000610351563
 21
-385
  0
LINE
  8
0
  6
CONTINUOUS
 62
     7
 10
705.3603515625
 20
-395
 11
709
 21
-385.0000305175781
  0
LINE
  8
0
  6
CONTINUOUS
 62
     7
 10
744.6397094726562
 20
-395
 11
741
 21
-384.9999694824219
  0
LINE
  8
0
  6
CONTINUOUS
 62
     7
 10
700
 20
-402.0777587890625
 11
770
 21
-402.0777587890625
  0
LINE
  8
0
  6
CONTINUOUS
 62
     7
 10
700
 20
-440.5732421875
 11
770
 21
-440.5732421875
  0
LINE
  8
0
  6
CONTINUOUS
 62
     7
 10
700
 20
-455.2942504882812
 11
770
 21
-455.2942504882812
  0
LINE
  8
0
  6
CONTINUOUS
 62
     7
 10
700
 20
-470.9463806152344
 11
770
 21
-470.9463806152344
  0
LINE
  8
0
  6
CONTINUOUS
 62
     7
 10
700
 20
-488.0659790039062
 11
770
 21
-488.0659790039062
  0
LINE
  8
0
  6
CONTINUOUS
 62
     7
 10
700
 20
-525.02099609375
 11
770
 21
-525.02099609375
  0
LINE
  8
0
  6
CONTINUOUS
 62
     7
 10
700
 20
-544.71923828125
 11
770
 21
-544.71923828125
  0
LINE
  8
0
  6
CONTINUOUS
 62
     7
 10
700
 20
-564.5905151367188
 11
770
 21
-564.5905151367188
  0
LINE
  8
0
  6
CONTINUOUS
 62
     7
 10
704.35302734375
 20
-585.4093627929688
 11
770
 21
-585.4093627929688
  0
LINE
  8
0
  6
CONTINUOUS
 62
     7
 10
716.566162109375
 20
-605.28076171875
 11
770
 21
-605.28076171875
  0
LINE
  8
0
  6
CONTINUOUS
 62
     7
 10
700
 20
-624.9788208007812
 11
770
 21
-624.9788208007812
  0
LINE
  8
0
  6
CONTINUOUS
 62
     7
 10
764.10400390625
 20
-661.9341430664062
 11
770
 21
-661.9341430664062
  0
LINE
  8
0
  6
CONTINUOUS
 62
     7
 10
712.5000610351562
 20
-382.0000305175781
 11
713.7955932617187
 21
-374.6527404785156
  0
LINE
  8
0
  6
CONTINUOUS
 62
     7
 10
736.2044677734375
 20
-374.6527099609375
 11
737.5
 21
-382.0000305175781
  0
LINE
  8
0
  6
CONTINUOUS
 62
     7
 10
715.76513671875
 20
-373
 11
734.23486328125
 21
-373
  0
LINE
  8
0
  6
CONTINUOUS
 62
     7
 10
715.341796875
 20
-373.0452880859375
 11
724.57666015625
 21
-371.0452880859375
  0
LINE
  8
0
  6
CONTINUOUS
 62
     7
 10
725.4234008789062
 20
-371.0453186035156
 11
734.658203125
 21
-373.0453186035156
  0
LINE
  8
0
  6
CONTINUOUS
 62
     7
 10
712.5
 20
-382
 11
712.5
 21
-385
  0
LINE
  8
0
  6
CONTINUOUS
 62
     7
 10
737.5
 20
-382.0000305175781
 11
737.5
 21
-385
  0
LINE
  8
0
  6
CONTINUOUS
 62
     7
 10
580
 20
-785
 11
945
 21
-785
  0
LINE
  8
0
  6
CONTINUOUS
 62
     7
 10
580
 20
-750
 11
650
 21
-750
  0
LINE
  8
0
  6
CONTINUOUS
 62
     7
 10
580
 20
-750
 11
580
 21
-785
  0
LINE
  8
0
  6
CONTINUOUS
 62
     7
 10
945
 20
-750
 11
945
 21
-785
  0
LINE
  8
0
  6
CONTINUOUS
 62
     7
 10
718.3955078125
 20
-607.4609985351562
 11
826.010498046875
 21
-735.7114868164062
  0
LINE
  8
0
  6
CONTINUOUS
 62
     7
 10
856.65234375
 20
-750
 11
945
 21
-750
  0
LINE
  8
0
  6
CONTINUOUS
 62
     3
 10
615
 20
-735
 11
615
 21
-800
  0
LINE
  8
0
  6
CONTINUOUS
 62
     3
 10
910
 20
-735
 11
910
 21
-800
  0
LINE
  8
0
  6
CONTINUOUS
 62
     7
 10
569
 20
-484.9999694824219
 11
569
 21
-665
  0
LINE
  8
0
  6
CONTINUOUS
 62
     7
 10
600
 20
-442.5
 11
600
 21
-707.5
  0
LINE
  8
0
  6
CONTINUOUS
 62
     7
 10
580
 20
-707.5
 11
603.2677001953125
 21
-707.5
  0
LINE
  8
0
  6
CONTINUOUS
 62
     7
 10
580
 20
-442.5
 11
630.0001220703125
 21
-442.5
  0
LINE
  8
0
  6
CONTINUOUS
 62
     7
 10
568.9999389648438
 20
-484.9999389648438
 11
580
 21
-473.9998779296875
  0
LINE
  8
0
  6
CONTINUOUS
 62
     7
 10
569
 20
-665
 11
580
 21
-676.0000610351563
  0
LINE
  8
0
  6
CONTINUOUS
 62
     7
 10
580
 20
-442.5
 11
580
 21
-707.5
  0
LINE
  8
0
  6
CONTINUOUS
 62
     7
 10
695
 20
-397.5
 11
695
 21
-543.1822509765625
  0
LINE
  8
0
  6
CONTINUOUS
 62
     7
 10
670
 20
-397.5
 11
670
 21
-730
  0
LINE
  8
0
  6
CONTINUOUS
 62
     7
 10
655
 20
-397.5
 11
695
 21
-397.5
  0
LINE
  8
0
  6
CONTINUOUS
 62
     7
 10
630.0001220703125
 20
-442.4999389648437
 11
656.3074340820312
 21
-440.1983337402344
  0
LINE
  8
0
  6
CONTINUOUS
 62
     3
 10
650
 20
-560
 11
650
 21
-590
  0
LINE
  8
0
  6
CONTINUOUS
 62
     3
 10
648
 20
-665
 11
648
 21
-695
  0
LINE
  8
0
  6
CONTINUOUS
 62
     3
 10
633
 20
-680
 11
663
 21
-680
  0
LINE
  8
0
  6
CONTINUOUS
 62
     7
 10
655
 20
-397.5
 11
655
 21
-433.9227294921875
  0
LINE
  8
0
  6
CONTINUOUS
 62
     7
 10
420
 20
-522.5
 11
420
 21
-622.5
  0
LINE
  8
0
  6
CONTINUOUS
 62
     7
 10
420
 20
-622.5
 11
560
 21
-622.5
  0
LINE
  8
0
  6
CONTINUOUS
 62
     7
 10
560
 20
-520
 11
560
 21
-630
  0
LINE
  8
0
  6
CONTINUOUS
 62
     7
 10
560
 20
-520
 11
569
 21
-520
  0
LINE
  8
0
  6
CONTINUOUS
 62
     7
 10
560
 20
-630
 11
569
 21
-630
  0
LINE
  8
0
  6
DASHED
 62
     7
 10
627.5
 20
-750
 11
627.5
 21
-785
  0
LINE
  8
0
  6
DASHED
 62
     7
 10
602.5
 20
-750
 11
602.5
 21
-785
  0
LINE
  8
0
  6
DASHED
 62
     7
 10
897.5
 20
-750
 11
897.5
 21
-785
  0
LINE
  8
0
  6
DASHED
 62
     7
 10
922.5
 20
-750
 11
922.5
 21
-785
  0
LINE
  8
0
  6
CONTINUOUS
 62
     7
 10
420
 20
-522.5
 11
530
 21
-522.5
  0
LINE
  8
0
  6
CONTINUOUS
 62
     7
 10
608.6178588867187
 20
-651.4981689453125
 11
604.4523315429688
 21
-699.1090087890625
  0
LINE
  8
0
  6
CONTINUOUS
 62
     7
 10
658.4852905273438
 20
-575
 11
650
 21
-566.5147094726563
  0
LINE
  8
0
  6
CONTINUOUS
 62
     7
 10
650
 20
-566.5147094726563
 11
641.5147094726562
 21
-575
  0
LINE
  8
0
  6
CONTINUOUS
 62
     7
 10
649.9999389648438
 20
-583.4852294921875
 11
641.5147094726562
 21
-575
  0
LINE
  8
0
  6
CONTINUOUS
 62
     7
 10
658.4852905273438
 20
-575
 11
650
 21
-583.4852905273438
  0
LINE
  8
0
  6
CONTINUOUS
 62
     7
 10
420
 20
-527.5
 11
560
 21
-527.5
  0
LINE
  8
0
  6
CONTINUOUS
 62
     7
 10
530
 20
-522.5
 11
530
 21
-527.5
  0
LINE
  8
0
  6
CONTINUOUS
 62
     3
 10
-222.1651763916016
 20
-575
 11
224.8161773681641
 21
-575
  0
LINE
  8
0
  6
CONTINUOUS
 62
     7
 10
49.97892379760742
 20
-402.0777282714844
 11
48.89375686645508
 21
-403.201416015625
  0
LINE
  8
0
  6
CONTINUOUS
 62
     7
 10
-49.97900390625
 20
-402.0777893066406
 11
-48.89386749267578
 21
-403.2014465332031
  0
LINE
  8
0
  6
CONTINUOUS
 62
     7
 10
-30.85337448120117
 20
-399.7517700195312
 11
-29.99990653991699
 21
-397.5175476074219
  0
LINE
  8
0
  6
CONTINUOUS
 62
     7
 10
30.85335731506348
 20
-399.7517700195312
 11
29.99992179870605
 21
-397.5176391601562
  0
LINE
  8
0
  6
CONTINUOUS
 62
     7
 10
-15.99993896484375
 20
-385
 11
16.00006103515625
 21
-385
  0
LINE
  8
0
  6
CONTINUOUS
 62
     7
 10
20.04730415344238
 20
-396.1197814941406
 11
16.00003051757812
 21
-385
  0
LINE
  8
0
  6
CONTINUOUS
 62
     7
 10
-20.04730033874512
 20
-396.119873046875
 11
-16.0000057220459
 21
-385.0000305175781
  0
LINE
  8
0
  6
CONTINUOUS
 62
     7
 10
11.11705207824707
 20
-374.1569519042969
 11
12.50000667572021
 21
-382.0000610351563
  0
LINE
  8
0
  6
CONTINUOUS
 62
     7
 10
4.999973773956299
 20
-371.9976806640625
 11
10.0199556350708
 21
-373.0286560058594
  0
LINE
  8
0
  6
CONTINUOUS
 62
     7
 10
5
 20
-336
 11
5
 21
-379.2000122070312
  0
LINE
  8
0
  6
CONTINUOUS
 62
     7
 10
-11.11707019805908
 20
-374.1568908691406
 11
-12.50002384185791
 21
-382.0000305175781
  0
LINE
  8
0
  6
CONTINUOUS
 62
     7
 10
-4.99997091293335
 20
-371.9976196289062
 11
-10.01995277404785
 21
-373.0285949707031
  0
LINE
  8
0
  6
CONTINUOUS
 62
     7
 10
-5
 20
-336
 11
-5
 21
-379.2000122070312
  0
LINE
  8
0
  6
CONTINUOUS
 62
     7
 10
12.5
 20
-382.0000305175781
 11
12.5
 21
-385
  0
LINE
  8
0
  6
CONTINUOUS
 62
     7
 10
-12.5
 20
-382
 11
-12.5
 21
-385
  0
LINE
  8
0
  6
CONTINUOUS
 62
     3
 10
0
 20
-322.3901062011719
 11
0
 21
-805
  0
LINE
  8
0
  6
CONTINUOUS
 62
     3
 10
51.24958419799805
 20
-486.2320861816406
 11
66.24959564208984
 21
-460.2513122558594
  0
LINE
  8
0
  6
CONTINUOUS
 62
     3
 10
-51.25073623657227
 20
-486.2328186035156
 11
-66.25076293945313
 21
-460.2519836425781
  0
LINE
  8
0
  6
CONTINUOUS
 62
     3
 10
-51.25021362304688
 20
-663.767333984375
 11
-66.250244140625
 21
-689.7481689453125
  0
LINE
  8
0
  6
CONTINUOUS
 62
     3
 10
51.24927139282227
 20
-663.767822265625
 11
66.24932861328125
 21
-689.7487182617187
  0
LINE
  8
0
  6
CONTINUOUS
 62
     7
 10
212.5
 20
-610
 11
212.5
 21
-785
  0
LINE
  8
0
  6
CONTINUOUS
 62
     7
 10
-212.5
 20
-610
 11
-212.5
 21
-785
  0
LINE
  8
0
  6
CONTINUOUS
 62
     7
 10
-212.5
 20
-785
 11
-102.5
 21
-785
  0
LINE
  8
0
  6
CONTINUOUS
 62
     7
 10
-212.5
 20
-750
 11
-102.5
 21
-750
  0
LINE
  8
0
  6
CONTINUOUS
 62
     3
 10
-175
 20
-735
 11
-175
 21
-800
  0
LINE
  8
0
  6
CONTINUOUS
 62
     3
 10
175
 20
-735
 11
175
 21
-800
  0
LINE
  8
0
  6
CONTINUOUS
 62
     7
 10
-102.5
 20
-750
 11
-102.5
 21
-785
  0
LINE
  8
0
  6
CONTINUOUS
 62
     7
 10
102.5
 20
-750
 11
102.5
 21
-785
  0
LINE
  8
0
  6
CONTINUOUS
 62
     7
 10
-94.5
 20
-760
 11
-33
 21
-760
  0
LINE
  8
0
  6
CONTINUOUS
 62
     7
 10
-99.5
 20
-780
 11
99.5
 21
-780
  0
LINE
  8
0
  6
CONTINUOUS
 62
     7
 10
102.5
 20
-785
 11
212.5
 21
-785
  0
LINE
  8
0
  6
CONTINUOUS
 62
     7
 10
102.5
 20
-750
 11
212.5
 21
-750
  0
LINE
  8
0
  6
CONTINUOUS
 62
     7
 10
102.4995651245117
 20
-750.0001220703125
 11
93.20899963378906
 21
-697.3106689453125
  0
LINE
  8
0
  6
CONTINUOUS
 62
     7
 10
122.6533889770508
 20
-737.6047973632813
 11
120.0000152587891
 21
-722.5567626953125
  0
LINE
  8
0
  6
CONTINUOUS
 62
     7
 10
-122.6534652709961
 20
-737.6048583984375
 11
-120.0000076293945
 21
-722.5563354492188
  0
LINE
  8
0
  6
CONTINUOUS
 62
     7
 10
-120
 20
-634.42431640625
 11
-120
 21
-722.5543823242188
  0
LINE
  8
0
  6
CONTINUOUS
 62
     7
 10
120
 20
-634.42431640625
 11
120
 21
-722.5545043945312
  0
LINE
  8
0
  6
CONTINUOUS
 62
     3
 10
136.2721099853516
 20
-518.5538940429688
 11
163.9885559082031
 21
-507.0733642578125
  0
LINE
  8
0
  6
CONTINUOUS
 62
     3
 10
56.44467926025391
 20
-438.7272338867188
 11
67.9251708984375
 21
-411.0108642578125
  0
LINE
  8
0
  6
CONTINUOUS
 62
     3
 10
-56.44672012329102
 20
-438.7279968261719
 11
-67.92724609375
 21
-411.0115661621094
  0
LINE
  8
0
  6
CONTINUOUS
 62
     3
 10
-136.2722473144531
 20
-518.5546875
 11
-163.988525390625
 21
-507.0742492675781
  0
LINE
  8
0
  6
CONTINUOUS
 62
     3
 10
-136.2725982666016
 20
-631.4451293945313
 11
-163.9889221191406
 21
-642.9255981445312
  0
LINE
  8
0
  6
CONTINUOUS
 62
     3
 10
-56.44815444946289
 20
-711.2713623046875
 11
-67.92866516113281
 21
-738.9877319335938
  0
LINE
  8
0
  6
CONTINUOUS
 62
     3
 10
56.44288635253906
 20
-711.2734985351562
 11
67.92338562011719
 21
-738.9898681640625
  0
LINE
  8
0
  6
CONTINUOUS
 62
     3
 10
136.2715454101563
 20
-631.4467163085938
 11
163.9879760742187
 21
-642.92724609375
  0
LINE
  8
0
  6
CONTINUOUS
 62
     7
 10
-19.364990234375
 20
-402.9978332519531
 11
-19.364990234375
 21
-431.55908203125
  0
LINE
  8
0
  6
CONTINUOUS
 62
     7
 10
19.36492919921875
 20
-402.9978332519531
 11
19.36492919921875
 21
-431.55908203125
  0
LINE
  8
0
  6
CONTINUOUS
 62
     7
 10
-102.5000228881836
 20
-750
 11
-93.20937347412109
 21
-697.3106079101563
  0
LINE
  8
0
  6
DASHED
 62
     7
 10
-162.5
 20
-750
 11
-162.5
 21
-785
  0
LINE
  8
0
  6
DASHED
 62
     7
 10
-187.5
 20
-750
 11
-187.5
 21
-785
  0
LINE
  8
0
  6
DASHED
 62
     7
 10
187.5
 20
-750
 11
187.5
 21
-785
  0
LINE
  8
0
  6
DASHED
 62
     7
 10
162.5
 20
-750
 11
162.5
 21
-785
  0
LINE
  8
0
  6
CONTINUOUS
 62
     7
 10
-12.5
 20
-522.5
 11
12.5
 21
-522.5
  0
LINE
  8
0
  6
CONTINUOUS
 62
     7
 10
-12.5
 20
-536.5
 11
12.5
 21
-536.5
  0
LINE
  8
0
  6
CONTINUOUS
 62
     7
 10
12.5
 20
-522.5
 11
12.5
 21
-536.5
  0
LINE
  8
0
  6
CONTINUOUS
 62
     7
 10
-12.5
 20
-522.5
 11
-12.5
 21
-536.5
  0
LINE
  8
0
  6
CONTINUOUS
 62
     7
 10
33
 20
-760
 11
94.5
 21
-760
  0
LINE
  8
0
  6
CONTINUOUS
 62
     7
 10
147.1500244140625
 20
-583.071044921875
 11
147.1500244140625
 21
-566.928955078125
  0
LINE
  8
0
  6
CONTINUOUS
 62
     7
 10
138.1500244140625
 20
-583.507568359375
 11
138.1500244140625
 21
-566.492431640625
  0
LINE
  8
0
  6
CONTINUOUS
 62
     7
 10
138.1499938964844
 20
-583.507568359375
 11
132.2383880615234
 21
-583.3228149414062
  0
LINE
  8
0
  6
CONTINUOUS
 62
     7
 10
138.1499938964844
 20
-566.4923706054687
 11
132.2383422851562
 21
-566.6771240234375
  0
LINE
  8
0
  6
CONTINUOUS
 62
     7
 10
147.1500244140625
 20
-583.071044921875
 11
138.1500244140625
 21
-583.071044921875
  0
LINE
  8
0
  6
CONTINUOUS
 62
     7
 10
147.1500244140625
 20
-566.928955078125
 11
138.1500244140625
 21
-566.928955078125
  0
LINE
  8
0
  6
CONTINUOUS
 62
     3
 10
138.1500244140625
 20
-575
 11
147.1500091552734
 21
-566.9288940429687
  0
LINE
  8
0
  6
CONTINUOUS
 62
     3
 10
138.1500854492187
 20
-566.928955078125
 11
147.1500854492188
 21
-575.0000610351563
  0
LINE
  8
0
  6
CONTINUOUS
 62
     3
 10
147.1500244140625
 20
-575
 11
138.1500244140625
 21
-583.071044921875
  0
LINE
  8
0
  6
CONTINUOUS
 62
     3
 10
138.1500244140625
 20
-575
 11
147.1500244140625
 21
-583.071044921875
  0
LINE
  8
0
  6
CONTINUOUS
 62
     7
 10
147.1500244140625
 20
-575
 11
138.1500244140625
 21
-575
  0
LINE
  8
0
  6
CONTINUOUS
 62
     3
 10
400
 20
0
 11
1072
 21
0
  0
LINE
  8
0
  6
CONTINUOUS
 62
     7
 10
775
 20
177.5000152587891
 11
775
 21
-177.4999847412109
  0
LINE
  8
0
  6
CONTINUOUS
 62
     7
 10
775
 20
-177.5
 11
797
 21
-177.5
  0
LINE
  8
0
  6
CONTINUOUS
 62
     7
 10
775
 20
177.5
 11
797
 21
177.5
  0
LINE
  8
0
  6
CONTINUOUS
 62
     7
 10
825
 20
130.8045196533203
 11
825
 21
-130.8044891357422
  0
LINE
  8
0
  6
CONTINUOUS
 62
     7
 10
893
 20
115.0000152587891
 11
893
 21
-114.9999847412109
  0
LINE
  8
0
  6
CONTINUOUS
 62
     7
 10
875
 20
115.0000152587891
 11
875
 21
-114.9999847412109
  0
LINE
  8
0
  6
CONTINUOUS
 62
     7
 10
875
 20
115
 11
893
 21
115
  0
LINE
  8
0
  6
CONTINUOUS
 62
     7
 10
875
 20
-115
 11
893
 21
-115
  0
LINE
  8
0
  6
CONTINUOUS
 62
     7
 10
846.9903564453125
 20
-72.49999237060547
 11
872.5
 21
-87.22798919677734
  0
LINE
  8
0
  6
CONTINUOUS
 62
     7
 10
830
 20
-72.5
 11
846.9904174804687
 21
-72.5
  0
LINE
  8
0
  6
CONTINUOUS
 62
     7
 10
801.1317749023438
 20
-139.2087097167969
 11
820.8682861328125
 21
-135.7286224365234
  0
LINE
  8
0
  6
CONTINUOUS
 62
     7
 10
797
 20
177.5000152587891
 11
797
 21
27.2213249206543
  0
LINE
  8
0
  6
CONTINUOUS
 62
     7
 10
830
 20
72.5
 11
846.9903564453125
 21
72.5
  0
LINE
  8
0
  6
CONTINUOUS
 62
     7
 10
846.9903564453125
 20
72.50012969970703
 11
872.5
 21
87.22812652587891
  0
LINE
  8
0
  6
CONTINUOUS
 62
     7
 10
825
 20
4
 11
875
 21
4
  0
LINE
  8
0
  6
CONTINUOUS
 62
     7
 10
825
 20
-4
 11
875
 21
-4
  0
LINE
  8
0
  6
CONTINUOUS
 62
     7
 10
801.1318359375
 20
139.2084808349609
 11
820.8682861328125
 21
135.7284240722656
  0
LINE
  8
0
  6
CONTINUOUS
 62
     3
 10
792
 20
15.00001049041748
 11
792
 21
-14.99998950958252
  0
LINE
  8
0
  6
CONTINUOUS
 62
     7
 10
797
 20
-27.2213020324707
 11
797
 21
-177.4999847412109
  0
LINE
  8
0
  6
CONTINUOUS
 62
     7
 10
828.705810546875
 20
122.4044418334961
 11
868.9231567382813
 21
111.6282424926758
  0
LINE
  8
0
  6
CONTINUOUS
 62
     7
 10
828.7058715820313
 20
-122.4045028686523
 11
868.9231567382813
 21
-111.6283187866211
  0
LINE
  8
0
  6
CONTINUOUS
 62
     7
 10
792.0000610351562
 20
9.899447441101074
 11
782.1005249023437
 21
-8.869392331689596E-05
  0
LINE
  8
0
  6
CONTINUOUS
 62
     7
 10
782.1006469726563
 20
-5.573085582000203E-05
 11
792.0001220703125
 21
-9.899552345275879
  0
LINE
  8
0
  6
CONTINUOUS
 62
     7
 10
792
 20
-9.899422645568848
 11
801.8994750976562
 21
7.12408873368986E-05
  0
LINE
  8
0
  6
CONTINUOUS
 62
     7
 10
801.8995361328125
 20
-9.360835974803194E-06
 11
792.0000610351562
 21
9.899441719055176
  0
LINE
  8
0
  6
CONTINUOUS
 62
     7
 10
897
 20
117.5
 11
941
 21
117.5
  0
LINE
  8
0
  6
CONTINUOUS
 62
     7
 10
897
 20
-117.5
 11
941
 21
-117.5
  0
LINE
  8
0
  6
CONTINUOUS
 62
     7
 10
897
 20
-111.4677734375
 11
941
 21
-111.4677734375
  0
LINE
  8
0
  6
CONTINUOUS
 62
     7
 10
893.0000610351562
 20
113.4999465942383
 11
897.0000610351562
 21
117.4999542236328
  0
LINE
  8
0
  6
CONTINUOUS
 62
     7
 10
940.9998168945312
 20
117.4999160766602
 11
944.9998168945312
 21
113.4999084472656
  0
LINE
  8
0
  6
CONTINUOUS
 62
     7
 10
945.0000610351563
 20
-113.5000534057617
 11
941.0000610351563
 21
-117.5000610351563
  0
LINE
  8
0
  6
CONTINUOUS
 62
     7
 10
897.0000610351562
 20
-117.4997940063477
 11
893.0000610351562
 21
-113.4997711181641
  0
LINE
  8
0
  6
CONTINUOUS
 62
     7
 10
897
 20
111.4676513671875
 11
941
 21
111.4676513671875
  0
LINE
  8
0
  6
CONTINUOUS
 62
     7
 10
897
 20
105.0982666015625
 11
941
 21
105.0982666015625
  0
LINE
  8
0
  6
CONTINUOUS
 62
     7
 10
897
 20
100.2501831054688
 11
941
 21
100.2501831054688
  0
LINE
  8
0
  6
CONTINUOUS
 62
     7
 10
897
 20
90.495849609375
 11
941
 21
90.495849609375
  0
LINE
  8
0
  6
CONTINUOUS
 62
     7
 10
897
 20
74.94110107421875
 11
941
 21
74.94110107421875
  0
LINE
  8
0
  6
CONTINUOUS
 62
     7
 10
897
 20
61.28466796875
 11
941
 21
61.28466796875
  0
LINE
  8
0
  6
CONTINUOUS
 62
     7
 10
897
 20
52.53948974609375
 11
941
 21
52.53948974609375
  0
LINE
  8
0
  6
CONTINUOUS
 62
     7
 10
897
 20
37.16400146484375
 11
941
 21
37.16400146484375
  0
LINE
  8
0
  6
CONTINUOUS
 62
     7
 10
897
 20
27.5504150390625
 11
941
 21
27.5504150390625
  0
LINE
  8
0
  6
CONTINUOUS
 62
     7
 10
897
 20
10.99951171875
 11
941
 21
10.99951171875
  0
LINE
  8
0
  6
CONTINUOUS
 62
     7
 10
897
 20
-90.497802734375
 11
941
 21
-90.497802734375
  0
LINE
  8
0
  6
CONTINUOUS
 62
     7
 10
897
 20
-100.250732421875
 11
941
 21
-100.250732421875
  0
LINE
  8
0
  6
CONTINUOUS
 62
     7
 10
897
 20
-105.098876953125
 11
941
 21
-105.098876953125
  0
LINE
  8
0
  6
CONTINUOUS
 62
     7
 10
700
 20
-180
 11
770
 21
-180
  0
LINE
  8
0
  6
CONTINUOUS
 62
     7
 10
700
 20
180
 11
770
 21
180
  0
LINE
  8
0
  6
CONTINUOUS
 62
     7
 10
695.0001831054687
 20
174.9998168945313
 11
700.0001831054688
 21
179.9998016357422
  0
LINE
  8
0
  6
CONTINUOUS
 62
     7
 10
769.9999389648438
 20
179.9999084472656
 11
774.9999389648438
 21
174.9999237060547
  0
LINE
  8
0
  6
CONTINUOUS
 62
     7
 10
695
 20
-175.0000152587891
 11
700.0000610351563
 21
-180.0000457763672
  0
LINE
  8
0
  6
CONTINUOUS
 62
     7
 10
769.9999389648438
 20
-179.9999084472656
 11
774.9999389648438
 21
-174.9998931884766
  0
LINE
  8
0
  6
CONTINUOUS
 62
     7
 10
700
 20
172.9221801757813
 11
770
 21
172.9221801757813
  0
LINE
  8
0
  6
CONTINUOUS
 62
     7
 10
700
 20
157.6149291992188
 11
770
 21
157.6149291992188
  0
LINE
  8
0
  6
CONTINUOUS
 62
     7
 10
700
 20
146.8772583007812
 11
770
 21
146.8772583007812
  0
LINE
  8
0
  6
CONTINUOUS
 62
     7
 10
700
 20
134.4267578125
 11
770
 21
134.4267578125
  0
LINE
  8
0
  6
CONTINUOUS
 62
     7
 10
700
 20
119.7057495117187
 11
770
 21
119.7057495117187
  0
LINE
  8
0
  6
CONTINUOUS
 62
     7
 10
700
 20
49.97906494140625
 11
770
 21
49.97906494140625
  0
LINE
  8
0
  6
CONTINUOUS
 62
     7
 10
700
 20
29.99993896484375
 11
770
 21
29.99993896484375
  0
LINE
  8
0
  6
CONTINUOUS
 62
     7
 10
700
 20
-29.99993896484375
 11
770
 21
-29.99993896484375
  0
LINE
  8
0
  6
CONTINUOUS
 62
     7
 10
700
 20
-49.97900390625
 11
770
 21
-49.97900390625
  0
LINE
  8
0
  6
CONTINUOUS
 62
     7
 10
700
 20
-119.7056274414063
 11
770
 21
-119.7056274414063
  0
LINE
  8
0
  6
CONTINUOUS
 62
     7
 10
700
 20
-134.4266357421875
 11
770
 21
-134.4266357421875
  0
LINE
  8
0
  6
CONTINUOUS
 62
     7
 10
700
 20
-146.8770446777344
 11
770
 21
-146.8770446777344
  0
LINE
  8
0
  6
CONTINUOUS
 62
     7
 10
700
 20
-157.6150207519531
 11
770
 21
-157.6150207519531
  0
LINE
  8
0
  6
CONTINUOUS
 62
     7
 10
700
 20
-172.9222412109375
 11
770
 21
-172.9222412109375
  0
LINE
  8
0
  6
CONTINUOUS
 62
     7
 10
705
 20
5
 11
745
 21
5
  0
LINE
  8
0
  6
CONTINUOUS
 62
     7
 10
705
 20
-5
 11
745
 21
-5
  0
LINE
  8
0
  6
CONTINUOUS
 62
     7
 10
569
 20
90.00000762939453
 11
569
 21
-89.99999237060547
  0
LINE
  8
0
  6
CONTINUOUS
 62
     7
 10
600
 20
132.5
 11
600
 21
-132.5
  0
LINE
  8
0
  6
CONTINUOUS
 62
     7
 10
580
 20
-132.5
 11
629.9988403320312
 21
-132.5
  0
LINE
  8
0
  6
CONTINUOUS
 62
     7
 10
580
 20
132.5
 11
630.0000610351563
 21
132.5
  0
LINE
  8
0
  6
CONTINUOUS
 62
     7
 10
568.9999389648438
 20
90.00011444091797
 11
580
 21
101.0001525878906
  0
LINE
  8
0
  6
CONTINUOUS
 62
     7
 10
569
 20
-90.00003051757813
 11
580
 21
-101.0000228881836
  0
LINE
  8
0
  6
CONTINUOUS
 62
     7
 10
580
 20
197.5
 11
580
 21
136.1569213867187
  0
LINE
  8
0
  6
CONTINUOUS
 62
     7
 10
695
 20
194.5000152587891
 11
695
 21
-194.4999847412109
  0
LINE
  8
0
  6
CONTINUOUS
 62
     7
 10
670
 20
212.5
 11
670
 21
25.98078155517578
  0
LINE
  8
0
  6
CONTINUOUS
 62
     7
 10
630.0000610351563
 20
132.500244140625
 11
656.307373046875
 21
134.8018341064453
  0
LINE
  8
0
  6
CONTINUOUS
 62
     7
 10
629.9989013671875
 20
-132.4999389648437
 11
656.3074340820312
 21
-134.8016357421875
  0
LINE
  8
0
  6
CONTINUOUS
 62
     7
 10
945
 20
197.5000152587891
 11
945
 21
140.2745513916016
  0
LINE
  8
0
  6
CONTINUOUS
 62
     7
 10
595
 20
-212.5
 11
930
 21
-212.5
  0
LINE
  8
0
  6
CONTINUOUS
 62
     7
 10
595
 20
212.5
 11
930
 21
212.5
  0
LINE
  8
0
  6
CONTINUOUS
 62
     7
 10
945
 20
-140.2745208740234
 11
945
 21
-197.4999847412109
  0
LINE
  8
0
  6
CONTINUOUS
 62
     7
 10
860.5333862304688
 20
113.8762893676758
 11
932.3886108398437
 21
125.4658279418945
  0
LINE
  8
0
  6
CONTINUOUS
 62
     7
 10
860.5328369140625
 20
-113.8765106201172
 11
932.3884887695313
 21
-125.4661331176758
  0
LINE
  8
0
  6
CONTINUOUS
 62
     7
 10
670
 20
-25.98076629638672
 11
670
 21
-212.5
  0
LINE
  8
0
  6
CONTINUOUS
 62
     3
 10
910
 20
195.0000152587891
 11
910
 21
155.0000152587891
  0
LINE
  8
0
  6
CONTINUOUS
 62
     3
 10
615
 20
195
 11
615
 21
155
  0
LINE
  8
0
  6
CONTINUOUS
 62
     3
 10
595
 20
-175
 11
635
 21
-175
  0
LINE
  8
0
  6
CONTINUOUS
 62
     3
 10
595
 20
175
 11
635
 21
175
  0
LINE
  8
0
  6
CONTINUOUS
 62
     3
 10
615
 20
-155
 11
615
 21
-195
  0
LINE
  8
0
  6
CONTINUOUS
 62
     3
 10
910
 20
-154.9999847412109
 11
910
 21
-194.9999847412109
  0
LINE
  8
0
  6
CONTINUOUS
 62
     3
 10
890
 20
175
 11
930
 21
175
  0
LINE
  8
0
  6
CONTINUOUS
 62
     3
 10
890
 20
-175
 11
930
 21
-175
  0
LINE
  8
0
  6
CONTINUOUS
 62
     7
 10
420
 20
47.5
 11
420
 21
-47.5
  0
LINE
  8
0
  6
CONTINUOUS
 62
     7
 10
560
 20
55.00000381469727
 11
560
 21
-54.99999618530273
  0
LINE
  8
0
  6
CONTINUOUS
 62
     7
 10
560
 20
55
 11
569
 21
55
  0
LINE
  8
0
  6
CONTINUOUS
 62
     7
 10
560
 20
-55
 11
569
 21
-55
  0
LINE
  8
0
  6
CONTINUOUS
 62
     7
 10
420
 20
47.5
 11
560
 21
47.5
  0
LINE
  8
0
  6
CONTINUOUS
 62
     7
 10
420
 20
-47.5
 11
560
 21
-47.5
  0
LINE
  8
0
  6
CONTINUOUS
 62
     7
 10
420
 20
12.5
 11
537.5
 21
12.5
  0
LINE
  8
0
  6
CONTINUOUS
 62
     7
 10
420
 20
-12.5
 11
537.5
 21
-12.5
  0
LINE
  8
0
  6
CONTINUOUS
 62
     7
 10
580
 20
132.5
 11
580
 21
-132.5
  0
LINE
  8
0
  6
CONTINUOUS
 62
     7
 10
580
 20
-136.0249633789063
 11
580
 21
-197.5
  0
LINE
  8
0
  6
CONTINUOUS
 62
     7
 10
695
 20
-194.5
 11
830
 21
-194.5
  0
LINE
  8
0
  6
CONTINUOUS
 62
     7
 10
695
 20
194.5
 11
830
 21
194.5
  0
LINE
  8
0
  6
CONTINUOUS
 62
     3
 10
650
 20
-123.742301940918
 11
650
 21
-152.74560546875
  0
LINE
  8
0
  6
CONTINUOUS
 62
     7
 10
641.928955078125
 20
-147.1500244140625
 11
658.0711059570312
 21
-147.1500244140625
  0
LINE
  8
0
  6
CONTINUOUS
 62
     7
 10
641.492431640625
 20
-138.1500244140625
 11
658.507568359375
 21
-138.1500244140625
  0
LINE
  8
0
  6
CONTINUOUS
 62
     7
 10
641.492431640625
 20
-138.1500396728516
 11
641.6371459960937
 21
-133.5182037353516
  0
LINE
  8
0
  6
CONTINUOUS
 62
     7
 10
658.507568359375
 20
-138.1500244140625
 11
658.4133911132813
 21
-135.1381378173828
  0
LINE
  8
0
  6
CONTINUOUS
 62
     7
 10
641.9288940429688
 20
-147.1500244140625
 11
641.9288940429688
 21
-138.1500244140625
  0
LINE
  8
0
  6
CONTINUOUS
 62
     7
 10
658.071044921875
 20
-147.1500244140625
 11
658.071044921875
 21
-138.1500244140625
  0
LINE
  8
0
  6
CONTINUOUS
 62
     3
 10
650.0000610351562
 20
-138.1499938964844
 11
658.0711059570312
 21
-147.1499938964844
  0
LINE
  8
0
  6
CONTINUOUS
 62
     3
 10
658.0711059570312
 20
-138.1499786376953
 11
650
 21
-147.1499938964844
  0
LINE
  8
0
  6
CONTINUOUS
 62
     7
 10
650
 20
-147.1500244140625
 11
650
 21
-138.1500244140625
  0
LINE
  8
0
  6
CONTINUOUS
 62
     3
 10
650
 20
-138.1500549316406
 11
641.928955078125
 21
-147.1500549316406
  0
LINE
  8
0
  6
CONTINUOUS
 62
     3
 10
650
 20
-147.1499938964844
 11
641.9288940429688
 21
-138.1499938964844
  0
LINE
  8
0
  6
CONTINUOUS
 62
     7
 10
530
 20
12.50000286102295
 11
530
 21
-12.49999713897705
  0
LINE
  8
0
  6
CONTINUOUS
 62
     7
 10
946.0000610351562
 20
-689.9998779296875
 11
945.0000610351563
 21
-688.9999389648438
  0
LINE
  8
0
  6
CONTINUOUS
 62
     7
 10
945.0001220703125
 20
-113.9999923706055
 11
946.0001220703125
 21
-114.9999694824219
  0
LINE
  8
0
  6
CONTINUOUS
 62
     7
 10
945.0001220703125
 20
-114
 11
945.0001220703125
 21
-4.00006103515625
  0
LINE
  8
0
  6
CONTINUOUS
 62
     7
 10
946.0001220703125
 20
114.9999694824219
 11
945.0001220703125
 21
113.9999923706055
  0
LINE
  8
0
  6
CONTINUOUS
 62
     7
 10
945.0001220703125
 20
114
 11
945.0001220703125
 21
3.9998779296875
  0
LINE
  8
0
  6
CONTINUOUS
 62
     7
 10
926.326171875
 20
-575
 11
1097.560546875
 21
-575
  0
LINE
  8
0
  6
CONTINUOUS
 62
     7
 10
945
 20
-460
 11
945
 21
-688.5000610351562
  0
LINE
  8
0
  6
CONTINUOUS
 62
     7
 10
1083
 20
-425
 11
1083
 21
-725
  0
LINE
  8
0
  6
CONTINUOUS
 62
     7
 10
1061
 20
-425
 11
1061
 21
-725
  0
LINE
  8
0
  6
CONTINUOUS
 62
     7
 10
1061
 20
-725
 11
1083
 21
-725
  0
LINE
  8
0
  6
CONTINUOUS
 62
     7
 10
1061
 20
-425
 11
1083
 21
-425
  0
LINE
  8
0
  6
CONTINUOUS
 62
     7
 10
963
 20
-466.1436462402344
 11
963
 21
-690
  0
LINE
  8
0
  6
CONTINUOUS
 62
     7
 10
946.0001831054688
 20
-690
 11
963
 21
-690
  0
LINE
  8
0
  6
CONTINUOUS
 62
     7
 10
963
 20
-651.6707763671875
 11
1061
 21
-651.6707763671875
  0
LINE
  8
0
  6
CONTINUOUS
 62
     7
 10
968
 20
-512.4822387695313
 11
1056
 21
-512.4822387695313
  0
LINE
  8
0
  6
CONTINUOUS
 62
     7
 10
968
 20
-637.5177612304688
 11
1056
 21
-637.5177612304688
  0
LINE
  8
0
  6
CONTINUOUS
 62
     7
 10
1020
 20
-482.5
 11
1056
 21
-482.5
  0
LINE
  8
0
  6
CONTINUOUS
 62
     7
 10
960
 20
-412.8382568359375
 11
960
 21
-466.0538330078125
  0
LINE
  8
0
  6
CONTINUOUS
 62
     7
 10
1015.000122070313
 20
20.45000076293945
 11
1015.000122070313
 21
-20.45000076293945
  0
LINE
  8
0
  6
CONTINUOUS
 62
     7
 10
1005.071044921875
 20
-445.3500061035156
 11
988.928955078125
 21
-445.3500061035156
  0
LINE
  8
0
  6
CONTINUOUS
 62
     7
 10
945
 20
-460
 11
1015
 21
-460
  0
LINE
  8
0
  6
CONTINUOUS
 62
     7
 10
936.516845703125
 20
-436.5
 11
982.797607421875
 21
-436.5
  0
LINE
  8
0
  6
CONTINUOUS
 62
     7
 10
1005.507568359375
 20
-454.3500061035156
 11
1005.330993652344
 21
-460
  0
LINE
  8
0
  6
CONTINUOUS
 62
     7
 10
1005.507568359375
 20
-454.3500061035156
 11
988.492431640625
 21
-454.3500061035156
  0
LINE
  8
0
  6
CONTINUOUS
 62
     7
 10
963
 20
-498.3292236328125
 11
1061
 21
-498.3292236328125
  0
LINE
  8
0
  6
CONTINUOUS
 62
     7
 10
963
 20
-492.67236328125
 11
1061
 21
-492.67236328125
  0
LINE
  8
0
  6
CONTINUOUS
 62
     7
 10
963
 20
-657.32763671875
 11
1061
 21
-657.32763671875
  0
LINE
  8
0
  6
CONTINUOUS
 62
     7
 10
968
 20
-667.5
 11
1056
 21
-667.5
  0
LINE
  8
0
  6
CONTINUOUS
 62
     7
 10
997
 20
-442.0035400390625
 11
997
 21
-463.9527587890625
  0
LINE
  8
0
  6
CONTINUOUS
 62
     7
 10
926.3262939453125
 20
0
 11
1097.560668945312
 21
0
  0
LINE
  8
0
  6
CONTINUOUS
 62
     7
 10
945.0001220703125
 20
115
 11
945.0001220703125
 21
4
  0
LINE
  8
0
  6
CONTINUOUS
 62
     7
 10
1083.000122070313
 20
150
 11
1083.000122070313
 21
-150
  0
LINE
  8
0
  6
CONTINUOUS
 62
     7
 10
1061.000122070313
 20
150
 11
1061.000122070313
 21
-150
  0
LINE
  8
0
  6
CONTINUOUS
 62
     7
 10
1061.000122070313
 20
-150
 11
1083.000122070313
 21
-150
  0
LINE
  8
0
  6
CONTINUOUS
 62
     7
 10
1061.000122070313
 20
150
 11
1083.000122070313
 21
150
  0
LINE
  8
0
  6
CONTINUOUS
 62
     7
 10
963.0001220703125
 20
115
 11
963.0001220703125
 21
25
  0
LINE
  8
0
  6
CONTINUOUS
 62
     7
 10
945.0001220703125
 20
-115
 11
963.0001220703125
 21
-115
  0
LINE
  8
0
  6
CONTINUOUS
 62
     7
 10
963.0001220703125
 20
-76.6707763671875
 11
1061.000122070313
 21
-76.6707763671875
  0
LINE
  8
0
  6
CONTINUOUS
 62
     7
 10
968.0001220703125
 20
62.51776123046875
 11
1056.000122070313
 21
62.51776123046875
  0
LINE
  8
0
  6
CONTINUOUS
 62
     7
 10
968.0001220703125
 20
-62.51776123046875
 11
1056.000122070313
 21
-62.51776123046875
  0
LINE
  8
0
  6
CONTINUOUS
 62
     7
 10
968.0001220703125
 20
92.5
 11
1056.000122070313
 21
92.5
  0
LINE
  8
0
  6
CONTINUOUS
 62
     7
 10
945.0001220703125
 20
115
 11
963.0001220703125
 21
115
  0
LINE
  8
0
  6
CONTINUOUS
 62
     7
 10
963.0001220703125
 20
76.6707763671875
 11
1061.000122070313
 21
76.6707763671875
  0
LINE
  8
0
  6
CONTINUOUS
 62
     7
 10
963.0001220703125
 20
82.32763671875
 11
1061.000122070313
 21
82.32763671875
  0
LINE
  8
0
  6
CONTINUOUS
 62
     7
 10
963.0001220703125
 20
-82.32763671875
 11
1061.000122070313
 21
-82.32763671875
  0
LINE
  8
0
  6
CONTINUOUS
 62
     7
 10
968.0001220703125
 20
-92.5
 11
1056.000122070313
 21
-92.5
  0
LINE
  8
0
  6
CONTINUOUS
 62
     3
 10
985.5030517578125
 20
0
 11
1007.816284179687
 21
0
  0
LINE
  8
0
  6
CONTINUOUS
 62
     7
 10
997.0001220703125
 20
8.48530387878418
 11
1005.485412597656
 21
2.221271279267967E-05
  0
LINE
  8
0
  6
CONTINUOUS
 62
     7
 10
988.5148315429687
 20
2.221271461166907E-05
 11
997.0001220703125
 21
-8.485259056091309
  0
LINE
  8
0
  6
CONTINUOUS
 62
     7
 10
988.5148315429687
 20
2.221271461166907E-05
 11
997.0001220703125
 21
8.48530387878418
  0
LINE
  8
0
  6
CONTINUOUS
 62
     7
 10
997.0001220703125
 20
-8.485259056091309
 11
1005.485412597656
 21
2.221271279267967E-05
  0
LINE
  8
0
  6
CONTINUOUS
 62
     7
 10
943.5001220703125
 20
-4
 11
976.5001220703125
 21
-4
  0
LINE
  8
0
  6
CONTINUOUS
 62
     7
 10
943.5001220703125
 20
4
 11
976.5001220703125
 21
4
  0
LINE
  8
0
  6
CONTINUOUS
 62
     7
 10
945.0001220703125
 20
-4
 11
945.0001220703125
 21
-115
  0
LINE
  8
0
  6
CONTINUOUS
 62
     7
 10
963.0001220703125
 20
-25
 11
963.0001220703125
 21
-115
  0
LINE
  8
0
  6
CONTINUOUS
 62
     7
 10
1015
 20
-460
 11
1015
 21
-483.8661804199219
  0
LINE
  8
0
  6
CONTINUOUS
 62
     7
 10
988.492431640625
 20
-454.3500061035156
 11
988.6690063476563
 21
-460
  0
LINE
  8
0
  6
CONTINUOUS
 62
     7
 10
965.61474609375
 20
-486.553466796875
 11
1011.744812011719
 21
-486.553466796875
  0
LINE
  8
0
  6
CONTINUOUS
 62
     7
 10
963.0001220703125
 20
-25
 11
1015.000122070313
 21
-20.45000076293945
  0
LINE
  8
0
  6
CONTINUOUS
 62
     7
 10
963.0001220703125
 20
25
 11
1015.000122070313
 21
20.45000076293945
  0
LINE
  8
0
  6
CONTINUOUS
 62
     7
 10
997.0001220703125
 20
12.20298862457275
 11
997.0001220703125
 21
-11.93831157684326
  0
LINE
  8
0
  6
CONTINUOUS
 62
     7
 10
1005.071044921875
 20
-445.3500061035156
 11
1005.071044921875
 21
-454.3500061035156
  0
LINE
  8
0
  6
CONTINUOUS
 62
     7
 10
988.928955078125
 20
-445.3500061035156
 11
988.928955078125
 21
-454.3500061035156
  0
LINE
  8
0
  6
CONTINUOUS
 62
     7
 10
997
 20
-445.3500061035156
 11
997
 21
-454.3500061035156
  0
LINE
  8
0
  6
CONTINUOUS
 62
     7
 10
988.928955078125
 20
-445.3500061035156
 11
997
 21
-454.3500061035156
  0
LINE
  8
0
  6
CONTINUOUS
 62
     7
 10
988.928955078125
 20
-454.3500061035156
 11
997
 21
-445.3500061035156
  0
LINE
  8
0
  6
CONTINUOUS
 62
     7
 10
997
 20
-445.3500061035156
 11
1005.071044921875
 21
-454.3500061035156
  0
LINE
  8
0
  6
CONTINUOUS
 62
     7
 10
1005.071044921875
 20
-445.3500061035156
 11
997
 21
-454.3500061035156
  0
LINE
  8
0
  6
CONTINUOUS
 62
     7
 10
952.4983520507812
 20
-450.5433349609375
 11
959.5858764648438
 21
-449.0433349609375
  0
LINE
  8
0
  6
CONTINUOUS
 62
     7
 10
952.9124755859375
 20
-450.5
 11
967.0875244140625
 21
-450.5
  0
LINE
  8
0
  6
CONTINUOUS
 62
     7
 10
969.05712890625
 20
-452.1527099609375
 11
970
 21
-457.5
  0
LINE
  8
0
  6
CONTINUOUS
 62
     7
 10
950
 20
-457.5
 11
950.94287109375
 21
-452.1527099609375
  0
LINE
  8
0
  6
CONTINUOUS
 62
     7
 10
960.4141235351563
 20
-449.0433349609375
 11
967.5016479492187
 21
-450.5433349609375
  0
LINE
  8
0
  6
CONTINUOUS
 62
     7
 10
949.9974365234375
 20
-457.5
 11
970
 21
-457.5
  0
LINE
  8
0
  6
CONTINUOUS
 62
     7
 10
950.7999877929687
 20
-457.5
 11
950.7999877929687
 21
-460
  0
LINE
  8
0
  6
CONTINUOUS
 62
     7
 10
969.2000122070313
 20
-457.5
 11
969.2000122070313
 21
-460
  0
LINE
  8
0
  6
CONTINUOUS
 62
     7
 10
960
 20
-460
 11
957.5
 21
-457.5
  0
LINE
  8
0
  6
CONTINUOUS
 62
     7
 10
960
 20
-457.5
 11
962.5
 21
-460
  0
LINE
  8
0
  6
CONTINUOUS
 62
     7
 10
725
 20
-323.2244873046875
 11
725
 21
-400.7345275878906
  0
LINE
  8
0
  6
CONTINUOUS
 62
     7
 10
688.8106079101562
 20
-356
 11
757.2017822265625
 21
-356
  0
ARC
  8
0
  6
CONTINUOUS
 62
     7
 10
743.4063720703125
 20
-380.9440612792969
 40
6.000000000000024
 50
126.4238645555929
 51
189.9999620293671
  0
ARC
  8
0
  6
CONTINUOUS
 62
     7
 10
830
 20
-702.2340698242187
 40
4.999999999999977
 50
105.0000541483105
 51
179.9999640278219
  0
ARC
  8
0
  6
CONTINUOUS
 62
     7
 10
830
 20
-447.7658996582031
 40
5.000000000000038
 50
179.9999776881996
 51
254.9999217186572
  0
ARC
  8
0
  6
CONTINUOUS
 62
     7
 10
830
 20
-652.5
 40
5.000000000000019
 50
89.99998201391031
 51
179.9999640278219
  0
ARC
  8
0
  6
CONTINUOUS
 62
     7
 10
820
 20
-705.8045043945312
 40
5.000000000000044
 50
280.000159421607
 51
0
  0
ARC
  8
0
  6
CONTINUOUS
 62
     7
 10
870
 20
-666.55810546875
 40
5
 50
0
 51
60.0000289904086
  0
ARC
  8
0
  6
CONTINUOUS
 62
     7
 10
830
 20
-497.5
 40
5.000000000000038
 50
179.9999776881996
 51
269.9999733624889
  0
ARC
  8
0
  6
CONTINUOUS
 62
     7
 10
870
 20
-483.44189453125
 40
5.000000000000004
 50
299.9999163680779
 51
359.9999453584866
  0
ARC
  8
0
  6
CONTINUOUS
 62
     7
 10
802
 20
-430.8673400878906
 40
5.000000000000038
 50
179.9999776881996
 51
259.9997567948901
  0
ARC
  8
0
  6
CONTINUOUS
 62
     7
 10
820
 20
-444.1954956054688
 40
5
 50
359.9999453584866
 51
79.99978593687854
  0
ARC
  8
0
  6
CONTINUOUS
 62
     7
 10
815
 20
-433.1596069335937
 40
5.000000000000038
 50
179.9999776881996
 51
260.0001666062392
  0
ARC
  8
0
  6
CONTINUOUS
 62
     7
 10
870.21728515625
 20
-691.4578857421875
 40
5.000000000000037
 50
16.9523724256209
 51
104.9999858464176
  0
ARC
  8
0
  6
CONTINUOUS
 62
     7
 10
870.21728515625
 20
-458.5421142578125
 40
4.999999999999996
 50
255.0000141535823
 51
343.0476344045686
  0
ARC
  8
0
  6
CONTINUOUS
 62
     7
 10
725
 20
-356
 40
25
 50
306.4238458862582
 51
233.5761318019415
  0
CIRCLE
  8
0
  6
CONTINUOUS
 62
     7
 10
725
 20
-356
 40
15
  0
ARC
  8
0
  6
CONTINUOUS
 62
     7
 10
715.76513671875
 20
-375
 40
1.999999999999985
 50
89.99998201391097
 51
170.0000206677889
  0
ARC
  8
0
  6
CONTINUOUS
 62
     7
 10
734.23486328125
 20
-375
 40
1.999999999999964
 50
9.999994586450628
 51
89.99998201391097
  0
ARC
  8
0
  6
CONTINUOUS
 62
     7
 10
706.5936279296875
 20
-380.9440612792969
 40
6.000000000000009
 50
349.8636347103541
 51
53.57615411374161
  0
ARC
  8
0
  6
CONTINUOUS
 62
     7
 10
650
 20
-730
 40
19.99999999999996
 50
270.0000179860893
 51
0
  0
ARC
  8
0
  6
CONTINUOUS
 62
     7
 10
856.65234375
 20
-710
 40
40.00000000000004
 50
219.9999869972261
 51
270.0000179860893
  0
ARC
  8
0
  6
CONTINUOUS
 62
     7
 10
795
 20
-543.1822509765625
 40
99.99999999999996
 50
179.9999776881997
 51
219.9999833547605
  0
ARC
  8
0
  6
CONTINUOUS
 62
     7
 10
524.7567749023438
 20
-692.136474609375
 40
79.99999999999997
 50
313.6728929920274
 51
354.9999280015804
  0
ARC
  8
0
  6
CONTINUOUS
 62
     7
 10
603.6368408203125
 20
-651.0623779296875
 40
5.000000000000021
 50
355.0000172209265
 51
89.99998201391031
  0
ARC
  8
0
  6
CONTINUOUS
 62
     7
 10
645
 20
-431.1494445800781
 40
10.00000000000002
 50
274.9999964962948
 51
0
  0
CIRCLE
  8
0
  6
CONTINUOUS
 62
     3
 10
648
 20
-680
 40
8.507550239562988
  0
CIRCLE
  8
0
  6
CONTINUOUS
 62
     3
 10
650
 20
-575
 40
8.507550239562988
  0
ARC
  8
0
  6
CONTINUOUS
 62
     7
 10
655
 20
-425.2554321289063
 40
15
 50
274.9999964962946
 51
0
  0
ARC
  8
0
  6
CONTINUOUS
 62
     7
 10
-6.4000244140625
 20
-379.2000122070312
 40
1.399999976158144
 50
269.999963344576
 51
0
  0
ARC
  8
0
  6
CONTINUOUS
 62
     7
 10
-9.73834228515625
 20
-374.4000244140625
 40
1.399999976158126
 50
101.6056755270564
 51
169.9999660262765
  0
ARC
  8
0
  6
CONTINUOUS
 62
     7
 10
0
 20
-575
 40
180
 50
66.2311012871847
 51
73.87937636503574
  0
ARC
  8
0
  6
CONTINUOUS
 62
     7
 10
0
 20
-575
 40
180
 50
80.40592264530639
 51
99.59405504289326
  0
ARC
  8
0
  6
CONTINUOUS
 62
     7
 10
0
 20
-575
 40
180
 50
106.1206627948664
 51
113.76891738215
  0
ARC
  8
0
  6
CONTINUOUS
 62
     7
 10
9.73834228515625
 20
-374.4000244140625
 40
1.39999997615814
 50
9.999995440224259
 51
78.39428850076496
  0
ARC
  8
0
  6
CONTINUOUS
 62
     7
 10
0
 20
-336
 40
5
 50
0
 51
179.9999640278213
  0
ARC
  8
0
  6
CONTINUOUS
 62
     7
 10
6.4000244140625
 20
-379.2000122070312
 40
1.399999976158142
 50
179.9999776881999
 51
270.000028004002
  0
CIRCLE
  8
0
  6
CONTINUOUS
 62
     7
 10
0
 20
-575
 40
90
  0
CIRCLE
  8
0
  6
CONTINUOUS
 62
     7
 10
0
 20
-575
 40
132.5
  0
ARC
  8
0
  6
CONTINUOUS
 62
     3
 10
0
 20
-575
 40
117.5
 50
352.6806463420093
 51
7.319326337234041
  0
ARC
  8
0
  6
CONTINUOUS
 62
     3
 10
0
 20
-575
 40
117.5
 50
52.68066508713432
 51
67.31933483707533
  0
ARC
  8
0
  6
CONTINUOUS
 62
     3
 10
0
 20
-575
 40
117.5
 50
112.6806633416918
 51
127.3193296765383
  0
ARC
  8
0
  6
CONTINUOUS
 62
     3
 10
0
 20
-575
 40
117.5
 50
172.6806513509656
 51
187.3193313461904
  0
ARC
  8
0
  6
CONTINUOUS
 62
     3
 10
0
 20
-575
 40
117.5
 50
232.6806566630834
 51
247.3193366583082
  0
ARC
  8
0
  6
CONTINUOUS
 62
     3
 10
0
 20
-575
 40
117.5
 50
292.6806515025463
 51
307.3193314977711
  0
ARC
  8
0
  6
CONTINUOUS
 62
     7
 10
0
 20
-610
 40
212.5
 50
0
 51
179.9999640278213
  0
ARC
  8
0
  6
CONTINUOUS
 62
     7
 10
94.5
 20
-752
 40
8.000000000000053
 50
270.0000179860893
 51
0
  0
ARC
  8
0
  6
CONTINUOUS
 62
     7
 10
99.5
 20
-783
 40
3
 50
0
 51
89.9999820139107
  0
ARC
  8
0
  6
CONTINUOUS
 62
     7
 10
-99.5
 20
-783
 40
3.000000000000034
 50
89.9999820139107
 51
179.9999640278219
  0
ARC
  8
0
  6
CONTINUOUS
 62
     7
 10
-94.5
 20
-752
 40
7.999999999999996
 50
179.9999776881995
 51
270.000028004002
  0
ARC
  8
0
  6
CONTINUOUS
 62
     7
 10
-137.4259033203125
 20
-735
 40
14.99999999999994
 50
270.0000179860893
 51
349.9999772390186
  0
ARC
  8
0
  6
CONTINUOUS
 62
     7
 10
137.4259033203125
 20
-735
 40
15
 50
189.9999656718325
 51
270.0000179860893
  0
ARC
  8
0
  6
CONTINUOUS
 62
     7
 10
78.43731689453125
 20
-699.915283203125
 40
14.99999999999998
 50
10.00000824682919
 51
122.1257357939305
  0
ARC
  8
0
  6
CONTINUOUS
 62
     7
 10
-78.437255859375
 20
-699.915283203125
 40
15.00000000000005
 50
57.87424872445833
 51
170.0000206677892
  0
ARC
  8
0
  6
CONTINUOUS
 62
     7
 10
135
 20
-634.42431640625
 40
15.00000000000002
 50
156.2418886603622
 51
179.9999640278215
  0
ARC
  8
0
  6
CONTINUOUS
 62
     7
 10
-135
 20
-634.42431640625
 40
15
 50
0
 51
23.75813342406704
  0
ARC
  8
0
  6
CONTINUOUS
 62
     3
 10
0
 20
-575
 40
162.5
 50
17.20928316106158
 51
27.79072833646124
  0
ARC
  8
0
  6
CONTINUOUS
 62
     3
 10
0
 20
-575
 40
162.5
 50
62.20928782839527
 51
72.79073983398408
  0
ARC
  8
0
  6
CONTINUOUS
 62
     3
 10
0
 20
-575
 40
162.5
 50
107.2093676278098
 51
117.7908059730203
  0
ARC
  8
0
  6
CONTINUOUS
 62
     3
 10
0
 20
-575
 40
162.5
 50
152.2093586347651
 51
162.790810640354
  0
ARC
  8
0
  6
CONTINUOUS
 62
     3
 10
0
 20
-575
 40
162.5
 50
197.2092849822944
 51
207.7907369878832
  0
ARC
  8
0
  6
CONTINUOUS
 62
     3
 10
0
 20
-575
 40
162.5
 50
242.2092623288714
 51
252.7907006740819
  0
ARC
  8
0
  6
CONTINUOUS
 62
     3
 10
0
 20
-575
 40
162.5
 50
287.2092123546917
 51
297.7906643602805
  0
ARC
  8
0
  6
CONTINUOUS
 62
     3
 10
0
 20
-575
 40
162.5
 50
332.2091231069243
 51
342.7905597445875
  0
ARC
  8
0
  6
CONTINUOUS
 62
     7
 10
0
 20
-575
 40
47.49999999999995
 50
105.2575454498303
 51
74.74246957703872
  0
ARC
  8
0
  6
CONTINUOUS
 62
     7
 10
14.36492919921875
 20
-402.9978332519531
 40
5
 50
0
 51
86.03046731359598
  0
ARC
  8
0
  6
CONTINUOUS
 62
     7
 10
-14.364990234375
 20
-402.9978332519531
 40
5.000000000000004
 50
93.96955135573867
 51
179.9999640278213
  0
ARC
  8
0
  6
CONTINUOUS
 62
     7
 10
-34.364990234375
 20
-431.55908203125
 40
15.00000000000001
 50
283.4727710296146
 51
0
  0
ARC
  8
0
  6
CONTINUOUS
 62
     7
 10
34.36492919921875
 20
-431.55908203125
 40
15
 50
179.9999776881996
 51
256.5271793378284
  0
ARC
  8
0
  6
CONTINUOUS
 62
     7
 10
-33
 20
-757
 40
3.000000000000003
 50
269.9999974955218
 51
0
  0
ARC
  8
0
  6
CONTINUOUS
 62
     7
 10
33
 20
-757
 40
2.999999999999999
 50
179.9999913485786
 51
270.0000006832453
  0
CIRCLE
  8
0
  6
CONTINUOUS
 62
     3
 10
0
 20
-575
 40
8
  0
CIRCLE
  8
0
  6
CONTINUOUS
 62
     7
 10
0
 20
-575
 40
7.099999904632568
  0
ARC
  8
0
  6
CONTINUOUS
 62
     7
 10
725
 20
8.581966540077701E-06
 40
20.04728698730464
 50
14.44262624528875
 51
165.557392424046
  0
ARC
  8
0
  6
CONTINUOUS
 62
     7
 10
830
 20
-127.2341156005859
 40
5.000000000000004
 50
105.0000541483104
 51
179.9999640278213
  0
ARC
  8
0
  6
CONTINUOUS
 62
     7
 10
830
 20
127.2341461181641
 40
5.000000000000038
 50
179.9999776881996
 51
254.9999217186572
  0
ARC
  8
0
  6
CONTINUOUS
 62
     7
 10
830
 20
-77.49998474121094
 40
5.000000000000004
 50
89.99998201391031
 51
179.9999640278213
  0
ARC
  8
0
  6
CONTINUOUS
 62
     7
 10
820
 20
-130.8044891357422
 40
4.999999999999988
 50
280.0001594216071
 51
0
  0
ARC
  8
0
  6
CONTINUOUS
 62
     7
 10
870
 20
-91.55809020996094
 40
5
 50
0
 51
60.00002899040844
  0
ARC
  8
0
  6
CONTINUOUS
 62
     7
 10
802
 20
-144.1326446533203
 40
5.000000000000012
 50
100.0001780909426
 51
179.9999640278213
  0
ARC
  8
0
  6
CONTINUOUS
 62
     7
 10
830
 20
77.50001525878906
 40
5.000000000000038
 50
179.9999776881996
 51
269.9999733624889
  0
ARC
  8
0
  6
CONTINUOUS
 62
     7
 10
870
 20
91.55812072753906
 40
5.000000000000004
 50
299.9999163680779
 51
359.9999453584866
  0
ARC
  8
0
  6
CONTINUOUS
 62
     7
 10
802
 20
144.1327056884766
 40
5.000000000000038
 50
179.9999776881996
 51
259.9997567948902
  0
ARC
  8
0
  6
CONTINUOUS
 62
     7
 10
820
 20
130.8045196533203
 40
5
 50
359.9999453584866
 51
79.99978593687854
  0
ARC
  8
0
  6
CONTINUOUS
 62
     7
 10
780
 20
1.012953453027876E-05
 40
29.99999999999999
 50
308.9447799164507
 51
51.0552200835493
  0
ARC
  8
0
  6
CONTINUOUS
 62
     7
 10
802
 20
27.2213249206543
 40
5.000000000000038
 50
179.9999776881997
 51
231.0550270170197
  0
ARC
  8
0
  6
CONTINUOUS
 62
     7
 10
802
 20
-27.2213020324707
 40
5.000000000000032
 50
128.9449693405151
 51
179.9999640278213
  0
ARC
  8
0
  6
CONTINUOUS
 62
     7
 10
870.21728515625
 20
116.4579010009766
 40
4.999999999999981
 50
255.0000141535823
 51
343.0476344045685
  0
ARC
  8
0
  6
CONTINUOUS
 62
     7
 10
870.21728515625
 20
-116.4578704833984
 40
5.000000000000028
 50
16.95237242562059
 51
104.9999858464177
  0
CIRCLE
  8
0
  6
CONTINUOUS
 62
     3
 10
792
 20
1.046718534780666E-05
 40
10.69374942779541
  0
ARC
  8
0
  6
CONTINUOUS
 62
     7
 10
725
 20
8.581966540077701E-06
 40
20.04728698730467
 50
194.4426348967107
 51
345.557401075468
  0
ARC
  8
0
  6
CONTINUOUS
 62
     7
 10
725
 20
8.581966540077701E-06
 40
12.5
 50
23.57817843000461
 51
156.4218368242355
  0
ARC
  8
0
  6
CONTINUOUS
 62
     7
 10
705
 20
8.019214874366298E-06
 40
5
 50
89.99998201391031
 51
270.0000006832456
  0
ARC
  8
0
  6
CONTINUOUS
 62
     7
 10
745
 20
9.144718205789104E-06
 40
5
 50
270.0000179860897
 51
89.99998201391031
  0
ARC
  8
0
  6
CONTINUOUS
 62
     7
 10
725
 20
8.581966540077701E-06
 40
12.50000000000001
 50
203.5781631757645
 51
336.4218215699954
  0
ARC
  8
0
  6
CONTINUOUS
 62
     7
 10
830
 20
-186.4999847412109
 40
8.000000000000007
 50
269.9999974955215
 51
333.8935946053164
  0
ARC
  8
0
  6
CONTINUOUS
 62
     7
 10
655
 20
149.7445678710938
 40
14.99999999999999
 50
275.0000374774295
 51
0
  0
ARC
  8
0
  6
CONTINUOUS
 62
     7
 10
655
 20
-149.7445678710938
 40
15
 50
359.9999453584866
 51
84.99990788105706
  0
ARC
  8
0
  6
CONTINUOUS
 62
     7
 10
595
 20
-197.5
 40
15
 50
179.9999776881996
 51
270.0000280040019
  0
ARC
  8
0
  6
CONTINUOUS
 62
     7
 10
930
 20
-197.4999847412109
 40
15
 50
270.0000179860892
 51
0
  0
ARC
  8
0
  6
CONTINUOUS
 62
     7
 10
930
 20
197.5000152587891
 40
15
 50
0
 51
89.99998201391075
  0
ARC
  8
0
  6
CONTINUOUS
 62
     7
 10
595
 20
197.5
 40
15
 50
89.99998201391075
 51
179.9999640278213
  0
ARC
  8
0
  6
CONTINUOUS
 62
     7
 10
930
 20
-140.2745208740234
 40
15
 50
0
 51
80.83765207255355
  0
ARC
  8
0
  6
CONTINUOUS
 62
     7
 10
930
 20
140.2745513916016
 40
15
 50
279.1623342670681
 51
0
  0
ARC
  8
0
  6
CONTINUOUS
 62
     7
 10
675
 20
7.175086921051843E-06
 40
19.99999999999998
 50
120.0000306600608
 51
239.999952037095
  0
ARC
  8
0
  6
CONTINUOUS
 62
     7
 10
660
 20
25.98078155517578
 40
10
 50
299.9999300284562
 51
360
  0
ARC
  8
0
  6
CONTINUOUS
 62
     7
 10
660
 20
-25.98076629638672
 40
10
 50
0
 51
60.00006997154377
  0
ARC
  8
0
  6
CONTINUOUS
 62
     7
 10
537.5
 20
3.306167400296545E-06
 40
12.5
 50
270.0000179860895
 51
89.99998201391058
  0
CIRCLE
  8
0
  6
CONTINUOUS
 62
     7
 10
615
 20
175
 40
12.5
  0
CIRCLE
  8
0
  6
CONTINUOUS
 62
     7
 10
910
 20
175.0000152587891
 40
12.5
  0
CIRCLE
  8
0
  6
CONTINUOUS
 62
     7
 10
615
 20
-175
 40
12.5
  0
CIRCLE
  8
0
  6
CONTINUOUS
 62
     7
 10
910
 20
-174.9999847412109
 40
12.5
  0
ARC
  8
0
  6
CONTINUOUS
 62
     7
 10
830
 20
186.5000152587891
 40
7.999999999999991
 50
24.78092863906702
 51
90.00000250447847
  0
ARC
  8
0
  6
CONTINUOUS
 62
     7
 10
968
 20
-507.4822387695313
 40
4.999999999999943
 50
179.999991348578
 51
270.0000006832456
  0
ARC
  8
0
  6
CONTINUOUS
 62
     7
 10
968
 20
-642.5177612304687
 40
5.000000000000004
 50
90.00000250447782
 51
180.0000050089569
  0
ARC
  8
0
  6
CONTINUOUS
 62
     7
 10
1056
 20
-642.5177612304687
 40
5
 50
0
 51
90.00000250447913
  0
ARC
  8
0
  6
CONTINUOUS
 62
     7
 10
1056
 20
-507.4822387695313
 40
5.000000000000004
 50
269.9999974955209
 51
0
  0
ARC
  8
0
  6
CONTINUOUS
 62
     7
 10
1056
 20
-672.5
 40
5
 50
0
 51
90.00000250447913
  0
ARC
  8
0
  6
CONTINUOUS
 62
     7
 10
968
 20
-672.5
 40
5.000000000000004
 50
90.00000250447782
 51
180.0000050089569
  0
ARC
  8
0
  6
CONTINUOUS
 62
     7
 10
1056
 20
-477.5
 40
5.000000000000004
 50
269.9999974955209
 51
0
  0
ARC
  8
0
  6
CONTINUOUS
 62
     7
 10
968.0001220703125
 20
67.51776123046875
 40
4.999999999999943
 50
179.999991348578
 51
270.0000006832456
  0
ARC
  8
0
  6
CONTINUOUS
 62
     7
 10
968.0001220703125
 20
-67.51776123046875
 40
4.999999999999997
 50
90.00000250447782
 51
180.0000050089563
  0
ARC
  8
0
  6
CONTINUOUS
 62
     7
 10
968.0001220703125
 20
97.5
 40
4.999999999999943
 50
179.999991348578
 51
270.0000006832456
  0
ARC
  8
0
  6
CONTINUOUS
 62
     7
 10
1056.000122070313
 20
-67.51776123046875
 40
5
 50
0
 51
90.00000250447913
  0
ARC
  8
0
  6
CONTINUOUS
 62
     7
 10
1056.000122070313
 20
67.51776123046875
 40
4.999999999999997
 50
269.9999974955209
 51
0
  0
ARC
  8
0
  6
CONTINUOUS
 62
     7
 10
1056.000122070313
 20
-97.5
 40
5
 50
0
 51
90.00000250447913
  0
ARC
  8
0
  6
CONTINUOUS
 62
     7
 10
968.0001220703125
 20
-97.5
 40
5.000000000000004
 50
90.00000250447782
 51
180.0000050089563
  0
ARC
  8
0
  6
CONTINUOUS
 62
     7
 10
1056.000122070313
 20
97.5
 40
5.000000000000004
 50
269.9999974955209
 51
0
  0
ARC
  8
0
  6
CONTINUOUS
 62
     7
 10
960.0001220703125
 20
0
 40
10.00000000000001
 50
203.5781631757645
 51
336.4218232775426
  0
ARC
  8
0
  6
CONTINUOUS
 62
     7
 10
976.5001220703125
 20
0
 40
4
 50
270.0000179860891
 51
89.99998201391097
  0
ARC
  8
0
  6
CONTINUOUS
 62
     7
 10
943.5001220703125
 20
0
 40
4
 50
89.99998201391097
 51
270.0000006832446
  0
ARC
  8
0
  6
CONTINUOUS
 62
     7
 10
960.0001220703125
 20
0
 40
9.999999999999986
 50
23.57817672245736
 51
156.4218368242355
  0
CIRCLE
  8
0
  6
CONTINUOUS
 62
     3
 10
997.0001220703125
 20
0
 40
8.5
  0
ARC
  8
0
  6
CONTINUOUS
 62
     7
 10
1020
 20
-477.5
 40
5.00000000000002
 50
180.0000050089563
 51
270.0000006832456
  0
ARC
  8
0
  6
CONTINUOUS
 62
     7
 10
960
 20
-436.5
 40
20.49999999999999
 50
304.6066501519143
 51
235.3933172910016
  0
CIRCLE
  8
0
  6
CONTINUOUS
 62
     7
 10
960
 20
-436.5
 40
12.5
  0
ARC
  8
0
  6
CONTINUOUS
 62
     7
 10
952.9124755859375
 20
-452.5
 40
1.999999999999985
 50
89.99998201391097
 51
170.0000206677889
  0
ARC
  8
0
  6
CONTINUOUS
 62
     7
 10
967.0875244140625
 20
-452.5
 40
1.999999999999958
 50
9.999999709093608
 51
89.99998201391097
  0
ARC
  8
0
  6
CONTINUOUS
 62
     7
 10
946.0855102539063
 20
-456.6652221679688
 40
4.000000000000036
 50
347.9541887335329
 51
55.39334301789676
  0
ARC
  8
0
  6
CONTINUOUS
 62
     7
 10
973.9144897460938
 20
-456.6652221679688
 40
3.999999999999996
 50
124.6066790665321
 51
192.0457812707042
  0
TEXT
  8
0
  6
CONTINUOUS
 62
     7
 10
-205.00004529953
 20
-17.5
 40
35
 41
1.028571682175693
  1
ERK-NDF-5500
  0
ENDSEC
  0
EOF
