  0
SECTION
  2
HEADER
  0
ENDSEC
  0
SECTION
  2
TABLES
  0
TABLE
  2
LTYPE
 70
    22
  0
LTYPE
  2
CONTINUOUS
 70
    64
  3
Solid line
 72
    65
 73
     0
 40
0.000000
  0
LTYPE
  2
DASHED
 70
    64
  3
__ __ __ __ __ __ __ __ __ __ __ __ __ __ __
 72
    65
 73
     2
 40
3.500000
 49
2.000000
 49
-1.500000
  0
LTYPE
  2
CENTER
 70
    64
  3
____ _ ____ _ ____ _ ____ _ ____ _ ____ _ ____
 72
    65
 73
     4
 40
17.500000
 49
13.000000
 49
-1.500000
 49
1.500000
 49
-1.500000
  0
LTYPE
  2
PHANTOM
 70
    64
  3
_____ _ _ _____ _ _ _____ _ _ _____ _ _ ____  
 72
    65
 73
     6
 40
15.500000
 49
8.000000
 49
-1.500000
 49
1.500000
 49
-1.500000
 49
1.500000
 49
-1.500000
  0
LTYPE
  2
DOT
 70
    64
  3
. . . . . . . . . . . . . . . . . . . . . . . .
 72
    65
 73
     2
 40
0.25
 49
0.0
 49
-0.25
  0
ENDTAB
  0
TABLE
  2
LAYER
 70
     1
  0
LAYER
  2
0
 70
     0
 62
     7
  6
CONTINUOUS
  0
ENDTAB
  0
TABLE
  2
STYLE
 70
     1
  0
STYLE
  2
STANDARD
 70
     0
 40
0.000000
 41
1.000000
 50
0.000000
 71
     0
 42
0.200000
  3
txt
  0
ENDTAB
  0
TABLE
  2
VIEW
 70
     0
  0
ENDTAB
  0
ENDSEC
  0
SECTION
  2
BLOCKS
  0
ENDSEC
  0
SECTION
  2
ENTITIES
  0
LINE
  8
0
  6
CONTINUOUS
 62
     7
 10
882
 20
-720
 11
924
 21
-720
  0
LINE
  8
0
  6
CONTINUOUS
 62
     7
 10
882
 20
-530
 11
924
 21
-530
  0
LINE
  8
0
  6
CONTINUOUS
 62
     7
 10
882.0000610351563
 20
-530.0000610351563
 11
878.0000610351563
 21
-534.0000610351563
  0
LINE
  8
0
  6
CONTINUOUS
 62
     7
 10
878
 20
-715.9999389648437
 11
882
 21
-719.9999389648437
  0
LINE
  8
0
  6
CONTINUOUS
 62
     7
 10
924.0000610351563
 20
-720.0000610351563
 11
928.0000610351563
 21
-716.0000610351563
  0
LINE
  8
0
  6
CONTINUOUS
 62
     7
 10
927.9998779296875
 20
-534
 11
923.9998779296875
 21
-530
  0
LINE
  8
0
  6
CONTINUOUS
 62
     7
 10
882
 20
-587.3461303710937
 11
924
 21
-587.3461303710937
  0
LINE
  8
0
  6
CONTINUOUS
 62
     7
 10
882
 20
-598.7877197265625
 11
924
 21
-598.7877197265625
  0
LINE
  8
0
  6
CONTINUOUS
 62
     7
 10
882
 20
-608.53125
 11
924
 21
-608.53125
  0
LINE
  8
0
  6
CONTINUOUS
 62
     7
 10
882
 20
-620.00048828125
 11
924
 21
-620.00048828125
  0
LINE
  8
0
  6
CONTINUOUS
 62
     7
 10
882
 20
-630.0001220703125
 11
924
 21
-630.0001220703125
  0
LINE
  8
0
  6
CONTINUOUS
 62
     7
 10
882
 20
-641.469482421875
 11
924
 21
-641.469482421875
  0
LINE
  8
0
  6
CONTINUOUS
 62
     7
 10
882
 20
-651.2124633789062
 11
924
 21
-651.2124633789062
  0
LINE
  8
0
  6
CONTINUOUS
 62
     7
 10
882
 20
-662.6536865234375
 11
924
 21
-662.6536865234375
  0
LINE
  8
0
  6
CONTINUOUS
 62
     7
 10
882
 20
-681.7067260742187
 11
924
 21
-681.7067260742187
  0
LINE
  8
0
  6
CONTINUOUS
 62
     7
 10
882
 20
-690.9718017578125
 11
924
 21
-690.9718017578125
  0
LINE
  8
0
  6
CONTINUOUS
 62
     7
 10
882
 20
-697.793212890625
 11
924
 21
-697.793212890625
  0
LINE
  8
0
  6
CONTINUOUS
 62
     7
 10
882
 20
-704.658447265625
 11
924
 21
-704.658447265625
  0
LINE
  8
0
  6
CONTINUOUS
 62
     7
 10
882
 20
-709.65869140625
 11
924
 21
-709.65869140625
  0
LINE
  8
0
  6
CONTINUOUS
 62
     7
 10
882
 20
-714.26123046875
 11
924
 21
-714.26123046875
  0
LINE
  8
0
  6
CONTINUOUS
 62
     3
 10
410
 20
-625
 11
1026.5927734375
 21
-625
  0
LINE
  8
0
  6
CONTINUOUS
 62
     7
 10
878
 20
-532.5
 11
878
 21
-717.5
  0
LINE
  8
0
  6
CONTINUOUS
 62
     7
 10
785
 20
-447.5
 11
820
 21
-447.5
  0
LINE
  8
0
  6
CONTINUOUS
 62
     7
 10
785
 20
-447.5
 11
785
 21
-724.91943359375
  0
LINE
  8
0
  6
CONTINUOUS
 62
     7
 10
807
 20
-447.5
 11
807
 21
-751.1380615234375
  0
LINE
  8
0
  6
CONTINUOUS
 62
     7
 10
863
 20
-532.5
 11
863
 21
-717.5
  0
LINE
  8
0
  6
CONTINUOUS
 62
     7
 10
863
 20
-532.5
 11
878
 21
-532.5
  0
LINE
  8
0
  6
CONTINUOUS
 62
     7
 10
863
 20
-717.5
 11
878
 21
-717.5
  0
LINE
  8
0
  6
CONTINUOUS
 62
     7
 10
835
 20
-494.1955261230469
 11
835
 21
-755.8045043945312
  0
LINE
  8
0
  6
CONTINUOUS
 62
     7
 10
817.0864868164062
 20
-763.1586303710938
 11
830.8681640625
 21
-760.7285766601563
  0
LINE
  8
0
  6
CONTINUOUS
 62
     7
 10
811.1317749023437
 20
-485.7914123535156
 11
830.8681640625
 21
-489.271484375
  0
LINE
  8
0
  6
CONTINUOUS
 62
     7
 10
820
 20
-447.5
 11
820
 21
-483.1596069335937
  0
LINE
  8
0
  6
CONTINUOUS
 62
     3
 10
802
 20
-416.2846069335938
 11
802
 21
-459.5444641113281
  0
LINE
  8
0
  6
CONTINUOUS
 62
     7
 10
811.4823608398437
 20
-430.6600036621094
 11
792.5176391601563
 21
-430.6600036621094
  0
LINE
  8
0
  6
CONTINUOUS
 62
     7
 10
812.6937255859375
 20
-440.6600036621094
 11
791.3062744140625
 21
-440.6600036621094
  0
LINE
  8
0
  6
CONTINUOUS
 62
     7
 10
812.6937255859375
 20
-440.6600036621094
 11
812.47998046875
 21
-447.5
  0
LINE
  8
0
  6
CONTINUOUS
 62
     7
 10
791.3062744140625
 20
-440.6599731445312
 11
791.52001953125
 21
-447.5
  0
LINE
  8
0
  6
CONTINUOUS
 62
     7
 10
811.4823608398437
 20
-430.6600036621094
 11
811.4823608398437
 21
-440.6600036621094
  0
LINE
  8
0
  6
CONTINUOUS
 62
     7
 10
792.5176391601563
 20
-430.6600036621094
 11
792.5176391601563
 21
-440.6600036621094
  0
LINE
  8
0
  6
CONTINUOUS
 62
     7
 10
835
 20
-581.27587890625
 11
863
 21
-581.27587890625
  0
LINE
  8
0
  6
CONTINUOUS
 62
     7
 10
834.9999389648438
 20
-546.5120849609375
 11
862.9999389648437
 21
-558.345458984375
  0
LINE
  8
0
  6
CONTINUOUS
 62
     7
 10
835
 20
-668.72412109375
 11
863
 21
-668.72412109375
  0
LINE
  8
0
  6
CONTINUOUS
 62
     7
 10
835
 20
-703.4879150390625
 11
862.9999389648437
 21
-691.6546020507812
  0
LINE
  8
0
  6
CONTINUOUS
 62
     3
 10
792.5176391601563
 20
-440.6600036621094
 11
802.0000610351562
 21
-430.6599731445312
  0
LINE
  8
0
  6
CONTINUOUS
 62
     7
 10
802
 20
-430.6600036621094
 11
802
 21
-440.6600036621094
  0
LINE
  8
0
  6
CONTINUOUS
 62
     3
 10
802
 20
-440.6599731445312
 11
811.4823608398437
 21
-430.6600036621094
  0
LINE
  8
0
  6
CONTINUOUS
 62
     3
 10
811.4822998046875
 20
-440.6600036621094
 11
802
 21
-430.6600341796875
  0
LINE
  8
0
  6
CONTINUOUS
 62
     3
 10
792.5177001953125
 20
-430.6600341796875
 11
802
 21
-440.6600341796875
  0
LINE
  8
0
  6
CONTINUOUS
 62
     7
 10
710
 20
-445
 11
780
 21
-445
  0
LINE
  8
0
  6
CONTINUOUS
 62
     7
 10
705.0001220703125
 20
-450.0000305175781
 11
710.0000610351562
 21
-445.0000610351563
  0
LINE
  8
0
  6
CONTINUOUS
 62
     7
 10
780
 20
-445.0000305175781
 11
785
 21
-450.0000305175781
  0
LINE
  8
0
  6
CONTINUOUS
 62
     7
 10
719.0001220703125
 20
-435
 11
751.0000610351562
 21
-435
  0
LINE
  8
0
  6
CONTINUOUS
 62
     7
 10
715.3602905273438
 20
-444.9999694824219
 11
718.9999389648437
 21
-435
  0
LINE
  8
0
  6
CONTINUOUS
 62
     7
 10
754.6397094726563
 20
-445
 11
751
 21
-435
  0
LINE
  8
0
  6
CONTINUOUS
 62
     7
 10
710
 20
-452.0777587890625
 11
780
 21
-452.0777587890625
  0
LINE
  8
0
  6
CONTINUOUS
 62
     7
 10
710
 20
-490.5732421875
 11
780
 21
-490.5732421875
  0
LINE
  8
0
  6
CONTINUOUS
 62
     7
 10
710
 20
-505.2942504882812
 11
780
 21
-505.2942504882812
  0
LINE
  8
0
  6
CONTINUOUS
 62
     7
 10
710
 20
-520.9464111328125
 11
780
 21
-520.9464111328125
  0
LINE
  8
0
  6
CONTINUOUS
 62
     7
 10
710
 20
-538.0659790039063
 11
780
 21
-538.0659790039063
  0
LINE
  8
0
  6
CONTINUOUS
 62
     7
 10
710
 20
-575.02099609375
 11
780
 21
-575.02099609375
  0
LINE
  8
0
  6
CONTINUOUS
 62
     7
 10
710
 20
-594.71923828125
 11
780
 21
-594.71923828125
  0
LINE
  8
0
  6
CONTINUOUS
 62
     7
 10
710
 20
-614.5905151367187
 11
780
 21
-614.5905151367187
  0
LINE
  8
0
  6
CONTINUOUS
 62
     7
 10
714.35302734375
 20
-635.4093627929687
 11
780
 21
-635.4093627929687
  0
LINE
  8
0
  6
CONTINUOUS
 62
     7
 10
726.566162109375
 20
-655.28076171875
 11
780
 21
-655.28076171875
  0
LINE
  8
0
  6
CONTINUOUS
 62
     7
 10
743.0948486328125
 20
-674.9788208007813
 11
780
 21
-674.9788208007813
  0
LINE
  8
0
  6
CONTINUOUS
 62
     7
 10
774.10400390625
 20
-711.9341430664062
 11
780
 21
-711.9341430664062
  0
LINE
  8
0
  6
CONTINUOUS
 62
     7
 10
722.5000610351562
 20
-432
 11
723.7955932617188
 21
-424.6527099609375
  0
LINE
  8
0
  6
CONTINUOUS
 62
     7
 10
746.2044677734375
 20
-424.6527404785156
 11
747.5
 21
-432.0000305175781
  0
LINE
  8
0
  6
CONTINUOUS
 62
     7
 10
725.76513671875
 20
-423
 11
744.23486328125
 21
-423
  0
LINE
  8
0
  6
CONTINUOUS
 62
     7
 10
725.3418579101563
 20
-423.0452880859375
 11
734.5767211914062
 21
-421.0452880859375
  0
LINE
  8
0
  6
CONTINUOUS
 62
     7
 10
735.4232788085938
 20
-421.0452575683594
 11
744.6581420898437
 21
-423.0452880859375
  0
LINE
  8
0
  6
CONTINUOUS
 62
     7
 10
722.5
 20
-432
 11
722.5
 21
-435
  0
LINE
  8
0
  6
CONTINUOUS
 62
     7
 10
747.5
 20
-432.0000305175781
 11
747.5
 21
-435
  0
LINE
  8
0
  6
CONTINUOUS
 62
     7
 10
590
 20
-835
 11
955
 21
-835
  0
LINE
  8
0
  6
CONTINUOUS
 62
     7
 10
590
 20
-800
 11
660
 21
-800
  0
LINE
  8
0
  6
CONTINUOUS
 62
     7
 10
590
 20
-800
 11
590
 21
-835
  0
LINE
  8
0
  6
CONTINUOUS
 62
     7
 10
955
 20
-800
 11
955
 21
-835
  0
LINE
  8
0
  6
CONTINUOUS
 62
     7
 10
728.3956298828125
 20
-657.4609985351563
 11
836.010498046875
 21
-785.71142578125
  0
LINE
  8
0
  6
CONTINUOUS
 62
     7
 10
866.65234375
 20
-800
 11
955
 21
-800
  0
LINE
  8
0
  6
CONTINUOUS
 62
     3
 10
625
 20
-785
 11
625
 21
-850
  0
LINE
  8
0
  6
CONTINUOUS
 62
     3
 10
920
 20
-785
 11
920
 21
-850
  0
LINE
  8
0
  6
CONTINUOUS
 62
     7
 10
579
 20
-535
 11
579
 21
-715
  0
LINE
  8
0
  6
CONTINUOUS
 62
     7
 10
610
 20
-492.5
 11
610
 21
-757.5
  0
LINE
  8
0
  6
CONTINUOUS
 62
     7
 10
590
 20
-757.5
 11
613.2677001953125
 21
-757.5
  0
LINE
  8
0
  6
CONTINUOUS
 62
     7
 10
590
 20
-492.5
 11
640.0001220703125
 21
-492.5
  0
LINE
  8
0
  6
CONTINUOUS
 62
     7
 10
578.9999389648438
 20
-534.9999389648438
 11
590
 21
-523.9998779296875
  0
LINE
  8
0
  6
CONTINUOUS
 62
     7
 10
578.9999389648438
 20
-714.9999389648438
 11
589.9999389648438
 21
-726
  0
LINE
  8
0
  6
CONTINUOUS
 62
     7
 10
590
 20
-492.5
 11
590
 21
-757.5
  0
LINE
  8
0
  6
CONTINUOUS
 62
     7
 10
705
 20
-447.5
 11
705
 21
-593.1822509765625
  0
LINE
  8
0
  6
CONTINUOUS
 62
     7
 10
680
 20
-447.5
 11
680
 21
-780
  0
LINE
  8
0
  6
CONTINUOUS
 62
     7
 10
665
 20
-447.5
 11
705
 21
-447.5
  0
LINE
  8
0
  6
CONTINUOUS
 62
     7
 10
640.0000610351562
 20
-492.4999389648437
 11
666.307373046875
 21
-490.1983642578125
  0
LINE
  8
0
  6
CONTINUOUS
 62
     3
 10
660
 20
-610
 11
660
 21
-640
  0
LINE
  8
0
  6
CONTINUOUS
 62
     3
 10
658
 20
-715
 11
658
 21
-745
  0
LINE
  8
0
  6
CONTINUOUS
 62
     3
 10
643
 20
-730
 11
673
 21
-730
  0
LINE
  8
0
  6
CONTINUOUS
 62
     7
 10
665
 20
-447.5
 11
665
 21
-483.9227294921875
  0
LINE
  8
0
  6
CONTINUOUS
 62
     7
 10
430
 20
-572.5
 11
430
 21
-672.5
  0
LINE
  8
0
  6
CONTINUOUS
 62
     7
 10
430
 20
-672.5
 11
570
 21
-672.5
  0
LINE
  8
0
  6
CONTINUOUS
 62
     7
 10
570
 20
-570
 11
570
 21
-680
  0
LINE
  8
0
  6
CONTINUOUS
 62
     7
 10
570
 20
-570
 11
579
 21
-570
  0
LINE
  8
0
  6
CONTINUOUS
 62
     7
 10
570
 20
-680
 11
579
 21
-680
  0
LINE
  8
0
  6
DASHED
 62
     7
 10
637.5
 20
-800
 11
637.5
 21
-835
  0
LINE
  8
0
  6
DASHED
 62
     7
 10
612.5
 20
-800
 11
612.5
 21
-835
  0
LINE
  8
0
  6
DASHED
 62
     7
 10
907.5
 20
-800
 11
907.5
 21
-835
  0
LINE
  8
0
  6
DASHED
 62
     7
 10
932.5
 20
-800
 11
932.5
 21
-835
  0
LINE
  8
0
  6
CONTINUOUS
 62
     7
 10
430
 20
-572.5
 11
540
 21
-572.5
  0
LINE
  8
0
  6
CONTINUOUS
 62
     7
 10
618.6178588867187
 20
-701.4981689453125
 11
614.452392578125
 21
-749.1090087890625
  0
LINE
  8
0
  6
CONTINUOUS
 62
     7
 10
668.4853515625
 20
-625
 11
660.0000610351562
 21
-616.5147705078125
  0
LINE
  8
0
  6
CONTINUOUS
 62
     7
 10
660.0000610351562
 20
-616.5147705078125
 11
651.5147094726563
 21
-625.0000610351563
  0
LINE
  8
0
  6
CONTINUOUS
 62
     7
 10
660
 20
-633.4852905273437
 11
651.5147094726563
 21
-625.0000610351563
  0
LINE
  8
0
  6
CONTINUOUS
 62
     7
 10
668.4852905273438
 20
-625
 11
660
 21
-633.4852905273437
  0
LINE
  8
0
  6
CONTINUOUS
 62
     7
 10
430
 20
-577.5
 11
570
 21
-577.5
  0
LINE
  8
0
  6
CONTINUOUS
 62
     7
 10
540
 20
-572.5
 11
540
 21
-577.5
  0
LINE
  8
0
  6
CONTINUOUS
 62
     7
 10
882
 20
-87.21929931640625
 11
924.0001220703125
 21
-87.21929931640625
  0
LINE
  8
0
  6
CONTINUOUS
 62
     7
 10
882
 20
-95
 11
924
 21
-95
  0
LINE
  8
0
  6
CONTINUOUS
 62
     7
 10
882
 20
95
 11
924
 21
95
  0
LINE
  8
0
  6
CONTINUOUS
 62
     7
 10
882.0001831054687
 20
94.99982452392578
 11
878.0001831054687
 21
90.99981689453125
  0
LINE
  8
0
  6
CONTINUOUS
 62
     7
 10
877.9999389648437
 20
-90.99994659423828
 11
881.9999389648438
 21
-94.99995422363281
  0
LINE
  8
0
  6
CONTINUOUS
 62
     7
 10
924.0000610351563
 20
-95.00003814697266
 11
928.0000610351563
 21
-91.00003051757813
  0
LINE
  8
0
  6
CONTINUOUS
 62
     7
 10
927.9998779296875
 20
91.00003051757813
 11
923.9998779296875
 21
95.00003814697266
  0
LINE
  8
0
  6
CONTINUOUS
 62
     7
 10
881.9999389648438
 20
87.218994140625
 11
924.0000610351563
 21
87.218994140625
  0
LINE
  8
0
  6
CONTINUOUS
 62
     7
 10
881.9999389648438
 20
76.21875
 11
924.0000610351563
 21
76.21875
  0
LINE
  8
0
  6
CONTINUOUS
 62
     7
 10
881.9999389648438
 20
68.35662841796875
 11
924.0000610351563
 21
68.35662841796875
  0
LINE
  8
0
  6
CONTINUOUS
 62
     7
 10
881.9999389648438
 20
61.04364013671875
 11
924.0000610351563
 21
61.04364013671875
  0
LINE
  8
0
  6
CONTINUOUS
 62
     7
 10
881.9999389648438
 20
51.7645263671875
 11
924.0000610351563
 21
51.7645263671875
  0
LINE
  8
0
  6
CONTINUOUS
 62
     7
 10
881.9999389648438
 20
43.10443115234375
 11
924.0000610351563
 21
43.10443115234375
  0
LINE
  8
0
  6
CONTINUOUS
 62
     7
 10
881.9999389648438
 20
32.5186767578125
 11
924.0000610351563
 21
32.5186767578125
  0
LINE
  8
0
  6
CONTINUOUS
 62
     7
 10
881.9999389648438
 20
22.95574951171875
 11
924.0000610351563
 21
22.95574951171875
  0
LINE
  8
0
  6
CONTINUOUS
 62
     7
 10
881.9999389648438
 20
11.00006103515625
 11
924.0000610351563
 21
11.00006103515625
  0
LINE
  8
0
  6
CONTINUOUS
 62
     3
 10
410
 20
0
 11
1028.188720703125
 21
0
  0
LINE
  8
0
  6
CONTINUOUS
 62
     7
 10
878
 20
92.50001525878906
 11
878
 21
-92.49998474121094
  0
LINE
  8
0
  6
CONTINUOUS
 62
     7
 10
785
 20
177.5
 11
807
 21
177.5
  0
LINE
  8
0
  6
CONTINUOUS
 62
     7
 10
785
 20
-177.5
 11
807
 21
-177.5
  0
LINE
  8
0
  6
CONTINUOUS
 62
     7
 10
785
 20
177.5000152587891
 11
785
 21
-177.4999847412109
  0
LINE
  8
0
  6
CONTINUOUS
 62
     7
 10
807
 20
177.5000152587891
 11
807
 21
24.71845626831055
  0
LINE
  8
0
  6
CONTINUOUS
 62
     7
 10
863
 20
92.50001525878906
 11
863
 21
-92.49998474121094
  0
LINE
  8
0
  6
CONTINUOUS
 62
     7
 10
863
 20
92.5
 11
878
 21
92.5
  0
LINE
  8
0
  6
CONTINUOUS
 62
     7
 10
863
 20
-92.5
 11
878
 21
-92.5
  0
LINE
  8
0
  6
CONTINUOUS
 62
     7
 10
835
 20
130.8045196533203
 11
835
 21
-130.8044891357422
  0
LINE
  8
0
  6
CONTINUOUS
 62
     7
 10
811.1317138671875
 20
-139.2086486816406
 11
830.8682250976563
 21
-135.7285766601562
  0
LINE
  8
0
  6
CONTINUOUS
 62
     7
 10
811.1317749023437
 20
139.2085266113281
 11
830.8682250976563
 21
135.7284545898438
  0
LINE
  8
0
  6
CONTINUOUS
 62
     7
 10
807
 20
-24.71843338012695
 11
807
 21
-177.4999847412109
  0
LINE
  8
0
  6
CONTINUOUS
 62
     3
 10
802
 20
13.50959300994873
 11
802
 21
-15.11461353302002
  0
LINE
  8
0
  6
CONTINUOUS
 62
     7
 10
802.0000610351562
 20
9.899532318115234
 11
792.1005249023438
 21
-4.063043888891116E-06
  0
LINE
  8
0
  6
CONTINUOUS
 62
     7
 10
792.1005249023438
 20
2.932150164269842E-05
 11
802
 21
-9.899466514587402
  0
LINE
  8
0
  6
CONTINUOUS
 62
     7
 10
802
 20
-9.899466514587402
 11
811.8994750976562
 21
2.681810656213202E-05
  0
LINE
  8
0
  6
CONTINUOUS
 62
     7
 10
811.8994750976562
 20
3.421900328248739E-05
 11
802
 21
9.89948558807373
  0
LINE
  8
0
  6
CONTINUOUS
 62
     7
 10
835
 20
-40.2625732421875
 11
863
 21
-40.2625732421875
  0
LINE
  8
0
  6
CONTINUOUS
 62
     7
 10
863
 20
-62.53788375854492
 11
834.9999389648438
 21
-73.57269287109375
  0
LINE
  8
0
  6
CONTINUOUS
 62
     7
 10
862.9999389648437
 20
62.53790664672852
 11
834.9999389648438
 21
73.57269287109375
  0
LINE
  8
0
  6
CONTINUOUS
 62
     7
 10
835
 20
40.2625732421875
 11
863
 21
40.2625732421875
  0
LINE
  8
0
  6
CONTINUOUS
 62
     7
 10
710
 20
-180
 11
780
 21
-180
  0
LINE
  8
0
  6
CONTINUOUS
 62
     7
 10
710
 20
180
 11
780
 21
180
  0
LINE
  8
0
  6
CONTINUOUS
 62
     7
 10
705.0001220703125
 20
174.9999694824219
 11
710.0001220703125
 21
179.9999542236328
  0
LINE
  8
0
  6
CONTINUOUS
 62
     7
 10
779.9999389648437
 20
180.0000457763672
 11
784.9999389648438
 21
175.0000610351562
  0
LINE
  8
0
  6
CONTINUOUS
 62
     7
 10
704.9999389648438
 20
-174.9999542236328
 11
710
 21
-179.9999847412109
  0
LINE
  8
0
  6
CONTINUOUS
 62
     7
 10
780
 20
-179.9999847412109
 11
785
 21
-174.9999694824219
  0
LINE
  8
0
  6
CONTINUOUS
 62
     7
 10
710
 20
172.9221801757813
 11
780
 21
172.9221801757813
  0
LINE
  8
0
  6
CONTINUOUS
 62
     7
 10
710
 20
157.6149291992188
 11
780
 21
157.6149291992188
  0
LINE
  8
0
  6
CONTINUOUS
 62
     7
 10
710
 20
146.8772583007812
 11
780
 21
146.8772583007812
  0
LINE
  8
0
  6
CONTINUOUS
 62
     7
 10
710
 20
134.4267578125
 11
780
 21
134.4267578125
  0
LINE
  8
0
  6
CONTINUOUS
 62
     7
 10
710
 20
119.7057495117187
 11
780
 21
119.7057495117187
  0
LINE
  8
0
  6
CONTINUOUS
 62
     7
 10
710
 20
49.97906494140625
 11
780
 21
49.97906494140625
  0
LINE
  8
0
  6
CONTINUOUS
 62
     7
 10
710
 20
29.99993896484375
 11
780
 21
29.99993896484375
  0
LINE
  8
0
  6
CONTINUOUS
 62
     7
 10
710
 20
-29.99993896484375
 11
780
 21
-29.99993896484375
  0
LINE
  8
0
  6
CONTINUOUS
 62
     7
 10
710
 20
-49.97900390625
 11
780
 21
-49.97900390625
  0
LINE
  8
0
  6
CONTINUOUS
 62
     7
 10
710
 20
-119.7056274414063
 11
780
 21
-119.7056274414063
  0
LINE
  8
0
  6
CONTINUOUS
 62
     7
 10
710
 20
-134.4266357421875
 11
780
 21
-134.4266357421875
  0
LINE
  8
0
  6
CONTINUOUS
 62
     7
 10
710
 20
-146.8770446777344
 11
780
 21
-146.8770446777344
  0
LINE
  8
0
  6
CONTINUOUS
 62
     7
 10
710
 20
-157.6150207519531
 11
780
 21
-157.6150207519531
  0
LINE
  8
0
  6
CONTINUOUS
 62
     7
 10
710
 20
-172.9222412109375
 11
780
 21
-172.9222412109375
  0
LINE
  8
0
  6
CONTINUOUS
 62
     7
 10
715
 20
5
 11
755
 21
5
  0
LINE
  8
0
  6
CONTINUOUS
 62
     7
 10
715
 20
-5
 11
755
 21
-5
  0
LINE
  8
0
  6
CONTINUOUS
 62
     7
 10
579
 20
90.00000762939453
 11
579
 21
-89.99999237060547
  0
LINE
  8
0
  6
CONTINUOUS
 62
     7
 10
610
 20
132.5
 11
610
 21
-132.5
  0
LINE
  8
0
  6
CONTINUOUS
 62
     7
 10
590
 20
-132.5
 11
639.9988403320312
 21
-132.5
  0
LINE
  8
0
  6
CONTINUOUS
 62
     7
 10
590
 20
132.5
 11
640.0000610351562
 21
132.5
  0
LINE
  8
0
  6
CONTINUOUS
 62
     7
 10
578.9999389648438
 20
90.00011444091797
 11
590
 21
101.0001525878906
  0
LINE
  8
0
  6
CONTINUOUS
 62
     7
 10
579
 20
-90.00005340576172
 11
590
 21
-101.0000381469727
  0
LINE
  8
0
  6
CONTINUOUS
 62
     7
 10
590
 20
197.5
 11
590
 21
136.1569213867187
  0
LINE
  8
0
  6
CONTINUOUS
 62
     7
 10
705
 20
194.5000152587891
 11
705
 21
-194.4999847412109
  0
LINE
  8
0
  6
CONTINUOUS
 62
     7
 10
680
 20
212.5
 11
680
 21
25.98078155517578
  0
LINE
  8
0
  6
CONTINUOUS
 62
     7
 10
640.0000610351562
 20
132.500244140625
 11
666.3073120117187
 21
134.8018341064453
  0
LINE
  8
0
  6
CONTINUOUS
 62
     7
 10
639.9989013671875
 20
-132.4999389648437
 11
666.307373046875
 21
-134.8016204833984
  0
LINE
  8
0
  6
CONTINUOUS
 62
     7
 10
955
 20
197.5000152587891
 11
955
 21
140.2745513916016
  0
LINE
  8
0
  6
CONTINUOUS
 62
     7
 10
605
 20
-212.5
 11
940
 21
-212.5
  0
LINE
  8
0
  6
CONTINUOUS
 62
     7
 10
605
 20
212.5
 11
940
 21
212.5
  0
LINE
  8
0
  6
CONTINUOUS
 62
     7
 10
955
 20
-140.2745208740234
 11
955
 21
-197.4999847412109
  0
LINE
  8
0
  6
CONTINUOUS
 62
     7
 10
835
 20
108.1450881958008
 11
942.3884887695313
 21
125.4658126831055
  0
LINE
  8
0
  6
CONTINUOUS
 62
     7
 10
835
 20
-108.1454086303711
 11
942.388427734375
 21
-125.4661254882812
  0
LINE
  8
0
  6
CONTINUOUS
 62
     7
 10
680
 20
-25.98076629638672
 11
680
 21
-212.5
  0
LINE
  8
0
  6
CONTINUOUS
 62
     3
 10
920
 20
195.0000152587891
 11
920
 21
155.0000152587891
  0
LINE
  8
0
  6
CONTINUOUS
 62
     3
 10
625
 20
195
 11
625
 21
155
  0
LINE
  8
0
  6
CONTINUOUS
 62
     3
 10
605
 20
-175
 11
645
 21
-175
  0
LINE
  8
0
  6
CONTINUOUS
 62
     3
 10
605
 20
175
 11
645
 21
175
  0
LINE
  8
0
  6
CONTINUOUS
 62
     3
 10
625
 20
-155
 11
625
 21
-195
  0
LINE
  8
0
  6
CONTINUOUS
 62
     3
 10
920
 20
-154.9999847412109
 11
920
 21
-194.9999847412109
  0
LINE
  8
0
  6
CONTINUOUS
 62
     3
 10
900
 20
175
 11
940
 21
175
  0
LINE
  8
0
  6
CONTINUOUS
 62
     3
 10
900
 20
-175
 11
940
 21
-175
  0
LINE
  8
0
  6
CONTINUOUS
 62
     7
 10
430
 20
47.5
 11
430
 21
-47.5
  0
LINE
  8
0
  6
CONTINUOUS
 62
     7
 10
570
 20
55.00000381469727
 11
570
 21
-54.99999618530273
  0
LINE
  8
0
  6
CONTINUOUS
 62
     7
 10
570
 20
55
 11
579
 21
55
  0
LINE
  8
0
  6
CONTINUOUS
 62
     7
 10
570
 20
-55
 11
579
 21
-55
  0
LINE
  8
0
  6
CONTINUOUS
 62
     7
 10
430
 20
47.5
 11
570
 21
47.5
  0
LINE
  8
0
  6
CONTINUOUS
 62
     7
 10
430
 20
-47.5
 11
570
 21
-47.5
  0
LINE
  8
0
  6
CONTINUOUS
 62
     7
 10
430
 20
12.5
 11
547.5
 21
12.5
  0
LINE
  8
0
  6
CONTINUOUS
 62
     7
 10
430
 20
-12.5
 11
547.5
 21
-12.5
  0
LINE
  8
0
  6
CONTINUOUS
 62
     7
 10
590
 20
132.5
 11
590
 21
-132.5
  0
LINE
  8
0
  6
CONTINUOUS
 62
     7
 10
590
 20
-136.0249633789063
 11
590
 21
-197.5
  0
LINE
  8
0
  6
CONTINUOUS
 62
     7
 10
705
 20
-194.5
 11
840
 21
-194.5
  0
LINE
  8
0
  6
CONTINUOUS
 62
     7
 10
705
 20
194.5
 11
840
 21
194.5
  0
LINE
  8
0
  6
CONTINUOUS
 62
     3
 10
660
 20
-123.742301940918
 11
660
 21
-152.74560546875
  0
LINE
  8
0
  6
CONTINUOUS
 62
     7
 10
651.928955078125
 20
-147.1500244140625
 11
668.0711059570312
 21
-147.1500244140625
  0
LINE
  8
0
  6
CONTINUOUS
 62
     7
 10
651.492431640625
 20
-138.1500244140625
 11
668.507568359375
 21
-138.1500244140625
  0
LINE
  8
0
  6
CONTINUOUS
 62
     7
 10
651.492431640625
 20
-138.1499938964844
 11
651.6371459960938
 21
-133.5181579589844
  0
LINE
  8
0
  6
CONTINUOUS
 62
     7
 10
668.5075073242187
 20
-138.1500091552734
 11
668.4133911132813
 21
-135.1381225585937
  0
LINE
  8
0
  6
CONTINUOUS
 62
     7
 10
651.9288940429688
 20
-147.1500244140625
 11
651.9288940429688
 21
-138.1500244140625
  0
LINE
  8
0
  6
CONTINUOUS
 62
     7
 10
668.071044921875
 20
-147.1500244140625
 11
668.071044921875
 21
-138.1500244140625
  0
LINE
  8
0
  6
CONTINUOUS
 62
     3
 10
660
 20
-138.1499786376953
 11
668.0711059570312
 21
-147.1499633789063
  0
LINE
  8
0
  6
CONTINUOUS
 62
     3
 10
668.071044921875
 20
-138.1499938964844
 11
659.9999389648438
 21
-147.1500244140625
  0
LINE
  8
0
  6
CONTINUOUS
 62
     7
 10
660
 20
-147.1500244140625
 11
660
 21
-138.1500244140625
  0
LINE
  8
0
  6
CONTINUOUS
 62
     3
 10
660
 20
-138.1500549316406
 11
651.928955078125
 21
-147.1500396728516
  0
LINE
  8
0
  6
CONTINUOUS
 62
     3
 10
660
 20
-147.1500244140625
 11
651.928955078125
 21
-138.1500244140625
  0
LINE
  8
0
  6
CONTINUOUS
 62
     7
 10
540
 20
12.50000286102295
 11
540
 21
-12.49999713897705
  0
LINE
  8
0
  6
CONTINUOUS
 62
     3
 10
-222.1651763916016
 20
-625
 11
224.8161773681641
 21
-625
  0
LINE
  8
0
  6
CONTINUOUS
 62
     3
 10
0
 20
-371.2060546875
 11
0
 21
-846.7136840820313
  0
LINE
  8
0
  6
CONTINUOUS
 62
     7
 10
49.97896957397461
 20
-452.0776977539062
 11
48.89375686645508
 21
-453.201416015625
  0
LINE
  8
0
  6
CONTINUOUS
 62
     7
 10
-49.97904968261719
 20
-452.0777587890625
 11
-48.89385986328125
 21
-453.2014770507813
  0
LINE
  8
0
  6
CONTINUOUS
 62
     7
 10
-30.85336494445801
 20
-449.7517700195312
 11
-29.99989700317383
 21
-447.517578125
  0
LINE
  8
0
  6
CONTINUOUS
 62
     7
 10
30.85338401794434
 20
-449.7518005371094
 11
29.99994850158691
 21
-447.5176391601562
  0
LINE
  8
0
  6
CONTINUOUS
 62
     7
 10
-15.99993896484375
 20
-435
 11
16.00006103515625
 21
-435
  0
LINE
  8
0
  6
CONTINUOUS
 62
     7
 10
20.04733657836914
 20
-446.1197814941406
 11
16.00006294250488
 21
-434.9999694824219
  0
LINE
  8
0
  6
CONTINUOUS
 62
     7
 10
-20.04728317260742
 20
-446.119873046875
 11
-15.99998950958252
 21
-435
  0
LINE
  8
0
  6
CONTINUOUS
 62
     7
 10
11.11699676513672
 20
-424.1568908691406
 11
12.49995040893555
 21
-432
  0
LINE
  8
0
  6
CONTINUOUS
 62
     7
 10
4.999970436096191
 20
-421.9976806640625
 11
10.01995182037354
 21
-423.0286560058594
  0
LINE
  8
0
  6
CONTINUOUS
 62
     7
 10
5
 20
-386
 11
5
 21
-429.2000122070313
  0
LINE
  8
0
  6
CONTINUOUS
 62
     7
 10
-11.11702442169189
 20
-424.1569213867187
 11
-12.49997901916504
 21
-432.0000305175781
  0
LINE
  8
0
  6
CONTINUOUS
 62
     7
 10
-5.000048637390137
 20
-421.9975891113281
 11
-10.02002239227295
 21
-423.028564453125
  0
LINE
  8
0
  6
CONTINUOUS
 62
     7
 10
-5
 20
-386
 11
-5
 21
-429.2000122070313
  0
LINE
  8
0
  6
CONTINUOUS
 62
     7
 10
12.5
 20
-432.0000305175781
 11
12.5
 21
-435
  0
LINE
  8
0
  6
CONTINUOUS
 62
     7
 10
-12.5
 20
-432
 11
-12.5
 21
-435
  0
LINE
  8
0
  6
CONTINUOUS
 62
     3
 10
51.24958038330078
 20
-536.2321166992187
 11
66.24959564208984
 21
-510.2513122558594
  0
LINE
  8
0
  6
CONTINUOUS
 62
     3
 10
-51.25072860717773
 20
-536.2328491210938
 11
-66.25075531005859
 21
-510.2520141601562
  0
LINE
  8
0
  6
CONTINUOUS
 62
     3
 10
-51.25021362304688
 20
-713.767333984375
 11
-66.250244140625
 21
-739.7481689453125
  0
LINE
  8
0
  6
CONTINUOUS
 62
     3
 10
51.24929046630859
 20
-713.767822265625
 11
66.24935150146484
 21
-739.7486572265625
  0
LINE
  8
0
  6
CONTINUOUS
 62
     7
 10
212.5
 20
-660
 11
212.5
 21
-835
  0
LINE
  8
0
  6
CONTINUOUS
 62
     7
 10
-212.5
 20
-660
 11
-212.5
 21
-835
  0
LINE
  8
0
  6
CONTINUOUS
 62
     7
 10
-212.5
 20
-835
 11
-102.5
 21
-835
  0
LINE
  8
0
  6
CONTINUOUS
 62
     7
 10
-212.5
 20
-800
 11
-102.5
 21
-800
  0
LINE
  8
0
  6
CONTINUOUS
 62
     3
 10
-175
 20
-785
 11
-175
 21
-850
  0
LINE
  8
0
  6
CONTINUOUS
 62
     3
 10
175
 20
-785
 11
175
 21
-850
  0
LINE
  8
0
  6
CONTINUOUS
 62
     7
 10
-102.5
 20
-800
 11
-102.5
 21
-835
  0
LINE
  8
0
  6
CONTINUOUS
 62
     7
 10
102.5
 20
-800
 11
102.5
 21
-835
  0
LINE
  8
0
  6
CONTINUOUS
 62
     7
 10
-94.5
 20
-810
 11
-33
 21
-810
  0
LINE
  8
0
  6
CONTINUOUS
 62
     7
 10
-99.5
 20
-830
 11
99.5
 21
-830
  0
LINE
  8
0
  6
CONTINUOUS
 62
     7
 10
102.5
 20
-835
 11
212.5
 21
-835
  0
LINE
  8
0
  6
CONTINUOUS
 62
     7
 10
102.5
 20
-800
 11
212.5
 21
-800
  0
LINE
  8
0
  6
CONTINUOUS
 62
     7
 10
102.4995727539062
 20
-800.0000610351562
 11
93.20901489257813
 21
-747.3106689453125
  0
LINE
  8
0
  6
CONTINUOUS
 62
     7
 10
122.6533966064453
 20
-787.6047973632813
 11
120.0000228881836
 21
-772.5567626953125
  0
LINE
  8
0
  6
CONTINUOUS
 62
     7
 10
-122.6534576416016
 20
-787.6047973632813
 11
-120.0000152587891
 21
-772.556396484375
  0
LINE
  8
0
  6
CONTINUOUS
 62
     7
 10
-120
 20
-684.42431640625
 11
-120
 21
-772.5543823242187
  0
LINE
  8
0
  6
CONTINUOUS
 62
     7
 10
120
 20
-684.42431640625
 11
120
 21
-772.5545043945313
  0
LINE
  8
0
  6
CONTINUOUS
 62
     3
 10
136.2721099853516
 20
-568.5538940429688
 11
163.9885406494141
 21
-557.0733642578125
  0
LINE
  8
0
  6
CONTINUOUS
 62
     3
 10
56.44467544555664
 20
-488.7272338867188
 11
67.9251708984375
 21
-461.0108642578125
  0
LINE
  8
0
  6
CONTINUOUS
 62
     3
 10
-56.44671630859375
 20
-488.72802734375
 11
-67.92723846435547
 21
-461.0115966796875
  0
LINE
  8
0
  6
CONTINUOUS
 62
     3
 10
-136.2722625732422
 20
-568.5547485351562
 11
-163.9885406494141
 21
-557.0742797851563
  0
LINE
  8
0
  6
CONTINUOUS
 62
     3
 10
-136.2725830078125
 20
-681.4451293945312
 11
-163.9889221191406
 21
-692.9255981445312
  0
LINE
  8
0
  6
CONTINUOUS
 62
     3
 10
-56.44816589355469
 20
-761.2713623046875
 11
-67.92867279052734
 21
-788.9877319335938
  0
LINE
  8
0
  6
CONTINUOUS
 62
     3
 10
56.44288635253906
 20
-761.2734985351562
 11
67.92338562011719
 21
-788.9898681640625
  0
LINE
  8
0
  6
CONTINUOUS
 62
     3
 10
136.2715454101563
 20
-681.4467163085938
 11
163.9879760742187
 21
-692.92724609375
  0
LINE
  8
0
  6
CONTINUOUS
 62
     7
 10
-19.364990234375
 20
-452.9978332519531
 11
-19.364990234375
 21
-481.55908203125
  0
LINE
  8
0
  6
CONTINUOUS
 62
     7
 10
19.36492919921875
 20
-452.9978332519531
 11
19.36492919921875
 21
-481.55908203125
  0
LINE
  8
0
  6
CONTINUOUS
 62
     7
 10
-102.5000152587891
 20
-800
 11
-93.20936584472656
 21
-747.310546875
  0
LINE
  8
0
  6
DASHED
 62
     7
 10
-162.5
 20
-800
 11
-162.5
 21
-835
  0
LINE
  8
0
  6
DASHED
 62
     7
 10
-187.5
 20
-800
 11
-187.5
 21
-835
  0
LINE
  8
0
  6
DASHED
 62
     7
 10
187.5
 20
-800
 11
187.5
 21
-835
  0
LINE
  8
0
  6
DASHED
 62
     7
 10
162.5
 20
-800
 11
162.5
 21
-835
  0
LINE
  8
0
  6
CONTINUOUS
 62
     7
 10
-12.5
 20
-572.5
 11
12.5
 21
-572.5
  0
LINE
  8
0
  6
CONTINUOUS
 62
     7
 10
-12.5
 20
-586.5
 11
12.5
 21
-586.5
  0
LINE
  8
0
  6
CONTINUOUS
 62
     7
 10
12.5
 20
-572.5
 11
12.5
 21
-586.5
  0
LINE
  8
0
  6
CONTINUOUS
 62
     7
 10
-12.5
 20
-572.5
 11
-12.5
 21
-586.5
  0
LINE
  8
0
  6
CONTINUOUS
 62
     7
 10
33
 20
-810
 11
94.5
 21
-810
  0
LINE
  8
0
  6
CONTINUOUS
 62
     7
 10
147.1500244140625
 20
-633.071044921875
 11
147.1500244140625
 21
-616.928955078125
  0
LINE
  8
0
  6
CONTINUOUS
 62
     7
 10
138.1500244140625
 20
-633.507568359375
 11
138.1500244140625
 21
-616.492431640625
  0
LINE
  8
0
  6
CONTINUOUS
 62
     7
 10
138.1499938964844
 20
-633.507568359375
 11
132.2383880615234
 21
-633.3228149414062
  0
LINE
  8
0
  6
CONTINUOUS
 62
     7
 10
138.1500091552734
 20
-616.492431640625
 11
132.2383422851562
 21
-616.6771850585938
  0
LINE
  8
0
  6
CONTINUOUS
 62
     7
 10
147.1500244140625
 20
-633.071044921875
 11
138.1500244140625
 21
-633.071044921875
  0
LINE
  8
0
  6
CONTINUOUS
 62
     7
 10
147.1500244140625
 20
-616.928955078125
 11
138.1500244140625
 21
-616.928955078125
  0
LINE
  8
0
  6
CONTINUOUS
 62
     3
 10
138.1500091552734
 20
-624.9999389648437
 11
147.1500091552734
 21
-616.9288940429687
  0
LINE
  8
0
  6
CONTINUOUS
 62
     3
 10
138.1500854492187
 20
-616.9290161132812
 11
147.1500854492188
 21
-625.0000610351563
  0
LINE
  8
0
  6
CONTINUOUS
 62
     3
 10
147.1500244140625
 20
-625
 11
138.1500244140625
 21
-633.071044921875
  0
LINE
  8
0
  6
CONTINUOUS
 62
     3
 10
138.1500244140625
 20
-625
 11
147.1500244140625
 21
-633.071044921875
  0
LINE
  8
0
  6
CONTINUOUS
 62
     7
 10
147.1500244140625
 20
-625
 11
138.1500244140625
 21
-625
  0
LINE
  8
0
  6
CONTINUOUS
 62
     7
 10
927.9999389648438
 20
-716.5
 11
927.9999389648438
 21
-625
  0
LINE
  8
0
  6
CONTINUOUS
 62
     7
 10
927.9999389648438
 20
-533.5
 11
927.9999389648438
 21
-625
  0
LINE
  8
0
  6
CONTINUOUS
 62
     7
 10
928.0001831054688
 20
-91.5
 11
928.0001831054688
 21
0
  0
LINE
  8
0
  6
CONTINUOUS
 62
     7
 10
928.0001831054688
 20
91.5
 11
928.0001831054688
 21
0
  0
LINE
  8
0
  6
CONTINUOUS
 62
     7
 10
928.0001831054688
 20
-91.50019836425781
 11
929.000244140625
 21
-92.50025939941406
  0
LINE
  8
0
  6
CONTINUOUS
 62
     7
 10
928.0001220703125
 20
91.49989318847656
 11
929.0001220703125
 21
92.49987030029297
  0
LINE
  8
0
  6
CONTINUOUS
 62
     7
 10
928.0001831054688
 20
14.397705078125
 11
928.0001831054688
 21
0
  0
LINE
  8
0
  6
CONTINUOUS
 62
     7
 10
927.9999389648438
 20
-717.5
 11
945.9999389648437
 21
-717.5
  0
LINE
  8
0
  6
CONTINUOUS
 62
     7
 10
945.9999389648437
 20
-532.5
 11
945.9999389648437
 21
-717.5
  0
LINE
  8
0
  6
CONTINUOUS
 62
     7
 10
927.9999389648438
 20
-532.5
 11
927.9999389648438
 21
-717.5
  0
LINE
  8
0
  6
CONTINUOUS
 62
     7
 10
927.9999389648438
 20
-532.5
 11
945.9999389648437
 21
-532.5
  0
LINE
  8
0
  6
CONTINUOUS
 62
     7
 10
946.0001831054688
 20
-92.5
 11
946.0001831054688
 21
0
  0
LINE
  8
0
  6
CONTINUOUS
 62
     7
 10
928.0001831054688
 20
-92.5
 11
946.0001831054688
 21
-92.5
  0
LINE
  8
0
  6
CONTINUOUS
 62
     7
 10
928.0001831054688
 20
92.5
 11
946.0001831054688
 21
92.5
  0
LINE
  8
0
  6
CONTINUOUS
 62
     7
 10
928.0001831054688
 20
-92.5
 11
928.0001831054688
 21
0
  0
LINE
  8
0
  6
CONTINUOUS
 62
     7
 10
911.7801513671875
 20
0
 11
995.3555908203125
 21
0
  0
LINE
  8
0
  6
CONTINUOUS
 62
     7
 10
946.0001831054688
 20
0
 11
946.0001831054688
 21
92.5
  0
LINE
  8
0
  6
CONTINUOUS
 62
     7
 10
1007.999938964844
 20
-500
 11
1007.999938964844
 21
-750
  0
LINE
  8
0
  6
CONTINUOUS
 62
     7
 10
989.9999389648438
 20
-500
 11
989.9999389648438
 21
-750
  0
LINE
  8
0
  6
CONTINUOUS
 62
     7
 10
989.9999389648438
 20
-500
 11
1007.999938964844
 21
-500
  0
LINE
  8
0
  6
CONTINUOUS
 62
     7
 10
989.9999389648438
 20
-750
 11
1007.999938964844
 21
-750
  0
LINE
  8
0
  6
CONTINUOUS
 62
     7
 10
950.9999389648437
 20
-572.5
 11
984.9999389648438
 21
-572.5
  0
LINE
  8
0
  6
CONTINUOUS
 62
     7
 10
950.9999389648437
 20
-677.5
 11
984.9999389648438
 21
-677.5
  0
LINE
  8
0
  6
CONTINUOUS
 62
     7
 10
945.9999389648437
 20
-552.5
 11
989.9999389648438
 21
-552.5
  0
LINE
  8
0
  6
CONTINUOUS
 62
     7
 10
945.9999389648437
 20
-697.5
 11
989.9999389648438
 21
-697.5
  0
LINE
  8
0
  6
CONTINUOUS
 62
     7
 10
945.9999389648437
 20
-620
 11
989.9999389648438
 21
-620
  0
LINE
  8
0
  6
CONTINUOUS
 62
     7
 10
945.9999389648437
 20
-630
 11
989.9999389648438
 21
-630
  0
LINE
  8
0
  6
CONTINUOUS
 62
     7
 10
1008.000183105469
 20
125
 11
1008.000183105469
 21
-125
  0
LINE
  8
0
  6
CONTINUOUS
 62
     7
 10
990.0001831054687
 20
125
 11
990.0001831054687
 21
-125
  0
LINE
  8
0
  6
CONTINUOUS
 62
     7
 10
990.0001831054687
 20
125
 11
1008.000183105469
 21
125
  0
LINE
  8
0
  6
CONTINUOUS
 62
     7
 10
990.0001831054687
 20
-125
 11
1008.000183105469
 21
-125
  0
LINE
  8
0
  6
CONTINUOUS
 62
     7
 10
951.0001831054688
 20
52.5
 11
985.0001831054688
 21
52.5
  0
LINE
  8
0
  6
CONTINUOUS
 62
     7
 10
951.0001831054688
 20
-52.5
 11
985.0001831054688
 21
-52.5
  0
LINE
  8
0
  6
CONTINUOUS
 62
     7
 10
946.0001831054688
 20
72.5
 11
990.0001831054687
 21
72.5
  0
LINE
  8
0
  6
CONTINUOUS
 62
     7
 10
946.0001831054688
 20
-72.5
 11
990.0001831054687
 21
-72.5
  0
LINE
  8
0
  6
CONTINUOUS
 62
     7
 10
946.0001831054688
 20
5
 11
990.0001831054687
 21
5
  0
LINE
  8
0
  6
CONTINUOUS
 62
     7
 10
946.0001831054688
 20
-5
 11
990.0001831054687
 21
-5
  0
LINE
  8
0
  6
CONTINUOUS
 62
     7
 10
701.3414916992187
 20
-406
 11
767.1556396484375
 21
-406
  0
LINE
  8
0
  6
CONTINUOUS
 62
     7
 10
735
 20
-374.3042602539063
 11
735
 21
-449.2459106445313
  0
ARC
  8
0
  6
CONTINUOUS
 62
     7
 10
753.4063720703125
 20
-430.9440612792969
 40
6.000000000000024
 50
126.4238645555929
 51
189.9999620293671
  0
ARC
  8
0
  6
CONTINUOUS
 62
     7
 10
830
 20
-755.8045043945312
 40
5.000000000000016
 50
279.9998315725273
 51
0
  0
ARC
  8
0
  6
CONTINUOUS
 62
     7
 10
830
 20
-494.1955261230469
 40
5
 50
0
 51
79.99984057839285
  0
ARC
  8
0
  6
CONTINUOUS
 62
     7
 10
812
 20
-480.8673706054688
 40
5.000000000000038
 50
179.9999776881996
 51
260.0001666062392
  0
ARC
  8
0
  6
CONTINUOUS
 62
     7
 10
825
 20
-483.1596069335937
 40
5.000000000000038
 50
179.9999776881996
 51
259.9998114364029
  0
ARC
  8
0
  6
CONTINUOUS
 62
     7
 10
735
 20
-406
 40
25
 50
306.4238458862582
 51
233.5761318019415
  0
CIRCLE
  8
0
  6
CONTINUOUS
 62
     7
 10
735
 20
-406
 40
15
  0
ARC
  8
0
  6
CONTINUOUS
 62
     7
 10
725.76513671875
 20
-425
 40
1.999999999999985
 50
89.99998201391097
 51
170.0000206677889
  0
ARC
  8
0
  6
CONTINUOUS
 62
     7
 10
744.23486328125
 20
-425
 40
1.999999999999964
 50
9.999994586450628
 51
89.99998201391097
  0
ARC
  8
0
  6
CONTINUOUS
 62
     7
 10
716.5936279296875
 20
-430.9440612792969
 40
6.000000000000009
 50
349.8636347103541
 51
53.57615411374161
  0
ARC
  8
0
  6
CONTINUOUS
 62
     7
 10
660
 20
-780
 40
19.99999999999996
 50
270.0000179860893
 51
0
  0
ARC
  8
0
  6
CONTINUOUS
 62
     7
 10
866.65234375
 20
-760
 40
40.00000000000004
 50
219.9999869972261
 51
270.0000179860893
  0
ARC
  8
0
  6
CONTINUOUS
 62
     7
 10
805
 20
-593.1822509765625
 40
99.99999999999996
 50
179.9999776881997
 51
219.9999833547605
  0
ARC
  8
0
  6
CONTINUOUS
 62
     7
 10
534.7567749023437
 20
-742.136474609375
 40
79.99999999999997
 50
313.6728929920274
 51
354.9999280015804
  0
ARC
  8
0
  6
CONTINUOUS
 62
     7
 10
613.6368408203125
 20
-701.0623779296875
 40
5.000000000000021
 50
355.0000172209265
 51
89.99998201391031
  0
ARC
  8
0
  6
CONTINUOUS
 62
     7
 10
655
 20
-481.1494445800781
 40
10.00000000000002
 50
274.9999964962948
 51
0
  0
CIRCLE
  8
0
  6
CONTINUOUS
 62
     3
 10
658
 20
-730
 40
8.507550239562988
  0
CIRCLE
  8
0
  6
CONTINUOUS
 62
     3
 10
660
 20
-625
 40
8.507550239562988
  0
ARC
  8
0
  6
CONTINUOUS
 62
     7
 10
665
 20
-475.2554321289063
 40
15
 50
274.9999964962946
 51
0
  0
ARC
  8
0
  6
CONTINUOUS
 62
     7
 10
735
 20
8.581966540077701E-06
 40
12.50000000000001
 50
203.5781631757645
 51
336.4218215699954
  0
ARC
  8
0
  6
CONTINUOUS
 62
     7
 10
830
 20
-130.8044891357422
 40
4.999999999999988
 50
279.9998315725274
 51
0
  0
ARC
  8
0
  6
CONTINUOUS
 62
     7
 10
830
 20
130.8045196533203
 40
5
 50
0
 51
79.99984057839285
  0
ARC
  8
0
  6
CONTINUOUS
 62
     7
 10
812
 20
-144.1326446533203
 40
5.000000000000009
 50
100.0001917513211
 51
179.9999640278213
  0
ARC
  8
0
  6
CONTINUOUS
 62
     7
 10
812
 20
144.1326446533203
 40
5.000000000000038
 50
179.9999776881996
 51
260.0001666062394
  0
ARC
  8
0
  6
CONTINUOUS
 62
     7
 10
790
 20
1.012953453027876E-05
 40
29.99999999999999
 50
304.5180762587575
 51
55.4819237412425
  0
CIRCLE
  8
0
  6
CONTINUOUS
 62
     3
 10
802
 20
1.046718534780666E-05
 40
10.69374942779541
  0
ARC
  8
0
  6
CONTINUOUS
 62
     7
 10
735
 20
8.581966540077701E-06
 40
20.04728698730464
 50
14.44262624528875
 51
165.557392424046
  0
ARC
  8
0
  6
CONTINUOUS
 62
     7
 10
735
 20
8.581966540077701E-06
 40
20.04728698730467
 50
194.4426348967107
 51
345.557401075468
  0
ARC
  8
0
  6
CONTINUOUS
 62
     7
 10
735
 20
8.581966540077701E-06
 40
12.5
 50
23.57817843000461
 51
156.4218368242355
  0
ARC
  8
0
  6
CONTINUOUS
 62
     7
 10
715
 20
8.019214874366298E-06
 40
5
 50
89.99998201391031
 51
270.0000006832456
  0
ARC
  8
0
  6
CONTINUOUS
 62
     7
 10
755
 20
9.144718205789104E-06
 40
5
 50
270.0000179860897
 51
89.99998201391031
  0
ARC
  8
0
  6
CONTINUOUS
 62
     7
 10
665
 20
149.7445678710938
 40
14.99999999999999
 50
275.0000374774295
 51
0
  0
ARC
  8
0
  6
CONTINUOUS
 62
     7
 10
665
 20
-149.7445678710938
 40
15
 50
359.9999453584866
 51
84.99990788105706
  0
ARC
  8
0
  6
CONTINUOUS
 62
     7
 10
605
 20
-197.5
 40
15
 50
179.9999776881996
 51
270.0000280040019
  0
ARC
  8
0
  6
CONTINUOUS
 62
     7
 10
940
 20
-197.4999847412109
 40
15
 50
270.0000179860892
 51
0
  0
ARC
  8
0
  6
CONTINUOUS
 62
     7
 10
940
 20
197.5000152587891
 40
15
 50
0
 51
89.99998201391075
  0
ARC
  8
0
  6
CONTINUOUS
 62
     7
 10
605
 20
197.5
 40
15
 50
89.99998201391075
 51
179.9999640278213
  0
ARC
  8
0
  6
CONTINUOUS
 62
     7
 10
940
 20
-140.2745208740234
 40
15
 50
0
 51
80.83765207255355
  0
ARC
  8
0
  6
CONTINUOUS
 62
     7
 10
940
 20
140.2745513916016
 40
15
 50
279.1623342670681
 51
0
  0
ARC
  8
0
  6
CONTINUOUS
 62
     7
 10
685
 20
7.175086921051843E-06
 40
19.99999999999998
 50
120.0000306600608
 51
239.999952037095
  0
ARC
  8
0
  6
CONTINUOUS
 62
     7
 10
670
 20
25.98078155517578
 40
10
 50
299.9999300284562
 51
360
  0
ARC
  8
0
  6
CONTINUOUS
 62
     7
 10
670
 20
-25.98076629638672
 40
10
 50
0
 51
60.00006997154377
  0
ARC
  8
0
  6
CONTINUOUS
 62
     7
 10
547.5
 20
3.306167400296545E-06
 40
12.5
 50
270.0000179860895
 51
89.99998201391058
  0
CIRCLE
  8
0
  6
CONTINUOUS
 62
     7
 10
625
 20
175
 40
12.5
  0
CIRCLE
  8
0
  6
CONTINUOUS
 62
     7
 10
920
 20
175.0000152587891
 40
12.5
  0
CIRCLE
  8
0
  6
CONTINUOUS
 62
     7
 10
625
 20
-175
 40
12.5
  0
CIRCLE
  8
0
  6
CONTINUOUS
 62
     7
 10
920
 20
-174.9999847412109
 40
12.5
  0
ARC
  8
0
  6
CONTINUOUS
 62
     7
 10
840
 20
186.5000152587891
 40
7.999999999999991
 50
24.78092863906702
 51
90.00000250447847
  0
ARC
  8
0
  6
CONTINUOUS
 62
     7
 10
840
 20
-186.4999847412109
 40
8.000000000000007
 50
269.9999974955215
 51
333.8935946053164
  0
ARC
  8
0
  6
CONTINUOUS
 62
     7
 10
0
 20
-625
 40
180
 50
66.2311012871847
 51
73.87937636503574
  0
ARC
  8
0
  6
CONTINUOUS
 62
     7
 10
0
 20
-625
 40
180
 50
80.40592264530639
 51
99.59405504289326
  0
ARC
  8
0
  6
CONTINUOUS
 62
     7
 10
0
 20
-625
 40
180
 50
106.1206627948664
 51
113.76891738215
  0
ARC
  8
0
  6
CONTINUOUS
 62
     7
 10
9.73834228515625
 20
-424.4000244140625
 40
1.39999997615814
 50
9.999995440224259
 51
78.39428850076496
  0
ARC
  8
0
  6
CONTINUOUS
 62
     7
 10
0
 20
-386
 40
5
 50
0
 51
179.9999640278213
  0
ARC
  8
0
  6
CONTINUOUS
 62
     7
 10
6.4000244140625
 20
-429.2000122070313
 40
1.399999976158142
 50
179.9999776881999
 51
270.000028004002
  0
ARC
  8
0
  6
CONTINUOUS
 62
     7
 10
-6.4000244140625
 20
-429.2000122070313
 40
1.399999976158144
 50
269.999963344576
 51
0
  0
ARC
  8
0
  6
CONTINUOUS
 62
     7
 10
-9.73834228515625
 20
-424.4000244140625
 40
1.399999976158126
 50
101.6056755270564
 51
169.9999660262765
  0
ARC
  8
0
  6
CONTINUOUS
 62
     7
 10
33
 20
-807
 40
2.999999999999999
 50
179.9999913485786
 51
270.0000006832453
  0
ARC
  8
0
  6
CONTINUOUS
 62
     7
 10
-33
 20
-807
 40
3.000000000000003
 50
269.9999974955218
 51
0
  0
CIRCLE
  8
0
  6
CONTINUOUS
 62
     7
 10
0
 20
-625
 40
90
  0
CIRCLE
  8
0
  6
CONTINUOUS
 62
     7
 10
0
 20
-625
 40
132.5
  0
ARC
  8
0
  6
CONTINUOUS
 62
     3
 10
0
 20
-625
 40
117.5
 50
352.6806463420093
 51
7.319326337234041
  0
ARC
  8
0
  6
CONTINUOUS
 62
     3
 10
0
 20
-625
 40
117.5
 50
52.6806650871343
 51
67.31933483707533
  0
ARC
  8
0
  6
CONTINUOUS
 62
     3
 10
0
 20
-625
 40
117.5
 50
112.6806633416918
 51
127.3193296765383
  0
ARC
  8
0
  6
CONTINUOUS
 62
     3
 10
0
 20
-625
 40
117.5
 50
172.6806513509656
 51
187.3193313461904
  0
ARC
  8
0
  6
CONTINUOUS
 62
     3
 10
0
 20
-625
 40
117.5
 50
232.6806566630834
 51
247.3193366583082
  0
ARC
  8
0
  6
CONTINUOUS
 62
     3
 10
0
 20
-625
 40
117.5
 50
292.6806515025463
 51
307.3193314977711
  0
ARC
  8
0
  6
CONTINUOUS
 62
     7
 10
0
 20
-660
 40
212.5
 50
0
 51
179.9999640278213
  0
ARC
  8
0
  6
CONTINUOUS
 62
     7
 10
94.5
 20
-802
 40
8.000000000000053
 50
270.0000179860893
 51
0
  0
ARC
  8
0
  6
CONTINUOUS
 62
     7
 10
99.5
 20
-833
 40
3
 50
0
 51
89.9999820139107
  0
ARC
  8
0
  6
CONTINUOUS
 62
     7
 10
-99.5
 20
-833
 40
3.000000000000034
 50
89.9999820139107
 51
179.9999640278219
  0
ARC
  8
0
  6
CONTINUOUS
 62
     7
 10
-94.5
 20
-802
 40
7.999999999999996
 50
179.9999776881995
 51
270.000028004002
  0
ARC
  8
0
  6
CONTINUOUS
 62
     7
 10
-137.4259033203125
 20
-785
 40
14.99999999999994
 50
270.0000179860893
 51
349.9999772390186
  0
ARC
  8
0
  6
CONTINUOUS
 62
     7
 10
137.4259033203125
 20
-785
 40
15
 50
189.9999656718325
 51
270.0000179860893
  0
ARC
  8
0
  6
CONTINUOUS
 62
     7
 10
78.43731689453125
 20
-749.915283203125
 40
14.99999999999998
 50
10.00000824682919
 51
122.1257357939305
  0
ARC
  8
0
  6
CONTINUOUS
 62
     7
 10
-78.437255859375
 20
-749.915283203125
 40
15.00000000000005
 50
57.87424872445833
 51
170.0000206677892
  0
ARC
  8
0
  6
CONTINUOUS
 62
     7
 10
135
 20
-684.42431640625
 40
15.00000000000002
 50
156.2418886603622
 51
179.9999640278215
  0
ARC
  8
0
  6
CONTINUOUS
 62
     7
 10
-135
 20
-684.42431640625
 40
15
 50
0
 51
23.75813342406704
  0
ARC
  8
0
  6
CONTINUOUS
 62
     3
 10
0
 20
-625
 40
162.5
 50
17.20928316106158
 51
27.79072833646124
  0
ARC
  8
0
  6
CONTINUOUS
 62
     3
 10
0
 20
-625
 40
162.5
 50
62.20928782839527
 51
72.79073983398408
  0
ARC
  8
0
  6
CONTINUOUS
 62
     3
 10
0
 20
-625
 40
162.5
 50
107.2093676278098
 51
117.7908059730203
  0
ARC
  8
0
  6
CONTINUOUS
 62
     3
 10
0
 20
-625
 40
162.5
 50
152.2093586347651
 51
162.790810640354
  0
ARC
  8
0
  6
CONTINUOUS
 62
     3
 10
0
 20
-625
 40
162.5
 50
197.2092849822944
 51
207.7907369878832
  0
ARC
  8
0
  6
CONTINUOUS
 62
     3
 10
0
 20
-625
 40
162.5
 50
242.2092623288714
 51
252.7907006740819
  0
ARC
  8
0
  6
CONTINUOUS
 62
     3
 10
0
 20
-625
 40
162.5
 50
287.2092123546917
 51
297.7906643602805
  0
ARC
  8
0
  6
CONTINUOUS
 62
     3
 10
0
 20
-625
 40
162.5
 50
332.2091231069243
 51
342.7905597445875
  0
ARC
  8
0
  6
CONTINUOUS
 62
     7
 10
0
 20
-625
 40
47.49999999999995
 50
105.2575454498303
 51
74.74246957703872
  0
ARC
  8
0
  6
CONTINUOUS
 62
     7
 10
14.36492919921875
 20
-452.9978332519531
 40
5
 50
0
 51
86.03046731359598
  0
ARC
  8
0
  6
CONTINUOUS
 62
     7
 10
-14.364990234375
 20
-452.9978332519531
 40
5.000000000000004
 50
93.96955135573867
 51
179.9999640278213
  0
ARC
  8
0
  6
CONTINUOUS
 62
     7
 10
-34.364990234375
 20
-481.55908203125
 40
15.00000000000001
 50
283.4727710296146
 51
0
  0
ARC
  8
0
  6
CONTINUOUS
 62
     7
 10
34.36492919921875
 20
-481.55908203125
 40
15
 50
179.9999776881996
 51
256.5271793378284
  0
CIRCLE
  8
0
  6
CONTINUOUS
 62
     3
 10
0
 20
-625
 40
8
  0
CIRCLE
  8
0
  6
CONTINUOUS
 62
     7
 10
0
 20
-625
 40
7.099999904632568
  0
ARC
  8
0
  6
CONTINUOUS
 62
     7
 10
984.9999389648438
 20
-682.5
 40
5
 50
0
 51
90.00000250447782
  0
ARC
  8
0
  6
CONTINUOUS
 62
     7
 10
984.9999389648438
 20
-567.5
 40
5.000000000000004
 50
269.9999974955222
 51
0
  0
ARC
  8
0
  6
CONTINUOUS
 62
     7
 10
950.9999389648437
 20
-567.5
 40
4.999999999999943
 50
179.9999913485786
 51
270.0000006832456
  0
ARC
  8
0
  6
CONTINUOUS
 62
     7
 10
950.9999389648437
 20
-682.5
 40
5.000000000000004
 50
90.00000250447782
 51
180.0000050089569
  0
ARC
  8
0
  6
CONTINUOUS
 62
     7
 10
985.0001831054688
 20
-57.5
 40
5
 50
0
 51
90.00000250447782
  0
ARC
  8
0
  6
CONTINUOUS
 62
     7
 10
985.0001831054688
 20
57.5
 40
4.999999999999997
 50
269.9999974955222
 51
0
  0
ARC
  8
0
  6
CONTINUOUS
 62
     7
 10
951.0001831054688
 20
57.5
 40
4.999999999999943
 50
179.999991348578
 51
270.0000006832456
  0
ARC
  8
0
  6
CONTINUOUS
 62
     7
 10
951.0001831054688
 20
-57.5
 40
4.999999999999997
 50
90.00000250447782
 51
180.0000050089563
  0
TEXT
  8
0
  6
CONTINUOUS
 62
     7
 10
-205.00004529953
 20
-17.5
 40
35
 41
1.028571682175693
  1
ERK-NCF-3700
  0
ENDSEC
  0
EOF
