  0
SECTION
  2
HEADER
  0
ENDSEC
  0
SECTION
  2
TABLES
  0
TABLE
  2
LTYPE
 70
    22
  0
LTYPE
  2
CONTINUOUS
 70
    64
  3
Solid line
 72
    65
 73
     0
 40
0.000000
  0
LTYPE
  2
DASHED
 70
    64
  3
__ __ __ __ __ __ __ __ __ __ __ __ __ __ __
 72
    65
 73
     2
 40
3.500000
 49
2.000000
 49
-1.500000
  0
LTYPE
  2
CENTER
 70
    64
  3
____ _ ____ _ ____ _ ____ _ ____ _ ____ _ ____
 72
    65
 73
     4
 40
17.500000
 49
13.000000
 49
-1.500000
 49
1.500000
 49
-1.500000
  0
LTYPE
  2
PHANTOM
 70
    64
  3
_____ _ _ _____ _ _ _____ _ _ _____ _ _ ____  
 72
    65
 73
     6
 40
15.500000
 49
8.000000
 49
-1.500000
 49
1.500000
 49
-1.500000
 49
1.500000
 49
-1.500000
  0
LTYPE
  2
DOT
 70
    64
  3
. . . . . . . . . . . . . . . . . . . . . . . .
 72
    65
 73
     2
 40
0.25
 49
0.0
 49
-0.25
  0
ENDTAB
  0
TABLE
  2
LAYER
 70
     1
  0
LAYER
  2
0
 70
     0
 62
     7
  6
CONTINUOUS
  0
ENDTAB
  0
TABLE
  2
STYLE
 70
     1
  0
STYLE
  2
STANDARD
 70
     0
 40
0.000000
 41
1.000000
 50
0.000000
 71
     0
 42
0.200000
  3
txt
  0
ENDTAB
  0
TABLE
  2
VIEW
 70
     0
  0
ENDTAB
  0
ENDSEC
  0
SECTION
  2
BLOCKS
  0
ENDSEC
  0
SECTION
  2
ENTITIES
  0
LINE
  8
0
  6
CONTINUOUS
 62
     7
 10
703
 20
-362
 11
703
 21
-608.987548828125
  0
LINE
  8
0
  6
CONTINUOUS
 62
     7
 10
703
 20
-362
 11
738
 21
-362
  0
LINE
  8
0
  6
CONTINUOUS
 62
     7
 10
746
 20
-408.0938720703125
 11
746
 21
-611.9061279296875
  0
LINE
  8
0
  6
CONTINUOUS
 62
     7
 10
727.564208984375
 20
-618.1006469726562
 11
741.435791015625
 21
-616.8870239257812
  0
LINE
  8
0
  6
CONTINUOUS
 62
     7
 10
741.435791015625
 20
-403.1128540039062
 11
742.564208984375
 21
-403.2115783691406
  0
LINE
  8
0
  6
CONTINUOUS
 62
     7
 10
781
 20
-437.5
 11
781
 21
-582.5
  0
LINE
  8
0
  6
CONTINUOUS
 62
     7
 10
771
 20
-437.5
 11
771
 21
-582.5
  0
LINE
  8
0
  6
CONTINUOUS
 62
     7
 10
771
 20
-582.5
 11
781
 21
-582.5
  0
LINE
  8
0
  6
CONTINUOUS
 62
     7
 10
771
 20
-437.5
 11
781
 21
-437.5
  0
LINE
  8
0
  6
CONTINUOUS
 62
     7
 10
738
 20
-362
 11
738
 21
-398.2306518554687
  0
LINE
  8
0
  6
CONTINUOUS
 62
     7
 10
723
 20
-362
 11
723
 21
-632.8226318359375
  0
LINE
  8
0
  6
CONTINUOUS
 62
     7
 10
727.564208984375
 20
-401.8992309570313
 11
741.435791015625
 21
-403.1128540039062
  0
LINE
  8
0
  6
CONTINUOUS
 62
     3
 10
720
 20
-333.8199462890625
 11
720
 21
-379.6436462402344
  0
LINE
  8
0
  6
CONTINUOUS
 62
     7
 10
729.4823608398438
 20
-345.1600036621094
 11
710.5176391601563
 21
-345.1600036621094
  0
LINE
  8
0
  6
CONTINUOUS
 62
     7
 10
730.6937255859375
 20
-355.1600036621094
 11
709.3062744140625
 21
-355.1600036621094
  0
LINE
  8
0
  6
CONTINUOUS
 62
     7
 10
730.6937255859375
 20
-355.1600036621094
 11
730.47998046875
 21
-362
  0
LINE
  8
0
  6
CONTINUOUS
 62
     7
 10
709.3062133789062
 20
-355.1600036621094
 11
709.52001953125
 21
-362.0000305175781
  0
LINE
  8
0
  6
CONTINUOUS
 62
     7
 10
729.4823608398438
 20
-345.1600036621094
 11
729.4823608398438
 21
-355.1600036621094
  0
LINE
  8
0
  6
CONTINUOUS
 62
     7
 10
710.5176391601563
 20
-345.1600036621094
 11
710.5176391601563
 21
-355.1600036621094
  0
LINE
  8
0
  6
CONTINUOUS
 62
     7
 10
746
 20
-475.1884460449219
 11
771
 21
-475.1884460449219
  0
LINE
  8
0
  6
CONTINUOUS
 62
     7
 10
746.0000610351562
 20
-446.688720703125
 11
771.0000610351563
 21
-457.259765625
  0
LINE
  8
0
  6
CONTINUOUS
 62
     7
 10
746
 20
-544.8115234375
 11
771
 21
-544.8115234375
  0
LINE
  8
0
  6
CONTINUOUS
 62
     7
 10
746
 20
-573.311279296875
 11
771
 21
-562.740234375
  0
LINE
  8
0
  6
CONTINUOUS
 62
     3
 10
710.517578125
 20
-355.1600341796875
 11
720
 21
-345.1600036621094
  0
LINE
  8
0
  6
CONTINUOUS
 62
     3
 10
710.5176391601563
 20
-345.1600036621094
 11
719.9999389648437
 21
-355.1599731445313
  0
LINE
  8
0
  6
CONTINUOUS
 62
     7
 10
720
 20
-355.1600036621094
 11
720
 21
-345.1600036621094
  0
LINE
  8
0
  6
CONTINUOUS
 62
     3
 10
720
 20
-345.1600036621094
 11
729.4822998046875
 21
-355.1599731445313
  0
LINE
  8
0
  6
CONTINUOUS
 62
     3
 10
729.4823608398438
 20
-345.1599731445313
 11
719.9999389648437
 21
-355.1600036621094
  0
LINE
  8
0
  6
CONTINUOUS
 62
     7
 10
784.5
 20
-585
 11
817.5
 21
-585
  0
LINE
  8
0
  6
CONTINUOUS
 62
     7
 10
784.5
 20
-435
 11
817.5
 21
-435
  0
LINE
  8
0
  6
CONTINUOUS
 62
     7
 10
784.4999389648437
 20
-435.0000305175781
 11
781
 21
-439.160888671875
  0
LINE
  8
0
  6
CONTINUOUS
 62
     7
 10
817.5
 20
-434.9999694824219
 11
821
 21
-439.1608581542969
  0
LINE
  8
0
  6
CONTINUOUS
 62
     7
 10
821
 20
-437.5
 11
821
 21
-582.5
  0
LINE
  8
0
  6
CONTINUOUS
 62
     7
 10
784.5
 20
-584.9999389648438
 11
781
 21
-580.8390502929687
  0
LINE
  8
0
  6
CONTINUOUS
 62
     7
 10
817.5
 20
-585
 11
821
 21
-580.839111328125
  0
LINE
  8
0
  6
CONTINUOUS
 62
     7
 10
784.5
 20
-480.5653076171875
 11
817.5
 21
-480.5653076171875
  0
LINE
  8
0
  6
CONTINUOUS
 62
     7
 10
784.5
 20
-489.2552795410156
 11
817.5
 21
-489.2552795410156
  0
LINE
  8
0
  6
CONTINUOUS
 62
     7
 10
784.5
 20
-497.0502319335938
 11
817.5
 21
-497.0502319335938
  0
LINE
  8
0
  6
CONTINUOUS
 62
     7
 10
784.5
 20
-506.0000610351562
 11
817.5
 21
-506.0000610351562
  0
LINE
  8
0
  6
CONTINUOUS
 62
     7
 10
784.5
 20
-514.0001220703125
 11
817.5
 21
-514.0001220703125
  0
LINE
  8
0
  6
CONTINUOUS
 62
     7
 10
784.5
 20
-522.949951171875
 11
817.5
 21
-522.949951171875
  0
LINE
  8
0
  6
CONTINUOUS
 62
     7
 10
784.5
 20
-530.744873046875
 11
817.5
 21
-530.744873046875
  0
LINE
  8
0
  6
CONTINUOUS
 62
     7
 10
784.5
 20
-539.434814453125
 11
817.5
 21
-539.434814453125
  0
LINE
  8
0
  6
CONTINUOUS
 62
     7
 10
784.5
 20
-555.0232543945313
 11
817.5
 21
-555.0232543945313
  0
LINE
  8
0
  6
CONTINUOUS
 62
     7
 10
784.5
 20
-562.04541015625
 11
817.5
 21
-562.04541015625
  0
LINE
  8
0
  6
CONTINUOUS
 62
     7
 10
784.5
 20
-567.50146484375
 11
817.5
 21
-567.50146484375
  0
LINE
  8
0
  6
CONTINUOUS
 62
     7
 10
784.5
 20
-572.8594360351562
 11
817.5
 21
-572.8594360351562
  0
LINE
  8
0
  6
CONTINUOUS
 62
     7
 10
784.5
 20
-576.8594360351562
 11
817.5
 21
-576.8594360351562
  0
LINE
  8
0
  6
CONTINUOUS
 62
     7
 10
784.5
 20
-580.4512939453125
 11
817.5
 21
-580.4512939453125
  0
LINE
  8
0
  6
CONTINUOUS
 62
     7
 10
630
 20
-360
 11
698
 21
-360
  0
LINE
  8
0
  6
CONTINUOUS
 62
     7
 10
625.0000610351563
 20
-365.0000305175781
 11
630.0000610351563
 21
-360.0000305175781
  0
LINE
  8
0
  6
CONTINUOUS
 62
     7
 10
698
 20
-360.0000305175781
 11
703
 21
-365.0000305175781
  0
LINE
  8
0
  6
CONTINUOUS
 62
     7
 10
669
 20
-350.0000305175781
 11
637
 21
-350.0000305175781
  0
LINE
  8
0
  6
CONTINUOUS
 62
     7
 10
669
 20
-350.0000915527344
 11
672.6397094726562
 21
-360.0000305175781
  0
LINE
  8
0
  6
CONTINUOUS
 62
     7
 10
637
 20
-350.0001525878906
 11
633.3603515625
 21
-360.0000305175781
  0
LINE
  8
0
  6
CONTINUOUS
 62
     7
 10
630
 20
-366.3724670410156
 11
698
 21
-366.3724670410156
  0
LINE
  8
0
  6
CONTINUOUS
 62
     7
 10
630
 20
-397.4244689941406
 11
698
 21
-397.4244689941406
  0
LINE
  8
0
  6
CONTINUOUS
 62
     7
 10
630
 20
-410.8700866699219
 11
698
 21
-410.8700866699219
  0
LINE
  8
0
  6
CONTINUOUS
 62
     7
 10
630
 20
-422.6091613769531
 11
698
 21
-422.6091613769531
  0
LINE
  8
0
  6
CONTINUOUS
 62
     7
 10
630
 20
-439.0270385742187
 11
698
 21
-439.0270385742187
  0
LINE
  8
0
  6
CONTINUOUS
 62
     7
 10
630
 20
-466.7433471679687
 11
698
 21
-466.7433471679687
  0
LINE
  8
0
  6
CONTINUOUS
 62
     7
 10
630
 20
-485.5888977050781
 11
698
 21
-485.5888977050781
  0
LINE
  8
0
  6
CONTINUOUS
 62
     7
 10
630
 20
-500.4924926757812
 11
698
 21
-500.4924926757812
  0
LINE
  8
0
  6
CONTINUOUS
 62
     7
 10
633.29345703125
 20
-519.5074462890625
 11
698
 21
-519.5074462890625
  0
LINE
  8
0
  6
CONTINUOUS
 62
     7
 10
641.3372802734375
 20
-534.4110107421875
 11
698
 21
-534.4110107421875
  0
LINE
  8
0
  6
CONTINUOUS
 62
     7
 10
656.2361450195312
 20
-553.256591796875
 11
698
 21
-553.256591796875
  0
LINE
  8
0
  6
CONTINUOUS
 62
     7
 10
679.4930419921875
 20
-580.9730224609375
 11
698
 21
-580.9730224609375
  0
LINE
  8
0
  6
CONTINUOUS
 62
     7
 10
693.2692260742187
 20
-597.390869140625
 11
698
 21
-597.390869140625
  0
LINE
  8
0
  6
CONTINUOUS
 62
     7
 10
640.5000610351563
 20
-347
 11
641.7955322265625
 21
-339.6527404785156
  0
LINE
  8
0
  6
CONTINUOUS
 62
     7
 10
664.2044677734375
 20
-339.6527099609375
 11
665.5
 21
-347.0000305175781
  0
LINE
  8
0
  6
CONTINUOUS
 62
     7
 10
643.76513671875
 20
-338.0000305175781
 11
662.23486328125
 21
-338.0000305175781
  0
LINE
  8
0
  6
CONTINUOUS
 62
     7
 10
643.341796875
 20
-338.0453186035156
 11
652.57666015625
 21
-336.0452880859375
  0
LINE
  8
0
  6
CONTINUOUS
 62
     7
 10
653.4232788085938
 20
-336.0453186035156
 11
662.658203125
 21
-338.0453186035156
  0
LINE
  8
0
  6
CONTINUOUS
 62
     7
 10
640.5
 20
-347.0000305175781
 11
640.5
 21
-350.0000305175781
  0
LINE
  8
0
  6
CONTINUOUS
 62
     7
 10
665.5
 20
-347.0000305175781
 11
665.5
 21
-350.0000305175781
  0
LINE
  8
0
  6
CONTINUOUS
 62
     7
 10
525
 20
-695
 11
825
 21
-695
  0
LINE
  8
0
  6
CONTINUOUS
 62
     7
 10
574.9999389648438
 20
-399.9999389648437
 11
589.3073120117187
 21
-398.7481994628906
  0
LINE
  8
0
  6
CONTINUOUS
 62
     7
 10
625
 20
-362
 11
625
 21
-479.6337890625
  0
LINE
  8
0
  6
CONTINUOUS
 62
     7
 10
603
 20
-362
 11
603
 21
-650
  0
LINE
  8
0
  6
CONTINUOUS
 62
     7
 10
590
 20
-362
 11
625
 21
-362
  0
LINE
  8
0
  6
CONTINUOUS
 62
     7
 10
590
 20
-362
 11
590
 21
-389.5243530273438
  0
LINE
  8
0
  6
CONTINUOUS
 62
     7
 10
528
 20
-665
 11
588
 21
-665
  0
LINE
  8
0
  6
CONTINUOUS
 62
     7
 10
525
 20
-665
 11
525
 21
-695
  0
LINE
  8
0
  6
CONTINUOUS
 62
     7
 10
825
 20
-668
 11
825
 21
-695
  0
LINE
  8
0
  6
CONTINUOUS
 62
     3
 10
550
 20
-655
 11
550
 21
-705
  0
LINE
  8
0
  6
CONTINUOUS
 62
     3
 10
800
 20
-655
 11
800
 21
-705
  0
LINE
  8
0
  6
CONTINUOUS
 62
     3
 10
573
 20
-595
 11
593
 21
-595
  0
LINE
  8
0
  6
CONTINUOUS
 62
     3
 10
583
 20
-585
 11
583
 21
-605
  0
LINE
  8
0
  6
CONTINUOUS
 62
     7
 10
527
 20
-400
 11
527
 21
-620
  0
LINE
  8
0
  6
CONTINUOUS
 62
     7
 10
545
 20
-400
 11
545
 21
-620
  0
LINE
  8
0
  6
CONTINUOUS
 62
     7
 10
516.9999389648438
 20
-585
 11
527
 21
-590.7735595703125
  0
LINE
  8
0
  6
CONTINUOUS
 62
     7
 10
527
 20
-620
 11
548.93701171875
 21
-620
  0
LINE
  8
0
  6
CONTINUOUS
 62
     7
 10
517
 20
-434.9999389648438
 11
517
 21
-585
  0
LINE
  8
0
  6
CONTINUOUS
 62
     3
 10
380
 20
-510
 11
898.8963012695313
 21
-510
  0
LINE
  8
0
  6
CONTINUOUS
 62
     7
 10
517
 20
-434.9999084472656
 11
527
 21
-429.2264099121094
  0
LINE
  8
0
  6
CONTINUOUS
 62
     7
 10
527
 20
-400
 11
574.9990234375
 21
-400
  0
LINE
  8
0
  6
CONTINUOUS
 62
     7
 10
400
 20
-468
 11
400
 21
-547.5
  0
LINE
  8
0
  6
CONTINUOUS
 62
     7
 10
400
 20
-472.5
 11
510
 21
-472.5
  0
LINE
  8
0
  6
CONTINUOUS
 62
     7
 10
400
 20
-547.5
 11
510
 21
-547.5
  0
LINE
  8
0
  6
CONTINUOUS
 62
     7
 10
510
 20
-467.5
 11
510
 21
-552.5
  0
LINE
  8
0
  6
CONTINUOUS
 62
     7
 10
510
 20
-467.5
 11
517
 21
-467.5
  0
LINE
  8
0
  6
CONTINUOUS
 62
     7
 10
510
 20
-552.5
 11
517
 21
-552.5
  0
LINE
  8
0
  6
CONTINUOUS
 62
     3
 10
585
 20
-520
 11
585
 21
-500
  0
LINE
  8
0
  6
CONTINUOUS
 62
     7
 10
400
 20
-468
 11
490
 21
-468
  0
LINE
  8
0
  6
CONTINUOUS
 62
     7
 10
768.6522827148438
 20
-665
 11
822
 21
-665
  0
LINE
  8
0
  6
DASHED
 62
     7
 10
561
 20
-665
 11
561
 21
-695
  0
LINE
  8
0
  6
DASHED
 62
     7
 10
539
 20
-665
 11
539
 21
-695
  0
LINE
  8
0
  6
DASHED
 62
     7
 10
811
 20
-665
 11
811
 21
-695
  0
LINE
  8
0
  6
DASHED
 62
     7
 10
789
 20
-665
 11
789
 21
-695
  0
LINE
  8
0
  6
CONTINUOUS
 62
     7
 10
648.3955688476562
 20
-543.9125366210938
 11
738.0105590820313
 21
-650.7114868164062
  0
LINE
  8
0
  6
CONTINUOUS
 62
     7
 10
593.4852905273438
 20
-510.0000305175781
 11
585
 21
-501.5147094726563
  0
LINE
  8
0
  6
CONTINUOUS
 62
     7
 10
585
 20
-501.5147094726563
 11
576.5147094726563
 21
-510
  0
LINE
  8
0
  6
CONTINUOUS
 62
     7
 10
585
 20
-518.4852905273438
 11
576.5146484375
 21
-509.9999694824219
  0
LINE
  8
0
  6
CONTINUOUS
 62
     7
 10
593.4852905273438
 20
-510
 11
585
 21
-518.4852905273438
  0
LINE
  8
0
  6
CONTINUOUS
 62
     7
 10
548.9369506835938
 20
-620
 11
552.9269409179688
 21
-574.3936767578125
  0
LINE
  8
0
  6
CONTINUOUS
 62
     7
 10
490
 20
-468
 11
490
 21
-472.5
  0
LINE
  8
0
  6
CONTINUOUS
 62
     7
 10
703
 20
148.0000152587891
 11
703
 21
-147.9999847412109
  0
LINE
  8
0
  6
CONTINUOUS
 62
     7
 10
703
 20
-148
 11
723
 21
-148
  0
LINE
  8
0
  6
CONTINUOUS
 62
     7
 10
703
 20
148
 11
723
 21
148
  0
LINE
  8
0
  6
CONTINUOUS
 62
     7
 10
746
 20
101.906135559082
 11
746
 21
-101.9060592651367
  0
LINE
  8
0
  6
CONTINUOUS
 62
     7
 10
727.5642700195313
 20
-108.1004333496094
 11
741.4358520507812
 21
-106.886833190918
  0
LINE
  8
0
  6
CONTINUOUS
 62
     7
 10
741.4359130859375
 20
106.887451171875
 11
742.5643310546875
 21
106.7887268066406
  0
LINE
  8
0
  6
CONTINUOUS
 62
     7
 10
781
 20
72.50000762939453
 11
781
 21
-72.49999237060547
  0
LINE
  8
0
  6
CONTINUOUS
 62
     7
 10
771
 20
72.50000762939453
 11
771
 21
-72.49999237060547
  0
LINE
  8
0
  6
CONTINUOUS
 62
     7
 10
771
 20
-72.5
 11
781
 21
-72.5
  0
LINE
  8
0
  6
CONTINUOUS
 62
     7
 10
771
 20
72.5
 11
781
 21
72.5
  0
LINE
  8
0
  6
CONTINUOUS
 62
     7
 10
723
 20
148.0000152587891
 11
723
 21
28.72284698486328
  0
LINE
  8
0
  6
CONTINUOUS
 62
     7
 10
727.5643310546875
 20
108.1010589599609
 11
741.4359130859375
 21
106.887451171875
  0
LINE
  8
0
  6
CONTINUOUS
 62
     3
 10
720
 20
17.90412139892578
 11
720
 21
-18.80486297607422
  0
LINE
  8
0
  6
CONTINUOUS
 62
     7
 10
723
 20
-28.72283172607422
 11
723
 21
-147.9999847412109
  0
LINE
  8
0
  6
CONTINUOUS
 62
     7
 10
720
 20
9.899481773376465
 11
710.1005249023437
 21
9.761122782947496E-06
  0
LINE
  8
0
  6
CONTINUOUS
 62
     7
 10
710.1005249023437
 20
-3.468752765911631E-06
 11
720.0000610351563
 21
-9.899520874023438
  0
LINE
  8
0
  6
CONTINUOUS
 62
     7
 10
720
 20
-9.899499893188477
 11
729.8994750976563
 21
-5.972142389509827E-06
  0
LINE
  8
0
  6
CONTINUOUS
 62
     7
 10
729.8995971679688
 20
3.076296707149595E-05
 11
720.0000610351563
 21
9.89952564239502
  0
LINE
  8
0
  6
CONTINUOUS
 62
     7
 10
746
 20
-31.98541259765625
 11
771
 21
-31.98541259765625
  0
LINE
  8
0
  6
CONTINUOUS
 62
     7
 10
771
 20
-49.56258392333984
 11
746
 21
-59.42026901245117
  0
LINE
  8
0
  6
CONTINUOUS
 62
     7
 10
746
 20
31.98541259765625
 11
771
 21
31.98541259765625
  0
LINE
  8
0
  6
CONTINUOUS
 62
     7
 10
770.9999389648437
 20
49.56260681152344
 11
745.9999389648438
 21
59.42029190063477
  0
LINE
  8
0
  6
CONTINUOUS
 62
     7
 10
784.5
 20
75
 11
817.5
 21
75
  0
LINE
  8
0
  6
CONTINUOUS
 62
     7
 10
784.5
 20
74.99998474121094
 11
781
 21
70.83908843994141
  0
LINE
  8
0
  6
CONTINUOUS
 62
     7
 10
817.5
 20
74.99996185302734
 11
821
 21
70.83906555175781
  0
LINE
  8
0
  6
CONTINUOUS
 62
     7
 10
817.4999389648437
 20
-75.00003051757812
 11
820.9999389648437
 21
-70.83913421630859
  0
LINE
  8
0
  6
CONTINUOUS
 62
     7
 10
784.5
 20
-75
 11
817.5
 21
-75
  0
LINE
  8
0
  6
CONTINUOUS
 62
     7
 10
784.5
 20
-75.00003051757812
 11
781.0000610351563
 21
-70.83917999267578
  0
LINE
  8
0
  6
CONTINUOUS
 62
     7
 10
784.5
 20
72.07391357421875
 11
817.5
 21
72.07391357421875
  0
LINE
  8
0
  6
CONTINUOUS
 62
     7
 10
784.5
 20
68.98248291015625
 11
817.5
 21
68.98248291015625
  0
LINE
  8
0
  6
CONTINUOUS
 62
     7
 10
784.5
 20
59.98248291015625
 11
817.5
 21
59.98248291015625
  0
LINE
  8
0
  6
CONTINUOUS
 62
     7
 10
784.5
 20
54.0025634765625
 11
817.5
 21
54.0025634765625
  0
LINE
  8
0
  6
CONTINUOUS
 62
     7
 10
784.5
 20
40.91082763671875
 11
817.5
 21
40.91082763671875
  0
LINE
  8
0
  6
CONTINUOUS
 62
     7
 10
784.5
 20
48.15167236328125
 11
817.5
 21
48.15167236328125
  0
LINE
  8
0
  6
CONTINUOUS
 62
     7
 10
784.5
 20
33.98260498046875
 11
817.5
 21
33.98260498046875
  0
LINE
  8
0
  6
CONTINUOUS
 62
     7
 10
784.5
 20
25.72198486328125
 11
817.5
 21
25.72198486328125
  0
LINE
  8
0
  6
CONTINUOUS
 62
     7
 10
784.5
 20
18.07147216796875
 11
817.5
 21
18.07147216796875
  0
LINE
  8
0
  6
CONTINUOUS
 62
     7
 10
784.5
 20
9.00006103515625
 11
817.5
 21
9.00006103515625
  0
LINE
  8
0
  6
CONTINUOUS
 62
     7
 10
784.5
 20
-68.98260498046875
 11
817.5
 21
-68.98260498046875
  0
LINE
  8
0
  6
CONTINUOUS
 62
     7
 10
784.5
 20
-72.073974609375
 11
817.5
 21
-72.073974609375
  0
LINE
  8
0
  6
CONTINUOUS
 62
     7
 10
630
 20
150.0000610351562
 11
698
 21
150.0000610351562
  0
LINE
  8
0
  6
CONTINUOUS
 62
     7
 10
630
 20
-150
 11
698
 21
-150
  0
LINE
  8
0
  6
CONTINUOUS
 62
     7
 10
625.0001831054688
 20
144.9998931884766
 11
630.0001831054688
 21
149.9998779296875
  0
LINE
  8
0
  6
CONTINUOUS
 62
     7
 10
697.9998168945312
 20
150.0001983642578
 11
702.9998168945312
 21
145.0002136230469
  0
LINE
  8
0
  6
CONTINUOUS
 62
     7
 10
624.9999389648437
 20
-144.9998168945312
 11
630
 21
-149.9998779296875
  0
LINE
  8
0
  6
CONTINUOUS
 62
     7
 10
698.0001831054688
 20
-150.0001373291016
 11
703.0001831054687
 21
-145.0001525878906
  0
LINE
  8
0
  6
CONTINUOUS
 62
     7
 10
630.0001831054688
 20
143.6275634765625
 11
697.9998779296875
 21
143.6275634765625
  0
LINE
  8
0
  6
CONTINUOUS
 62
     7
 10
630.0001831054688
 20
132.1470336914063
 11
697.9998779296875
 21
132.1470336914063
  0
LINE
  8
0
  6
CONTINUOUS
 62
     7
 10
630.0001831054688
 20
121.913330078125
 11
697.9998779296875
 21
121.913330078125
  0
LINE
  8
0
  6
CONTINUOUS
 62
     7
 10
630.0001831054688
 20
112.5756225585938
 11
697.9998779296875
 21
112.5756225585938
  0
LINE
  8
0
  6
CONTINUOUS
 62
     7
 10
630.0001831054688
 20
99.1300048828125
 11
697.9998779296875
 21
99.1300048828125
  0
LINE
  8
0
  6
CONTINUOUS
 62
     7
 10
630.0001831054688
 20
43.2567138671875
 11
697.9998779296875
 21
43.2567138671875
  0
LINE
  8
0
  6
CONTINUOUS
 62
     7
 10
630.0001831054688
 20
25.00006103515625
 11
697.9998779296875
 21
25.00006103515625
  0
LINE
  8
0
  6
CONTINUOUS
 62
     7
 10
630.0001831054688
 20
-25
 11
697.9999389648437
 21
-25
  0
LINE
  8
0
  6
CONTINUOUS
 62
     7
 10
630.0001831054688
 20
-43.25653076171875
 11
697.9999389648437
 21
-43.25653076171875
  0
LINE
  8
0
  6
CONTINUOUS
 62
     7
 10
630.0001831054688
 20
-99.12994384765625
 11
697.9999389648437
 21
-99.12994384765625
  0
LINE
  8
0
  6
CONTINUOUS
 62
     7
 10
630.0001831054688
 20
-112.5755615234375
 11
697.9999389648437
 21
-112.5755615234375
  0
LINE
  8
0
  6
CONTINUOUS
 62
     7
 10
630.0001831054688
 20
-121.9132690429687
 11
697.9999389648437
 21
-121.9132690429687
  0
LINE
  8
0
  6
CONTINUOUS
 62
     7
 10
630.0001831054688
 20
-132.1470336914063
 11
697.9999389648437
 21
-132.1470336914063
  0
LINE
  8
0
  6
CONTINUOUS
 62
     7
 10
630.0001831054688
 20
-143.6275329589844
 11
697.9999389648437
 21
-143.6275329589844
  0
LINE
  8
0
  6
CONTINUOUS
 62
     7
 10
632.9999389648437
 20
5
 11
672.9999389648438
 21
5
  0
LINE
  8
0
  6
CONTINUOUS
 62
     7
 10
632.9999389648437
 20
-5
 11
672.9999389648438
 21
-5
  0
LINE
  8
0
  6
CONTINUOUS
 62
     7
 10
545
 20
110
 11
545
 21
-110
  0
LINE
  8
0
  6
CONTINUOUS
 62
     7
 10
527
 20
-110
 11
575
 21
-110
  0
LINE
  8
0
  6
CONTINUOUS
 62
     7
 10
527
 20
110
 11
575.000244140625
 21
110
  0
LINE
  8
0
  6
CONTINUOUS
 62
     7
 10
517
 20
75.00018310546875
 11
517
 21
-74.99993896484375
  0
LINE
  8
0
  6
CONTINUOUS
 62
     7
 10
527
 20
110
 11
527
 21
-110
  0
LINE
  8
0
  6
CONTINUOUS
 62
     7
 10
517
 20
75.00022125244141
 11
524.4998779296875
 21
79.33029937744141
  0
LINE
  8
0
  6
CONTINUOUS
 62
     7
 10
517
 20
-74.99993133544922
 11
524.4999389648438
 21
-79.33003997802734
  0
LINE
  8
0
  6
CONTINUOUS
 62
     7
 10
625
 20
165
 11
625
 21
-165
  0
LINE
  8
0
  6
CONTINUOUS
 62
     7
 10
603
 20
180
 11
603
 21
24.7183895111084
  0
LINE
  8
0
  6
CONTINUOUS
 62
     7
 10
575.000244140625
 20
110.000129699707
 11
589.307373046875
 21
111.251838684082
  0
LINE
  8
0
  6
CONTINUOUS
 62
     7
 10
574.9999389648438
 20
-109.9999618530273
 11
589.307373046875
 21
-111.2516937255859
  0
LINE
  8
0
  6
CONTINUOUS
 62
     7
 10
540
 20
180
 11
810
 21
180
  0
LINE
  8
0
  6
CONTINUOUS
 62
     7
 10
540
 20
-180
 11
810
 21
-180
  0
LINE
  8
0
  6
CONTINUOUS
 62
     3
 10
535
 20
-150
 11
565
 21
-150
  0
LINE
  8
0
  6
CONTINUOUS
 62
     3
 10
535
 20
150
 11
565
 21
150
  0
LINE
  8
0
  6
CONTINUOUS
 62
     7
 10
525
 20
165
 11
525
 21
105
  0
LINE
  8
0
  6
CONTINUOUS
 62
     7
 10
825
 20
165.0000152587891
 11
825
 21
122.5586624145508
  0
LINE
  8
0
  6
CONTINUOUS
 62
     7
 10
746.0000610351562
 20
95.89308166503906
 11
812.6368408203125
 21
107.7925109863281
  0
LINE
  8
0
  6
CONTINUOUS
 62
     7
 10
746.0000610351562
 20
-95.89270782470703
 11
812.6368408203125
 21
-107.7921371459961
  0
LINE
  8
0
  6
CONTINUOUS
 62
     7
 10
525
 20
-105
 11
525
 21
-165
  0
LINE
  8
0
  6
CONTINUOUS
 62
     7
 10
825
 20
-122.558708190918
 11
825
 21
-164.9999847412109
  0
LINE
  8
0
  6
CONTINUOUS
 62
     3
 10
550
 20
165
 11
550
 21
135
  0
LINE
  8
0
  6
CONTINUOUS
 62
     3
 10
800
 20
165.0000152587891
 11
800
 21
135.0000152587891
  0
LINE
  8
0
  6
CONTINUOUS
 62
     3
 10
550
 20
-135
 11
550
 21
-165
  0
LINE
  8
0
  6
CONTINUOUS
 62
     3
 10
800
 20
-134.9999847412109
 11
800
 21
-164.9999847412109
  0
LINE
  8
0
  6
CONTINUOUS
 62
     3
 10
785
 20
-150
 11
815
 21
-150
  0
LINE
  8
0
  6
CONTINUOUS
 62
     3
 10
785
 20
150
 11
815
 21
150
  0
LINE
  8
0
  6
CONTINUOUS
 62
     7
 10
603
 20
-24.7183780670166
 11
603
 21
-180
  0
LINE
  8
0
  6
CONTINUOUS
 62
     7
 10
400
 20
37.5
 11
400
 21
-37.5
  0
LINE
  8
0
  6
CONTINUOUS
 62
     7
 10
400
 20
37.5
 11
510
 21
37.5
  0
LINE
  8
0
  6
CONTINUOUS
 62
     7
 10
400
 20
-37.5
 11
510
 21
-37.5
  0
LINE
  8
0
  6
CONTINUOUS
 62
     7
 10
510
 20
42.50000381469727
 11
510
 21
-42.49999618530273
  0
LINE
  8
0
  6
CONTINUOUS
 62
     7
 10
510
 20
-42.5
 11
517
 21
-42.5
  0
LINE
  8
0
  6
CONTINUOUS
 62
     7
 10
510
 20
42.5
 11
517
 21
42.5
  0
LINE
  8
0
  6
CONTINUOUS
 62
     7
 10
400
 20
10
 11
495
 21
10
  0
LINE
  8
0
  6
CONTINUOUS
 62
     7
 10
400
 20
-10
 11
495
 21
-10
  0
LINE
  8
0
  6
CONTINUOUS
 62
     7
 10
625
 20
-165
 11
745
 21
-165
  0
LINE
  8
0
  6
CONTINUOUS
 62
     7
 10
625
 20
165
 11
745
 21
165
  0
LINE
  8
0
  6
CONTINUOUS
 62
     7
 10
576.928955078125
 20
-124.6499938964844
 11
593.0711059570312
 21
-124.6499938964844
  0
LINE
  8
0
  6
CONTINUOUS
 62
     7
 10
576.492431640625
 20
-115.6500244140625
 11
593.507568359375
 21
-115.6500244140625
  0
LINE
  8
0
  6
CONTINUOUS
 62
     7
 10
576.4924926757813
 20
-115.6500015258789
 11
576.6644897460937
 21
-110.1455764770508
  0
LINE
  8
0
  6
CONTINUOUS
 62
     7
 10
593.507568359375
 20
-115.6499557495117
 11
593.3997802734375
 21
-112.2002258300781
  0
LINE
  8
0
  6
CONTINUOUS
 62
     7
 10
576.9288940429687
 20
-124.6499862670898
 11
576.9288940429687
 21
-115.650016784668
  0
LINE
  8
0
  6
CONTINUOUS
 62
     7
 10
593.071044921875
 20
-124.6499862670898
 11
593.071044921875
 21
-115.650016784668
  0
LINE
  8
0
  6
CONTINUOUS
 62
     3
 10
585
 20
-99.96178436279297
 11
585
 21
-134.6499938964844
  0
LINE
  8
0
  6
CONTINUOUS
 62
     3
 10
585
 20
-115.650032043457
 11
593.0711059570312
 21
-124.650032043457
  0
LINE
  8
0
  6
CONTINUOUS
 62
     3
 10
593.0711059570312
 20
-115.650032043457
 11
585
 21
-124.650032043457
  0
LINE
  8
0
  6
CONTINUOUS
 62
     3
 10
576.9288940429687
 20
-115.650016784668
 11
585
 21
-124.650016784668
  0
LINE
  8
0
  6
CONTINUOUS
 62
     3
 10
584.9999389648438
 20
-115.6499633789062
 11
576.9288940429687
 21
-124.6499633789063
  0
LINE
  8
0
  6
CONTINUOUS
 62
     7
 10
585.0003051757812
 20
-124.650016784668
 11
585.0003051757812
 21
-115.650016784668
  0
LINE
  8
0
  6
CONTINUOUS
 62
     7
 10
490
 20
10.00000190734863
 11
490
 21
-9.999998092651367
  0
LINE
  8
0
  6
CONTINUOUS
 62
     3
 10
900.214599609375
 20
0
 11
378.4345092773438
 21
0
  0
LINE
  8
0
  6
CONTINUOUS
 62
     7
 10
821
 20
-72.50002288818359
 11
821
 21
72.49997711181641
  0
LINE
  8
0
  6
CONTINUOUS
 62
     3
 10
0
 20
-287.2633666992188
 11
0
 21
-710
  0
LINE
  8
0
  6
CONTINUOUS
 62
     3
 10
-193.5
 20
-510
 11
199.5
 21
-510
  0
LINE
  8
0
  6
CONTINUOUS
 62
     7
 10
-24.99998664855957
 20
-362.0980834960937
 11
-25.40162086486816
 21
-363.8013916015625
  0
LINE
  8
0
  6
CONTINUOUS
 62
     7
 10
24.99997520446777
 20
-362.0980224609375
 11
25.40161895751953
 21
-363.8013305664063
  0
LINE
  8
0
  6
CONTINUOUS
 62
     7
 10
-43.2567024230957
 20
-366.3723449707031
 11
-42.55017471313477
 21
-367.1015014648438
  0
LINE
  8
0
  6
CONTINUOUS
 62
     7
 10
43.25646209716797
 20
-366.3724060058594
 11
42.55002975463867
 21
-367.1014709472656
  0
LINE
  8
0
  6
CONTINUOUS
 62
     7
 10
16
 20
-350.0000305175781
 11
-16
 21
-350.0000305175781
  0
LINE
  8
0
  6
CONTINUOUS
 62
     7
 10
15.99993991851807
 20
-350
 11
20.13365745544434
 21
-361.3572998046875
  0
LINE
  8
0
  6
CONTINUOUS
 62
     7
 10
-15.99996471405029
 20
-350.0001220703125
 11
-20.13368225097656
 21
-361.357421875
  0
LINE
  8
0
  6
CONTINUOUS
 62
     7
 10
11.11705875396729
 20
-339.1569213867187
 11
12.50001239776611
 21
-347.0000305175781
  0
LINE
  8
0
  6
CONTINUOUS
 62
     7
 10
4.999984741210938
 20
-336.9976806640625
 11
10.01996612548828
 21
-338.0286560058594
  0
LINE
  8
0
  6
CONTINUOUS
 62
     7
 10
5
 20
-301.0000305175781
 11
5
 21
-344.2000427246094
  0
LINE
  8
0
  6
CONTINUOUS
 62
     7
 10
-11.11704349517822
 20
-339.1569213867187
 11
-12.49999713897705
 21
-347.0000305175781
  0
LINE
  8
0
  6
CONTINUOUS
 62
     7
 10
-4.99993371963501
 20
-336.9975891113281
 11
-10.01991558074951
 21
-338.028564453125
  0
LINE
  8
0
  6
CONTINUOUS
 62
     7
 10
-5
 20
-301.0000305175781
 11
-5
 21
-344.2000427246094
  0
LINE
  8
0
  6
CONTINUOUS
 62
     7
 10
-12.5
 20
-347.0000305175781
 11
-12.5
 21
-350.0000305175781
  0
LINE
  8
0
  6
CONTINUOUS
 62
     7
 10
12.5
 20
-347.0000610351562
 11
12.5
 21
-350.0000305175781
  0
LINE
  8
0
  6
CONTINUOUS
 62
     7
 10
-180
 20
-695
 11
-90
 21
-695
  0
LINE
  8
0
  6
CONTINUOUS
 62
     3
 10
-73.61207580566406
 20
-552.5001220703125
 11
-90.93257904052734
 21
-562.5001220703125
  0
LINE
  8
0
  6
CONTINUOUS
 62
     3
 10
-73.61238861083984
 20
-467.5000305175781
 11
-90.93289184570313
 21
-457.5000305175781
  0
LINE
  8
0
  6
CONTINUOUS
 62
     3
 10
73.61231231689453
 20
-467.5000305175781
 11
90.93281555175781
 21
-457.5000305175781
  0
LINE
  8
0
  6
CONTINUOUS
 62
     3
 10
73.61209106445313
 20
-552.5
 11
90.93259429931641
 21
-562.5
  0
LINE
  8
0
  6
CONTINUOUS
 62
     7
 10
180
 20
-542
 11
180
 21
-695
  0
LINE
  8
0
  6
CONTINUOUS
 62
     7
 10
-180
 20
-542
 11
-180
 21
-695
  0
LINE
  8
0
  6
CONTINUOUS
 62
     7
 10
-177
 20
-665
 11
-93
 21
-665
  0
LINE
  8
0
  6
CONTINUOUS
 62
     3
 10
-150
 20
-655
 11
-150
 21
-705
  0
LINE
  8
0
  6
CONTINUOUS
 62
     3
 10
150
 20
-655
 11
150
 21
-705
  0
LINE
  8
0
  6
CONTINUOUS
 62
     7
 10
-90
 20
-668
 11
-90
 21
-695
  0
LINE
  8
0
  6
CONTINUOUS
 62
     7
 10
90
 20
-668
 11
90
 21
-695
  0
LINE
  8
0
  6
CONTINUOUS
 62
     7
 10
-85
 20
-690
 11
85
 21
-690
  0
LINE
  8
0
  6
CONTINUOUS
 62
     7
 10
-82
 20
-673
 11
-28
 21
-673
  0
LINE
  8
0
  6
CONTINUOUS
 62
     7
 10
90
 20
-695
 11
180
 21
-695
  0
LINE
  8
0
  6
CONTINUOUS
 62
     7
 10
93
 20
-665
 11
177
 21
-665
  0
LINE
  8
0
  6
CONTINUOUS
 62
     7
 10
28
 20
-673
 11
82
 21
-673
  0
LINE
  8
0
  6
CONTINUOUS
 62
     7
 10
89.99993133544922
 20
-665.0000610351562
 11
80.91262817382813
 21
-613.4633178710937
  0
LINE
  8
0
  6
CONTINUOUS
 62
     7
 10
-90.00002288818359
 20
-665
 11
-80.91269683837891
 21
-613.4632568359375
  0
LINE
  8
0
  6
CONTINUOUS
 62
     7
 10
-105.8143157958984
 20
-652.6047973632813
 11
-99.99995422363281
 21
-619.6298828125
  0
LINE
  8
0
  6
CONTINUOUS
 62
     7
 10
105.8144073486328
 20
-652.6046752929688
 11
100.0000076293945
 21
-619.6295776367187
  0
LINE
  8
0
  6
CONTINUOUS
 62
     7
 10
100
 20
-558.9898071289063
 11
100
 21
-619.6295776367187
  0
LINE
  8
0
  6
CONTINUOUS
 62
     7
 10
-100
 20
-558.9898071289063
 11
-100
 21
-619.6298217773437
  0
LINE
  8
0
  6
CONTINUOUS
 62
     3
 10
108.5546340942383
 20
-554.9668579101562
 11
136.2710113525391
 21
-566.4473266601563
  0
LINE
  8
0
  6
CONTINUOUS
 62
     3
 10
-44.96531295776367
 20
-401.4442138671875
 11
-56.44583892822266
 21
-373.727783203125
  0
LINE
  8
0
  6
CONTINUOUS
 62
     3
 10
44.96498107910156
 20
-618.555908203125
 11
56.44553375244141
 21
-646.2723999023438
  0
LINE
  8
0
  6
CONTINUOUS
 62
     3
 10
-44.96571731567383
 20
-618.555908203125
 11
-56.44621658325195
 21
-646.2722778320313
  0
LINE
  8
0
  6
CONTINUOUS
 62
     3
 10
-108.5560760498047
 20
-465.0349426269531
 11
-136.2724609375
 21
-453.554443359375
  0
LINE
  8
0
  6
CONTINUOUS
 62
     3
 10
-108.5560607910156
 20
-554.9647827148437
 11
-136.2724456787109
 21
-566.4453125
  0
LINE
  8
0
  6
CONTINUOUS
 62
     7
 10
-18.7349853515625
 20
-365.7008056640625
 11
-18.7349853515625
 21
-399.1100158691406
  0
LINE
  8
0
  6
CONTINUOUS
 62
     7
 10
18.7349853515625
 20
-365.7008056640625
 11
18.7349853515625
 21
-399.1100158691406
  0
LINE
  8
0
  6
CONTINUOUS
 62
     7
 10
-10
 20
-468
 11
-10
 21
-480
  0
LINE
  8
0
  6
CONTINUOUS
 62
     7
 10
10
 20
-468
 11
10
 21
-480
  0
LINE
  8
0
  6
CONTINUOUS
 62
     3
 10
108.5558319091797
 20
-465.03466796875
 11
136.2722778320312
 21
-453.5541381835938
  0
LINE
  8
0
  6
CONTINUOUS
 62
     3
 10
44.96531677246094
 20
-401.4441528320312
 11
56.44584655761719
 21
-373.7277221679688
  0
LINE
  8
0
  6
CONTINUOUS
 62
     7
 10
-10
 20
-480
 11
10
 21
-480
  0
LINE
  8
0
  6
CONTINUOUS
 62
     7
 10
-10
 20
-468
 11
10
 21
-468
  0
LINE
  8
0
  6
DASHED
 62
     7
 10
139
 20
-665
 11
139
 21
-695
  0
LINE
  8
0
  6
DASHED
 62
     7
 10
161
 20
-665
 11
161
 21
-695
  0
LINE
  8
0
  6
DASHED
 62
     7
 10
-139
 20
-665
 11
-139
 21
-695
  0
LINE
  8
0
  6
DASHED
 62
     7
 10
-161
 20
-665
 11
-161
 21
-695
  0
LINE
  8
0
  6
CONTINUOUS
 62
     7
 10
124.6500244140625
 20
-518.071044921875
 11
124.6500244140625
 21
-501.9289245605469
  0
LINE
  8
0
  6
CONTINUOUS
 62
     7
 10
115.6500244140625
 20
-518.507568359375
 11
115.6500244140625
 21
-501.492431640625
  0
LINE
  8
0
  6
CONTINUOUS
 62
     7
 10
115.6500625610352
 20
-518.507568359375
 11
109.6848449707031
 21
-518.3211669921875
  0
LINE
  8
0
  6
CONTINUOUS
 62
     7
 10
115.6500091552734
 20
-501.4924621582031
 11
109.6847839355469
 21
-501.6788635253906
  0
LINE
  8
0
  6
CONTINUOUS
 62
     7
 10
124.6500244140625
 20
-518.071044921875
 11
115.6500244140625
 21
-518.071044921875
  0
LINE
  8
0
  6
CONTINUOUS
 62
     7
 10
124.6500244140625
 20
-501.9289245605469
 11
115.6500244140625
 21
-501.9289245605469
  0
LINE
  8
0
  6
CONTINUOUS
 62
     3
 10
115.6499710083008
 20
-501.9288940429688
 11
124.6499710083008
 21
-509.9999694824219
  0
LINE
  8
0
  6
CONTINUOUS
 62
     3
 10
115.6500091552734
 20
-510
 11
124.6500091552734
 21
-501.9289245605469
  0
LINE
  8
0
  6
CONTINUOUS
 62
     3
 10
115.6500015258789
 20
-509.9999694824219
 11
124.6500091552734
 21
-518.071044921875
  0
LINE
  8
0
  6
CONTINUOUS
 62
     3
 10
115.6500549316406
 20
-518.0711059570312
 11
124.6500549316406
 21
-510.0000305175781
  0
LINE
  8
0
  6
CONTINUOUS
 62
     7
 10
124.6500244140625
 20
-509.9996643066406
 11
115.6500244140625
 21
-509.9996643066406
  0
LINE
  8
0
  6
CONTINUOUS
 62
     7
 10
814.4603881835937
 20
-510
 11
844.2039184570313
 21
-510
  0
LINE
  8
0
  6
CONTINUOUS
 62
     7
 10
821
 20
-437.5
 11
836
 21
-437.5
  0
LINE
  8
0
  6
CONTINUOUS
 62
     7
 10
821
 20
-582.5
 11
821
 21
-437.5
  0
LINE
  8
0
  6
CONTINUOUS
 62
     7
 10
836
 20
-582.5
 11
836
 21
-437.5
  0
LINE
  8
0
  6
CONTINUOUS
 62
     7
 10
821
 20
-582.5
 11
836
 21
-582.5
  0
LINE
  8
0
  6
CONTINUOUS
 62
     7
 10
821
 20
-72.5
 11
821
 21
11.0224609375
  0
LINE
  8
0
  6
CONTINUOUS
 62
     7
 10
836
 20
-72.5
 11
836
 21
9.170654296875
  0
LINE
  8
0
  6
CONTINUOUS
 62
     7
 10
821
 20
-72.5
 11
836
 21
-72.5
  0
LINE
  8
0
  6
CONTINUOUS
 62
     7
 10
815.1091918945312
 20
0
 11
876.4835815429688
 21
0
  0
LINE
  8
0
  6
CONTINUOUS
 62
     7
 10
821
 20
72.5
 11
836
 21
72.5
  0
LINE
  8
0
  6
CONTINUOUS
 62
     7
 10
836
 20
0
 11
836
 21
72.5
  0
LINE
  8
0
  6
CONTINUOUS
 62
     7
 10
821
 20
20.85107421875
 11
821
 21
72.5
  0
LINE
  8
0
  6
CONTINUOUS
 62
     7
 10
881
 20
-410
 11
881
 21
-610
  0
LINE
  8
0
  6
CONTINUOUS
 62
     7
 10
866
 20
-410
 11
866
 21
-610
  0
LINE
  8
0
  6
CONTINUOUS
 62
     7
 10
841
 20
-472
 11
861
 21
-472
  0
LINE
  8
0
  6
CONTINUOUS
 62
     7
 10
841
 20
-548
 11
861
 21
-548
  0
LINE
  8
0
  6
CONTINUOUS
 62
     7
 10
836
 20
-566
 11
866
 21
-566
  0
LINE
  8
0
  6
CONTINUOUS
 62
     7
 10
836
 20
-454
 11
866
 21
-454
  0
LINE
  8
0
  6
CONTINUOUS
 62
     7
 10
866
 20
-610
 11
881
 21
-610
  0
LINE
  8
0
  6
CONTINUOUS
 62
     7
 10
866
 20
-410
 11
881
 21
-410
  0
LINE
  8
0
  6
CONTINUOUS
 62
     7
 10
836
 20
-515
 11
866
 21
-515
  0
LINE
  8
0
  6
CONTINUOUS
 62
     7
 10
836
 20
-505
 11
866
 21
-505
  0
LINE
  8
0
  6
CONTINUOUS
 62
     7
 10
836
 20
5
 11
866
 21
5
  0
LINE
  8
0
  6
CONTINUOUS
 62
     7
 10
836
 20
-5
 11
866
 21
-5
  0
LINE
  8
0
  6
CONTINUOUS
 62
     7
 10
866
 20
100
 11
881
 21
100
  0
LINE
  8
0
  6
CONTINUOUS
 62
     7
 10
866
 20
-100
 11
881
 21
-100
  0
LINE
  8
0
  6
CONTINUOUS
 62
     7
 10
836
 20
56
 11
866
 21
56
  0
LINE
  8
0
  6
CONTINUOUS
 62
     7
 10
836
 20
-56
 11
866
 21
-56
  0
LINE
  8
0
  6
CONTINUOUS
 62
     7
 10
841
 20
-38
 11
861
 21
-38
  0
LINE
  8
0
  6
CONTINUOUS
 62
     7
 10
841
 20
38
 11
861
 21
38
  0
LINE
  8
0
  6
CONTINUOUS
 62
     7
 10
866
 20
100
 11
866
 21
-100
  0
LINE
  8
0
  6
CONTINUOUS
 62
     7
 10
881
 20
100
 11
881
 21
-100
  0
LINE
  8
0
  6
CONTINUOUS
 62
     7
 10
619.3024291992187
 20
-321.0000305175781
 11
685.2459716796875
 21
-321.0000305175781
  0
LINE
  8
0
  6
CONTINUOUS
 62
     7
 10
653
 20
-287.1392822265625
 11
653
 21
-363.4949645996094
  0
ARC
  8
0
  6
CONTINUOUS
 62
     7
 10
741
 20
-611.9061279296875
 40
4.999999999999999
 50
275.0001399302667
 51
0
  0
ARC
  8
0
  6
CONTINUOUS
 62
     7
 10
728
 20
-623.0816650390625
 40
5.000000000000004
 50
95.00015859960162
 51
179.9999640278219
  0
ARC
  8
0
  6
CONTINUOUS
 62
     7
 10
741
 20
-408.0938720703125
 40
5
 50
359.9999453584866
 51
84.99980542821913
  0
ARC
  8
0
  6
CONTINUOUS
 62
     7
 10
743
 20
-398.2306518554687
 40
5.000000000000038
 50
179.9999776881996
 51
264.9998650786887
  0
ARC
  8
0
  6
CONTINUOUS
 62
     7
 10
728
 20
-396.9183349609375
 40
5.000000000000038
 50
179.9999776881996
 51
264.9998377579323
  0
ARC
  8
0
  6
CONTINUOUS
 62
     7
 10
671.4063720703125
 20
-345.944091796875
 40
6.000000000000024
 50
126.4238645555929
 51
189.9999620293671
  0
ARC
  8
0
  6
CONTINUOUS
 62
     7
 10
653
 20
-321.0000305175781
 40
25
 50
306.4238458862582
 51
233.5761318019415
  0
CIRCLE
  8
0
  6
CONTINUOUS
 62
     7
 10
653
 20
-321.0000305175781
 40
15
  0
ARC
  8
0
  6
CONTINUOUS
 62
     7
 10
643.76513671875
 20
-340.0000305175781
 40
1.999999999999985
 50
89.99998201391097
 51
170.0000206677889
  0
ARC
  8
0
  6
CONTINUOUS
 62
     7
 10
662.23486328125
 20
-340.0000305175781
 40
1.999999999999964
 50
9.999994586450628
 51
89.99998201391097
  0
ARC
  8
0
  6
CONTINUOUS
 62
     7
 10
634.5936279296875
 20
-345.944091796875
 40
6.000000000000009
 50
349.8636347103541
 51
53.57615411374161
  0
ARC
  8
0
  6
CONTINUOUS
 62
     7
 10
580
 20
-389.5243530273438
 40
9.999999999999991
 50
274.9999691755382
 51
0
  0
ARC
  8
0
  6
CONTINUOUS
 62
     7
 10
479.3774108886719
 20
-611.9097290039062
 40
70.00000000000004
 50
310.6737705878531
 51
353.3631794618058
  0
ARC
  8
0
  6
CONTINUOUS
 62
     7
 10
588
 20
-650
 40
14.99999999999994
 50
270.0000179860892
 51
0
  0
ARC
  8
0
  6
CONTINUOUS
 62
     7
 10
528
 20
-668
 40
3.000000000000034
 50
89.99998201390989
 51
179.9999640278219
  0
ARC
  8
0
  6
CONTINUOUS
 62
     7
 10
822
 20
-668
 40
3
 50
0
 51
89.99998201390989
  0
ARC
  8
0
  6
CONTINUOUS
 62
     7
 10
588
 20
-383.8052673339844
 40
14.99999999999998
 50
275.0000238170512
 51
0
  0
ARC
  8
0
  6
CONTINUOUS
 62
     7
 10
768.6522827148438
 20
-625
 40
40.00000000000004
 50
219.9999869972261
 51
270.0000179860893
  0
ARC
  8
0
  6
CONTINUOUS
 62
     7
 10
725
 20
-479.6337890625
 40
99.99999999999996
 50
179.9999776881997
 51
219.9999833547605
  0
CIRCLE
  8
0
  6
CONTINUOUS
 62
     3
 10
585
 20
-510
 40
8.507550239562988
  0
CIRCLE
  8
0
  6
CONTINUOUS
 62
     3
 10
583
 20
-595
 40
8.507550239562988
  0
ARC
  8
0
  6
CONTINUOUS
 62
     7
 10
549.9384765625
 20
-574.1322021484375
 40
3.000000000000032
 50
355.0001030251773
 51
89.99998201390989
  0
ARC
  8
0
  6
CONTINUOUS
 62
     7
 10
741
 20
-101.9060592651367
 40
4.999999999999999
 50
275.0001399302667
 51
0
  0
ARC
  8
0
  6
CONTINUOUS
 62
     7
 10
728
 20
-113.0815963745117
 40
5.000000000000004
 50
95.00015859960162
 51
179.9999640278213
  0
ARC
  8
0
  6
CONTINUOUS
 62
     7
 10
741
 20
101.906135559082
 40
5
 50
359.9999453584866
 51
84.99980542821916
  0
ARC
  8
0
  6
CONTINUOUS
 62
     7
 10
728
 20
113.081672668457
 40
5.000000000000038
 50
179.9999776881996
 51
264.9998377579323
  0
ARC
  8
0
  6
CONTINUOUS
 62
     7
 10
708
 20
7.964731594256591E-06
 40
30.00000000000001
 50
304.849917584488
 51
55.15011656645786
  0
ARC
  8
0
  6
CONTINUOUS
 62
     7
 10
728
 20
-28.72283172607422
 40
5.000000000000028
 50
124.849888442499
 51
179.9999640278213
  0
ARC
  8
0
  6
CONTINUOUS
 62
     7
 10
728
 20
28.72284698486328
 40
5.000000000000038
 50
179.9999776881997
 51
235.1501079150353
  0
CIRCLE
  8
0
  6
CONTINUOUS
 62
     3
 10
720
 20
8.275045729533304E-06
 40
10.69374942779541
  0
ARC
  8
0
  6
CONTINUOUS
 62
     7
 10
653
 20
6.542457867908524E-06
 40
20.13370323181152
 50
14.37929160866249
 51
165.620708277652
  0
ARC
  8
0
  6
CONTINUOUS
 62
     7
 10
653
 20
6.542457867908524E-06
 40
20.13370323181157
 50
194.379291722348
 51
345.6207083913375
  0
ARC
  8
0
  6
CONTINUOUS
 62
     7
 10
652.9999389648438
 20
6.542456048919121E-06
 40
12.5
 50
23.57817843000461
 51
156.4218368242355
  0
ARC
  8
0
  6
CONTINUOUS
 62
     7
 10
632.9999389648437
 20
6.025265975040384E-06
 40
5
 50
89.99998201391031
 51
270.0000006832456
  0
ARC
  8
0
  6
CONTINUOUS
 62
     7
 10
672.9999389648438
 20
7.059646577545209E-06
 40
5
 50
270.0000179860897
 51
89.99998201391031
  0
ARC
  8
0
  6
CONTINUOUS
 62
     7
 10
652.9999389648438
 20
6.542456048919121E-06
 40
12.50000000000001
 50
203.5781631757645
 51
336.4218215699954
  0
ARC
  8
0
  6
CONTINUOUS
 62
     7
 10
522
 20
-83.6602783203125
 40
5
 50
0
 51
59.99998117908478
  0
ARC
  8
0
  6
CONTINUOUS
 62
     7
 10
522
 20
83.6602783203125
 40
4.99999999999998
 50
299.9999300284557
 51
0
  0
ARC
  8
0
  6
CONTINUOUS
 62
     7
 10
588
 20
126.1946487426758
 40
14.99999999999999
 50
275.0000238170512
 51
0
  0
ARC
  8
0
  6
CONTINUOUS
 62
     7
 10
588
 20
-126.1946334838867
 40
15
 50
0
 51
84.99997618294879
  0
ARC
  8
0
  6
CONTINUOUS
 62
     7
 10
540
 20
165
 40
15
 50
89.99998201391075
 51
179.9999640278213
  0
ARC
  8
0
  6
CONTINUOUS
 62
     7
 10
540
 20
105
 40
15
 50
179.9999776881997
 51
209.9264925177456
  0
ARC
  8
0
  6
CONTINUOUS
 62
     7
 10
810
 20
165.0000152587891
 40
15
 50
0
 51
89.99998201391075
  0
ARC
  8
0
  6
CONTINUOUS
 62
     7
 10
810
 20
122.5586624145508
 40
15
 50
280.1246942607443
 51
0
  0
ARC
  8
0
  6
CONTINUOUS
 62
     7
 10
810
 20
-122.558708190918
 40
15
 50
0
 51
79.87534672039071
  0
ARC
  8
0
  6
CONTINUOUS
 62
     7
 10
810
 20
-164.9999847412109
 40
15
 50
270.0000179860892
 51
0
  0
ARC
  8
0
  6
CONTINUOUS
 62
     7
 10
540
 20
-105
 40
15.00000000000003
 50
150.0735038397889
 51
179.9999640278213
  0
ARC
  8
0
  6
CONTINUOUS
 62
     7
 10
540
 20
-165
 40
15
 50
179.9999776881996
 51
270.0000280040019
  0
ARC
  8
0
  6
CONTINUOUS
 62
     7
 10
610
 20
5.430498731584521E-06
 40
20.00000000000001
 50
124.518146154511
 51
235.481836542645
  0
ARC
  8
0
  6
CONTINUOUS
 62
     7
 10
593
 20
24.7183895111084
 40
10.00000000000003
 50
304.5181582210278
 51
360
  0
ARC
  8
0
  6
CONTINUOUS
 62
     7
 10
495
 20
2.456654101479216E-06
 40
10
 50
270.0000179860893
 51
89.99998201391064
  0
ARC
  8
0
  6
CONTINUOUS
 62
     7
 10
593
 20
-24.7183780670166
 40
10
 50
0
 51
55.48184177897218
  0
CIRCLE
  8
0
  6
CONTINUOUS
 62
     7
 10
550
 20
-150
 40
11
  0
CIRCLE
  8
0
  6
CONTINUOUS
 62
     7
 10
550
 20
150
 40
11
  0
CIRCLE
  8
0
  6
CONTINUOUS
 62
     7
 10
800
 20
150.0000152587891
 40
11
  0
CIRCLE
  8
0
  6
CONTINUOUS
 62
     7
 10
800
 20
-149.9999847412109
 40
11
  0
ARC
  8
0
  6
CONTINUOUS
 62
     7
 10
745
 20
160.0000152587891
 40
4.999999999999977
 50
6.865607969727686
 51
90.00000250447782
  0
ARC
  8
0
  6
CONTINUOUS
 62
     7
 10
745
 20
-159.9999847412109
 40
5.000000000000004
 50
269.9999974955222
 51
355.0391469477946
  0
ARC
  8
0
  6
CONTINUOUS
 62
     7
 10
0
 20
-510
 40
150
 50
80.40595679625224
 51
99.59408919383911
  0
ARC
  8
0
  6
CONTINUOUS
 62
     7
 10
0
 20
-510
 40
150
 50
106.7608291050151
 51
112.3943349814957
  0
ARC
  8
0
  6
CONTINUOUS
 62
     7
 10
0
 20
-510
 40
150
 50
67.60560855575807
 51
73.23914858318459
  0
ARC
  8
0
  6
CONTINUOUS
 62
     7
 10
9.73834228515625
 20
-339.4000244140625
 40
1.39999997615814
 50
9.999995440224259
 51
78.39428850076496
  0
ARC
  8
0
  6
CONTINUOUS
 62
     7
 10
0
 20
-301.0000305175781
 40
5
 50
0
 51
179.9999640278213
  0
ARC
  8
0
  6
CONTINUOUS
 62
     7
 10
6.4000244140625
 20
-344.2000427246094
 40
1.399999976158142
 50
179.9999776881999
 51
270.000028004002
  0
ARC
  8
0
  6
CONTINUOUS
 62
     7
 10
-6.4000244140625
 20
-344.2000427246094
 40
1.399999976158144
 50
269.999963344576
 51
0
  0
ARC
  8
0
  6
CONTINUOUS
 62
     7
 10
-9.73834228515625
 20
-339.4000244140625
 40
1.399999976158126
 50
101.6056755270564
 51
169.9999660262765
  0
CIRCLE
  8
0
  6
CONTINUOUS
 62
     7
 10
0
 20
-510
 40
75
  0
CIRCLE
  8
0
  6
CONTINUOUS
 62
     7
 10
0
 20
-510
 40
110
  0
ARC
  8
0
  6
CONTINUOUS
 62
     3
 10
0
 20
-510
 40
95
 50
23.96605804278047
 51
36.0338821551691
  0
ARC
  8
0
  6
CONTINUOUS
 62
     3
 10
0
 20
-510
 40
95.00000000000003
 50
83.966056297338
 51
96.03390773048332
  0
ARC
  8
0
  6
CONTINUOUS
 62
     3
 10
0
 20
-510
 40
95.00000000000001
 50
143.9660579669901
 51
156.0338957397571
  0
ARC
  8
0
  6
CONTINUOUS
 62
     3
 10
0
 20
-510
 40
95
 50
203.9660632791079
 51
216.0339010518749
  0
ARC
  8
0
  6
CONTINUOUS
 62
     3
 10
0
 20
-510
 40
95.00000000000001
 50
263.96606494876
 51
276.0338890611487
  0
ARC
  8
0
  6
CONTINUOUS
 62
     3
 10
0
 20
-510
 40
94.99999999999999
 50
323.9660632033175
 51
336.0338873157062
  0
ARC
  8
0
  6
CONTINUOUS
 62
     7
 10
0
 20
-542
 40
180
 50
0
 51
179.9999640278213
  0
ARC
  8
0
  6
CONTINUOUS
 62
     7
 10
-82
 20
-665
 40
7.999999999999996
 50
179.9999776881995
 51
270.000028004002
  0
ARC
  8
0
  6
CONTINUOUS
 62
     7
 10
82
 20
-665
 40
8.000000000000053
 50
270.0000179860893
 51
0
  0
ARC
  8
0
  6
CONTINUOUS
 62
     7
 10
-85
 20
-695
 40
5.000000000000019
 50
89.99998201391064
 51
179.9999640278219
  0
ARC
  8
0
  6
CONTINUOUS
 62
     7
 10
85
 20
-695
 40
5
 50
0
 51
89.99998201391064
  0
ARC
  8
0
  6
CONTINUOUS
 62
     7
 10
28
 20
-670
 40
3
 50
179.9999776882003
 51
270.0000280040019
  0
ARC
  8
0
  6
CONTINUOUS
 62
     7
 10
-28
 20
-670
 40
3.000000000000034
 50
270.0000179860893
 51
0
  0
ARC
  8
0
  6
CONTINUOUS
 62
     7
 10
120.5865478515625
 20
-650
 40
15
 50
189.9999793322108
 51
270.0000179860893
  0
ARC
  8
0
  6
CONTINUOUS
 62
     7
 10
-120.5864868164063
 20
-650
 40
14.99999999999994
 50
270.0000179860893
 51
349.9999917531708
  0
ARC
  8
0
  6
CONTINUOUS
 62
     7
 10
66.14056396484375
 20
-616.0679931640625
 40
14.99999999999999
 50
9.999968119467892
 51
121.9464160074611
  0
ARC
  8
0
  6
CONTINUOUS
 62
     7
 10
-66.14056396484375
 20
-616.0679931640625
 40
15.00000000000002
 50
58.05376658641372
 51
170.0000206677892
  0
ARC
  8
0
  6
CONTINUOUS
 62
     3
 10
0
 20
-510
 40
132.5
 50
331.0102046339863
 51
343.9897565477341
  0
ARC
  8
0
  6
CONTINUOUS
 62
     3
 10
0
 20
-510
 40
132.5
 50
106.010204975609
 51
118.9897773799243
  0
ARC
  8
0
  6
CONTINUOUS
 62
     3
 10
0
 20
-510
 40
132.5
 50
286.010172645896
 51
298.9897450502113
  0
ARC
  8
0
  6
CONTINUOUS
 62
     3
 10
0
 20
-510
 40
132.4999999999999
 50
241.0101816389407
 51
253.9897472130668
  0
ARC
  8
0
  6
CONTINUOUS
 62
     3
 10
0
 20
-510
 40
132.5
 50
151.0101959825643
 51
163.9897547265013
  0
ARC
  8
0
  6
CONTINUOUS
 62
     3
 10
0
 20
-510
 40
132.5
 50
196.010217952742
 51
208.9897630363006
  0
ARC
  8
0
  6
CONTINUOUS
 62
     3
 10
0
 20
-510
 40
132.5
 50
331.0102046339863
 51
343.9897565477341
  0
ARC
  8
0
  6
CONTINUOUS
 62
     7
 10
15.7349853515625
 20
-365.7008056640625
 40
3
 50
0
 51
84.89928553420441
  0
ARC
  8
0
  6
CONTINUOUS
 62
     7
 10
-15.7349853515625
 20
-365.7008056640625
 40
2.999999999999994
 50
95.10073313513033
 51
179.9999640278208
  0
ARC
  8
0
  6
CONTINUOUS
 62
     7
 10
-21.7349853515625
 20
-399.1100158691406
 40
3.000000000000006
 50
281.089554103657
 51
0
  0
ARC
  8
0
  6
CONTINUOUS
 62
     7
 10
21.7349853515625
 20
-399.1100158691406
 40
3
 50
179.9999776881992
 51
258.9104235845426
  0
ARC
  8
0
  6
CONTINUOUS
 62
     7
 10
115
 20
-558.9898071289063
 40
14.99999999999999
 50
156.9261096906576
 51
179.9999640278215
  0
ARC
  8
0
  6
CONTINUOUS
 62
     7
 10
-115
 20
-558.9898071289063
 40
15
 50
0
 51
23.07391410131893
  0
ARC
  8
0
  6
CONTINUOUS
 62
     7
 10
0
 20
-510
 40
37.50000000000002
 50
105.4660233138666
 51
74.53398488281326
  0
ARC
  8
0
  6
CONTINUOUS
 62
     7
 10
177
 20
-668
 40
3
 50
0
 51
89.99998201391043
  0
ARC
  8
0
  6
CONTINUOUS
 62
     7
 10
93
 20
-668
 40
3.000000000000034
 50
89.9999820139107
 51
179.9999640278219
  0
ARC
  8
0
  6
CONTINUOUS
 62
     7
 10
-93
 20
-668
 40
3
 50
0
 51
89.9999820139107
  0
ARC
  8
0
  6
CONTINUOUS
 62
     7
 10
-177
 20
-668
 40
3.000000000000034
 50
89.99998201391043
 51
179.9999640278219
  0
ARC
  8
0
  6
CONTINUOUS
 62
     3
 10
0
 20
-510
 40
132.5
 50
16.01020588622543
 51
28.98977487544615
  0
ARC
  8
0
  6
CONTINUOUS
 62
     3
 10
0
 20
-510
 40
132.5
 50
61.01020713846451
 51
73.98977271259065
  0
CIRCLE
  8
0
  6
CONTINUOUS
 62
     3
 10
0
 20
-510
 40
8
  0
CIRCLE
  8
0
  6
CONTINUOUS
 62
     7
 10
0
 20
-510
 40
7.099999904632568
  0
ARC
  8
0
  6
CONTINUOUS
 62
     7
 10
841
 20
-467
 40
4.999999999999943
 50
179.999991348578
 51
270.0000006832456
  0
ARC
  8
0
  6
CONTINUOUS
 62
     7
 10
861
 20
-467
 40
5.000000000000004
 50
269.9999974955222
 51
0
  0
ARC
  8
0
  6
CONTINUOUS
 62
     7
 10
841
 20
-553
 40
5.000000000000004
 50
90.00000250447782
 51
180.0000050089569
  0
ARC
  8
0
  6
CONTINUOUS
 62
     7
 10
861
 20
-553
 40
5
 50
0
 51
90.00000250447782
  0
ARC
  8
0
  6
CONTINUOUS
 62
     7
 10
861
 20
-43
 40
5
 50
0
 51
90.00000250447782
  0
ARC
  8
0
  6
CONTINUOUS
 62
     7
 10
841
 20
-43
 40
4.999999999999997
 50
90.00000250447782
 51
180.0000050089563
  0
ARC
  8
0
  6
CONTINUOUS
 62
     7
 10
861
 20
43
 40
4.999999999999997
 50
269.9999974955222
 51
0
  0
ARC
  8
0
  6
CONTINUOUS
 62
     7
 10
841
 20
43
 40
4.999999999999943
 50
179.999991348578
 51
270.0000006832456
  0
TEXT
  8
0
  6
CONTINUOUS
 62
     7
 10
-160.7142906188965
 20
-15
 40
30
 41
1.015037624961451
  1
ERK-NBE-750
  0
ENDSEC
  0
EOF
