  0
SECTION
  2
HEADER
  0
ENDSEC
  0
SECTION
  2
TABLES
  0
TABLE
  2
LTYPE
 70
    22
  0
LTYPE
  2
CONTINUOUS
 70
    64
  3
Solid line
 72
    65
 73
     0
 40
0.000000
  0
LTYPE
  2
DASHED
 70
    64
  3
__ __ __ __ __ __ __ __ __ __ __ __ __ __ __
 72
    65
 73
     2
 40
3.500000
 49
2.000000
 49
-1.500000
  0
LTYPE
  2
CENTER
 70
    64
  3
____ _ ____ _ ____ _ ____ _ ____ _ ____ _ ____
 72
    65
 73
     4
 40
17.500000
 49
13.000000
 49
-1.500000
 49
1.500000
 49
-1.500000
  0
LTYPE
  2
PHANTOM
 70
    64
  3
_____ _ _ _____ _ _ _____ _ _ _____ _ _ ____  
 72
    65
 73
     6
 40
15.500000
 49
8.000000
 49
-1.500000
 49
1.500000
 49
-1.500000
 49
1.500000
 49
-1.500000
  0
LTYPE
  2
DOT
 70
    64
  3
. . . . . . . . . . . . . . . . . . . . . . . .
 72
    65
 73
     2
 40
0.25
 49
0.0
 49
-0.25
  0
ENDTAB
  0
TABLE
  2
LAYER
 70
     1
  0
LAYER
  2
0
 70
     0
 62
     7
  6
CONTINUOUS
  0
ENDTAB
  0
TABLE
  2
STYLE
 70
     1
  0
STYLE
  2
STANDARD
 70
     0
 40
0.000000
 41
1.000000
 50
0.000000
 71
     0
 42
0.200000
  3
txt
  0
ENDTAB
  0
TABLE
  2
VIEW
 70
     0
  0
ENDTAB
  0
ENDSEC
  0
SECTION
  2
BLOCKS
  0
ENDSEC
  0
SECTION
  2
ENTITIES
  0
LINE
  8
0
  6
CONTINUOUS
 62
     7
 10
150.6680450439453
 20
190.6311340332031
 11
150.6680450439453
 21
-56.35643768310547
  0
LINE
  8
0
  6
CONTINUOUS
 62
     7
 10
150.6680450439453
 20
190.6311340332031
 11
185.6680450439453
 21
190.6311340332031
  0
LINE
  8
0
  6
CONTINUOUS
 62
     7
 10
193.6680450439453
 20
144.5372619628906
 11
193.6680450439453
 21
-59.27496337890625
  0
LINE
  8
0
  6
CONTINUOUS
 62
     7
 10
175.2322845458984
 20
-65.46952056884766
 11
189.1038665771484
 21
-64.25591278076172
  0
LINE
  8
0
  6
CONTINUOUS
 62
     7
 10
189.1038208007812
 20
149.5182952880859
 11
190.2322540283203
 21
149.4195709228516
  0
LINE
  8
0
  6
CONTINUOUS
 62
     7
 10
228.6680450439453
 20
115.1311340332031
 11
228.6680450439453
 21
-29.86885070800781
  0
LINE
  8
0
  6
CONTINUOUS
 62
     7
 10
218.6680450439453
 20
115.1311340332031
 11
218.6680450439453
 21
-29.86885070800781
  0
LINE
  8
0
  6
CONTINUOUS
 62
     7
 10
218.6680450439453
 20
-29.86885070800781
 11
228.6680450439453
 21
-29.86885070800781
  0
LINE
  8
0
  6
CONTINUOUS
 62
     7
 10
218.6680450439453
 20
115.1311340332031
 11
228.6680450439453
 21
115.1311340332031
  0
LINE
  8
0
  6
CONTINUOUS
 62
     7
 10
185.6680450439453
 20
190.6311340332031
 11
185.6680450439453
 21
154.4004821777344
  0
LINE
  8
0
  6
CONTINUOUS
 62
     7
 10
170.6680450439453
 20
190.6311340332031
 11
170.6680450439453
 21
-80.19150543212891
  0
LINE
  8
0
  6
CONTINUOUS
 62
     7
 10
175.2322387695313
 20
150.7319030761719
 11
189.1038208007812
 21
149.5182952880859
  0
LINE
  8
0
  6
CONTINUOUS
 62
     3
 10
167.6680450439453
 20
218.8111877441406
 11
167.6680450439453
 21
172.9874877929687
  0
LINE
  8
0
  6
CONTINUOUS
 62
     7
 10
177.1504058837891
 20
207.4711303710938
 11
158.1856842041016
 21
207.4711303710938
  0
LINE
  8
0
  6
CONTINUOUS
 62
     7
 10
178.3618011474609
 20
197.4711303710938
 11
156.9742889404297
 21
197.4711303710938
  0
LINE
  8
0
  6
CONTINUOUS
 62
     7
 10
178.3618011474609
 20
197.4711456298828
 11
178.1480560302734
 21
190.6311340332031
  0
LINE
  8
0
  6
CONTINUOUS
 62
     7
 10
156.9743041992188
 20
197.4711303710938
 11
157.1880493164062
 21
190.6311187744141
  0
LINE
  8
0
  6
CONTINUOUS
 62
     7
 10
177.1504058837891
 20
207.4711303710938
 11
177.1504058837891
 21
197.4711303710938
  0
LINE
  8
0
  6
CONTINUOUS
 62
     7
 10
158.1856842041016
 20
207.4711303710938
 11
158.1856842041016
 21
197.4711303710938
  0
LINE
  8
0
  6
CONTINUOUS
 62
     7
 10
193.6680450439453
 20
77.44268798828125
 11
218.6680450439453
 21
77.44268798828125
  0
LINE
  8
0
  6
CONTINUOUS
 62
     7
 10
193.6680908203125
 20
105.9424285888672
 11
218.6680603027344
 21
95.37136840820312
  0
LINE
  8
0
  6
CONTINUOUS
 62
     7
 10
193.6680450439453
 20
7.819581031799316
 11
218.6680450439453
 21
7.819581031799316
  0
LINE
  8
0
  6
CONTINUOUS
 62
     7
 10
193.6680450439453
 20
-20.68017768859863
 11
218.6680450439453
 21
-10.10910320281982
  0
LINE
  8
0
  6
CONTINUOUS
 62
     3
 10
158.1856536865234
 20
197.4710998535156
 11
167.6680603027344
 21
207.4711303710938
  0
LINE
  8
0
  6
CONTINUOUS
 62
     3
 10
158.1856689453125
 20
207.4711303710938
 11
167.6680145263672
 21
197.4711456298828
  0
LINE
  8
0
  6
CONTINUOUS
 62
     7
 10
167.6680450439453
 20
197.4711303710938
 11
167.6680450439453
 21
207.4711303710938
  0
LINE
  8
0
  6
CONTINUOUS
 62
     3
 10
167.6680297851563
 20
207.4711456298828
 11
177.150390625
 21
197.4711456298828
  0
LINE
  8
0
  6
CONTINUOUS
 62
     3
 10
177.1504058837891
 20
207.4711456298828
 11
167.6680145263672
 21
197.4711303710938
  0
LINE
  8
0
  6
CONTINUOUS
 62
     7
 10
232.1680450439453
 20
-32.36886596679687
 11
265.1680297851562
 21
-32.36886596679687
  0
LINE
  8
0
  6
CONTINUOUS
 62
     7
 10
232.1680450439453
 20
117.6311340332031
 11
265.1680297851562
 21
117.6311340332031
  0
LINE
  8
0
  6
CONTINUOUS
 62
     7
 10
232.1680297851563
 20
117.631103515625
 11
228.6680450439453
 21
113.4702301025391
  0
LINE
  8
0
  6
CONTINUOUS
 62
     7
 10
265.1680603027344
 20
117.6311340332031
 11
268.6680603027344
 21
113.4702377319336
  0
LINE
  8
0
  6
CONTINUOUS
 62
     7
 10
268.6680297851563
 20
113.4702758789063
 11
268.6680297851563
 21
-28.20798301696777
  0
LINE
  8
0
  6
CONTINUOUS
 62
     7
 10
232.1680297851563
 20
-32.36883163452148
 11
228.6680297851562
 21
-28.20793533325195
  0
LINE
  8
0
  6
CONTINUOUS
 62
     7
 10
265.1680603027344
 20
-32.36885070800781
 11
268.6680297851563
 21
-28.20796966552734
  0
LINE
  8
0
  6
CONTINUOUS
 62
     7
 10
232.1680450439453
 20
72.06581115722656
 11
265.1680297851562
 21
72.06581115722656
  0
LINE
  8
0
  6
CONTINUOUS
 62
     7
 10
232.1680450439453
 20
63.3758544921875
 11
265.1680297851562
 21
63.3758544921875
  0
LINE
  8
0
  6
CONTINUOUS
 62
     7
 10
232.1680450439453
 20
55.58088684082031
 11
265.1680297851562
 21
55.58088684082031
  0
LINE
  8
0
  6
CONTINUOUS
 62
     7
 10
232.1680450439453
 20
46.63105773925781
 11
265.1680297851562
 21
46.63105773925781
  0
LINE
  8
0
  6
CONTINUOUS
 62
     7
 10
232.1680450439453
 20
38.63104248046875
 11
265.1680297851562
 21
38.63104248046875
  0
LINE
  8
0
  6
CONTINUOUS
 62
     7
 10
232.1680450439453
 20
29.68121337890625
 11
265.1680297851562
 21
29.68121337890625
  0
LINE
  8
0
  6
CONTINUOUS
 62
     7
 10
232.1680450439453
 20
21.88624572753906
 11
265.1680297851562
 21
21.88624572753906
  0
LINE
  8
0
  6
CONTINUOUS
 62
     7
 10
232.1680450439453
 20
13.19635105133057
 11
265.1680297851562
 21
13.19635105133057
  0
LINE
  8
0
  6
CONTINUOUS
 62
     7
 10
232.1680450439453
 20
-2.392119407653809
 11
265.1680297851562
 21
-2.392119407653809
  0
LINE
  8
0
  6
CONTINUOUS
 62
     7
 10
232.1680450439453
 20
-9.414305686950684
 11
265.1680297851562
 21
-9.414305686950684
  0
LINE
  8
0
  6
CONTINUOUS
 62
     7
 10
232.1680450439453
 20
-14.87029933929443
 11
265.1680297851562
 21
-14.87029933929443
  0
LINE
  8
0
  6
CONTINUOUS
 62
     7
 10
232.1680450439453
 20
-20.22831726074219
 11
265.1680297851562
 21
-20.22831726074219
  0
LINE
  8
0
  6
CONTINUOUS
 62
     7
 10
232.1680450439453
 20
-24.22831726074219
 11
265.1680297851562
 21
-24.22831726074219
  0
LINE
  8
0
  6
CONTINUOUS
 62
     7
 10
232.1680450439453
 20
-27.82014465332031
 11
265.1680297851562
 21
-27.82014465332031
  0
LINE
  8
0
  6
CONTINUOUS
 62
     7
 10
77.66804504394531
 20
192.6311340332031
 11
145.6680450439453
 21
192.6311340332031
  0
LINE
  8
0
  6
CONTINUOUS
 62
     7
 10
72.66808319091797
 20
187.6311187744141
 11
77.6680908203125
 21
192.6311187744141
  0
LINE
  8
0
  6
CONTINUOUS
 62
     7
 10
145.6680603027344
 20
192.6311340332031
 11
150.6680755615234
 21
187.6311187744141
  0
LINE
  8
0
  6
CONTINUOUS
 62
     7
 10
116.6680450439453
 20
202.631103515625
 11
84.66801452636719
 21
202.631103515625
  0
LINE
  8
0
  6
CONTINUOUS
 62
     7
 10
116.6680374145508
 20
202.6310729980469
 11
120.307731628418
 21
192.6310882568359
  0
LINE
  8
0
  6
CONTINUOUS
 62
     7
 10
84.66804504394531
 20
202.6309967041016
 11
81.02838897705078
 21
192.6311187744141
  0
LINE
  8
0
  6
CONTINUOUS
 62
     7
 10
77.66804504394531
 20
186.2586669921875
 11
145.6680450439453
 21
186.2586669921875
  0
LINE
  8
0
  6
CONTINUOUS
 62
     7
 10
77.66804504394531
 20
155.2066650390625
 11
145.6680450439453
 21
155.2066650390625
  0
LINE
  8
0
  6
CONTINUOUS
 62
     7
 10
77.66804504394531
 20
141.7610473632813
 11
145.6680450439453
 21
141.7610473632813
  0
LINE
  8
0
  6
CONTINUOUS
 62
     7
 10
77.66804504394531
 20
130.02197265625
 11
145.6680450439453
 21
130.02197265625
  0
LINE
  8
0
  6
CONTINUOUS
 62
     7
 10
77.66804504394531
 20
113.6040954589844
 11
145.6680450439453
 21
113.6040954589844
  0
LINE
  8
0
  6
CONTINUOUS
 62
     7
 10
77.66804504394531
 20
85.88778686523438
 11
145.6680450439453
 21
85.88778686523438
  0
LINE
  8
0
  6
CONTINUOUS
 62
     7
 10
77.66804504394531
 20
67.042236328125
 11
145.6680450439453
 21
67.042236328125
  0
LINE
  8
0
  6
CONTINUOUS
 62
     7
 10
77.66804504394531
 20
52.13862609863281
 11
145.6680450439453
 21
52.13862609863281
  0
LINE
  8
0
  6
CONTINUOUS
 62
     7
 10
80.96150207519531
 20
33.12368774414063
 11
145.6680450439453
 21
33.12368774414063
  0
LINE
  8
0
  6
CONTINUOUS
 62
     7
 10
89.00531005859375
 20
18.2200927734375
 11
145.6680450439453
 21
18.2200927734375
  0
LINE
  8
0
  6
CONTINUOUS
 62
     7
 10
103.9041900634766
 20
-0.6254416108131409
 11
145.6680450439453
 21
-0.6254416108131409
  0
LINE
  8
0
  6
CONTINUOUS
 62
     7
 10
127.1610565185547
 20
-28.34188842773438
 11
145.6680450439453
 21
-28.34188842773438
  0
LINE
  8
0
  6
CONTINUOUS
 62
     7
 10
140.9372711181641
 20
-44.759765625
 11
145.6680450439453
 21
-44.759765625
  0
LINE
  8
0
  6
CONTINUOUS
 62
     7
 10
88.16806793212891
 20
205.6311187744141
 11
89.46359252929688
 21
212.9784088134766
  0
LINE
  8
0
  6
CONTINUOUS
 62
     7
 10
111.8725204467773
 20
212.9784240722656
 11
113.1680526733398
 21
205.631103515625
  0
LINE
  8
0
  6
CONTINUOUS
 62
     7
 10
91.43318176269531
 20
214.631103515625
 11
109.9029083251953
 21
214.631103515625
  0
LINE
  8
0
  6
CONTINUOUS
 62
     7
 10
91.00981140136719
 20
214.5858306884766
 11
100.2446975708008
 21
216.5858306884766
  0
LINE
  8
0
  6
CONTINUOUS
 62
     7
 10
101.0913467407227
 20
216.5858154296875
 11
110.3262023925781
 21
214.5858154296875
  0
LINE
  8
0
  6
CONTINUOUS
 62
     7
 10
88.16804504394531
 20
205.631103515625
 11
88.16804504394531
 21
202.631103515625
  0
LINE
  8
0
  6
CONTINUOUS
 62
     7
 10
113.1680450439453
 20
205.631103515625
 11
113.1680450439453
 21
202.631103515625
  0
LINE
  8
0
  6
CONTINUOUS
 62
     7
 10
-27.33195686340332
 20
-142.3688659667969
 11
272.6680297851562
 21
-142.3688659667969
  0
LINE
  8
0
  6
CONTINUOUS
 62
     7
 10
22.66796112060547
 20
152.6312255859375
 11
36.97539901733398
 21
153.8829498291016
  0
LINE
  8
0
  6
CONTINUOUS
 62
     7
 10
72.66804504394531
 20
190.6311340332031
 11
72.66804504394531
 21
72.99734497070312
  0
LINE
  8
0
  6
CONTINUOUS
 62
     7
 10
50.66804122924805
 20
190.6311340332031
 11
50.66804122924805
 21
-97.36886596679688
  0
LINE
  8
0
  6
CONTINUOUS
 62
     7
 10
37.66804122924805
 20
190.6311340332031
 11
72.66804504394531
 21
190.6311340332031
  0
LINE
  8
0
  6
CONTINUOUS
 62
     7
 10
37.66804122924805
 20
190.6311340332031
 11
37.66804122924805
 21
163.1067810058594
  0
LINE
  8
0
  6
CONTINUOUS
 62
     7
 10
-24.33195686340332
 20
-112.3688659667969
 11
35.66804122924805
 21
-112.3688659667969
  0
LINE
  8
0
  6
CONTINUOUS
 62
     7
 10
-27.33195686340332
 20
-112.3688659667969
 11
-27.33195686340332
 21
-142.3688659667969
  0
LINE
  8
0
  6
CONTINUOUS
 62
     7
 10
272.6680297851562
 20
-115.3688659667969
 11
272.6680297851562
 21
-142.3688659667969
  0
LINE
  8
0
  6
CONTINUOUS
 62
     3
 10
-2.331957340240479
 20
-102.3688659667969
 11
-2.331957340240479
 21
-152.3688659667969
  0
LINE
  8
0
  6
CONTINUOUS
 62
     3
 10
247.6680450439453
 20
-102.3688659667969
 11
247.6680450439453
 21
-152.3688659667969
  0
LINE
  8
0
  6
CONTINUOUS
 62
     3
 10
20.66804313659668
 20
-42.36886596679687
 11
40.66804122924805
 21
-42.36886596679687
  0
LINE
  8
0
  6
CONTINUOUS
 62
     3
 10
30.66804313659668
 20
-32.36886596679687
 11
30.66804313659668
 21
-52.36886596679687
  0
LINE
  8
0
  6
CONTINUOUS
 62
     7
 10
-25.33195686340332
 20
152.6311340332031
 11
-25.33195686340332
 21
-67.36886596679687
  0
LINE
  8
0
  6
CONTINUOUS
 62
     7
 10
-7.331957340240479
 20
152.6311340332031
 11
-7.331957340240479
 21
-67.36886596679687
  0
LINE
  8
0
  6
CONTINUOUS
 62
     7
 10
-35.33198165893555
 20
-32.368896484375
 11
-25.33196258544922
 21
-38.14241027832031
  0
LINE
  8
0
  6
CONTINUOUS
 62
     7
 10
-25.33195686340332
 20
-67.36886596679687
 11
-3.394976139068604
 21
-67.36886596679687
  0
LINE
  8
0
  6
CONTINUOUS
 62
     7
 10
-35.33195877075195
 20
117.6311950683594
 11
-35.33195877075195
 21
-32.36888122558594
  0
LINE
  8
0
  6
CONTINUOUS
 62
     3
 10
-172.3319549560547
 20
42.63113403320313
 11
336.0365295410156
 21
42.63113403320313
  0
LINE
  8
0
  6
CONTINUOUS
 62
     7
 10
-35.33196258544922
 20
117.6312255859375
 11
-25.33195877075195
 21
123.4047317504883
  0
LINE
  8
0
  6
CONTINUOUS
 62
     7
 10
-25.33195686340332
 20
152.6311340332031
 11
22.6670970916748
 21
152.6311340332031
  0
LINE
  8
0
  6
CONTINUOUS
 62
     7
 10
-152.3319549560547
 20
84.63113403320313
 11
-152.3319549560547
 21
5.131134986877441
  0
LINE
  8
0
  6
CONTINUOUS
 62
     7
 10
-152.3319549560547
 20
80.13113403320312
 11
-42.33195877075195
 21
80.13113403320312
  0
LINE
  8
0
  6
CONTINUOUS
 62
     7
 10
-152.3319549560547
 20
5.131134986877441
 11
-42.33195877075195
 21
5.131134986877441
  0
LINE
  8
0
  6
CONTINUOUS
 62
     7
 10
-42.33195877075195
 20
85.13113403320312
 11
-42.33195877075195
 21
0.1311348974704742
  0
LINE
  8
0
  6
CONTINUOUS
 62
     7
 10
-42.33195877075195
 20
85.13113403320312
 11
-35.33195877075195
 21
85.13113403320312
  0
LINE
  8
0
  6
CONTINUOUS
 62
     7
 10
-42.33195877075195
 20
0.1311348974704742
 11
-35.33195877075195
 21
0.1311348974704742
  0
LINE
  8
0
  6
CONTINUOUS
 62
     3
 10
32.66804122924805
 20
32.63113403320313
 11
32.66804122924805
 21
52.63113403320313
  0
LINE
  8
0
  6
CONTINUOUS
 62
     7
 10
-152.3319549560547
 20
84.63113403320313
 11
-62.33195877075195
 21
84.63113403320313
  0
LINE
  8
0
  6
CONTINUOUS
 62
     7
 10
216.3203277587891
 20
-112.3688659667969
 11
269.6680297851563
 21
-112.3688659667969
  0
LINE
  8
0
  6
DASHED
 62
     7
 10
8.668042182922363
 20
-112.3688659667969
 11
8.668042182922363
 21
-142.3688659667969
  0
LINE
  8
0
  6
DASHED
 62
     7
 10
-13.33195781707764
 20
-112.3688659667969
 11
-13.33195781707764
 21
-142.3688659667969
  0
LINE
  8
0
  6
DASHED
 62
     7
 10
258.6680297851563
 20
-112.3688659667969
 11
258.6680297851563
 21
-142.3688659667969
  0
LINE
  8
0
  6
DASHED
 62
     7
 10
236.6680450439453
 20
-112.3688659667969
 11
236.6680450439453
 21
-142.3688659667969
  0
LINE
  8
0
  6
CONTINUOUS
 62
     7
 10
96.06360626220703
 20
8.718584060668945
 11
185.6785583496094
 21
-98.08035278320313
  0
LINE
  8
0
  6
CONTINUOUS
 62
     7
 10
41.15333938598633
 20
42.63111114501953
 11
32.66803741455078
 21
51.11641311645508
  0
LINE
  8
0
  6
CONTINUOUS
 62
     7
 10
32.66803741455078
 20
51.11643600463867
 11
24.1827564239502
 21
42.63115310668945
  0
LINE
  8
0
  6
CONTINUOUS
 62
     7
 10
32.66801452636719
 20
34.14585113525391
 11
24.18271255493164
 21
42.63115310668945
  0
LINE
  8
0
  6
CONTINUOUS
 62
     7
 10
41.15333938598633
 20
42.63113403320313
 11
32.66804885864258
 21
34.14584350585938
  0
LINE
  8
0
  6
CONTINUOUS
 62
     7
 10
-3.395054817199707
 20
-67.36886596679687
 11
0.5949845314025879
 21
-21.76254463195801
  0
LINE
  8
0
  6
CONTINUOUS
 62
     7
 10
-62.33195877075195
 20
84.63113403320313
 11
-62.33195877075195
 21
80.13113403320312
  0
LINE
  8
0
  6
CONTINUOUS
 62
     3
 10
-552.3319702148438
 20
264.6590270996094
 11
-552.3319702148438
 21
-167.3688659667969
  0
LINE
  8
0
  6
CONTINUOUS
 62
     3
 10
-745.8319702148437
 20
42.63113403320313
 11
-352.8319702148437
 21
42.63113403320313
  0
LINE
  8
0
  6
CONTINUOUS
 62
     7
 10
-577.3319702148437
 20
190.5330505371094
 11
-577.7335815429687
 21
188.8297729492187
  0
LINE
  8
0
  6
CONTINUOUS
 62
     7
 10
-527.3319702148438
 20
190.5331115722656
 11
-526.9302978515625
 21
188.8298034667969
  0
LINE
  8
0
  6
CONTINUOUS
 62
     7
 10
-595.588623046875
 20
186.2588043212891
 11
-594.8821411132813
 21
185.5296325683594
  0
LINE
  8
0
  6
CONTINUOUS
 62
     7
 10
-509.0755004882812
 20
186.2587432861328
 11
-509.7819213867188
 21
185.5296630859375
  0
LINE
  8
0
  6
CONTINUOUS
 62
     7
 10
-536.3319702148437
 20
202.631103515625
 11
-568.3319702148438
 21
202.631103515625
  0
LINE
  8
0
  6
CONTINUOUS
 62
     7
 10
-536.33203125
 20
202.6311187744141
 11
-532.1983032226562
 21
191.2738189697266
  0
LINE
  8
0
  6
CONTINUOUS
 62
     7
 10
-568.3319091796875
 20
202.6310119628906
 11
-572.4656372070313
 21
191.2737121582031
  0
LINE
  8
0
  6
CONTINUOUS
 62
     7
 10
-541.2149047851562
 20
213.4742126464844
 11
-539.8319702148438
 21
205.6310882568359
  0
LINE
  8
0
  6
CONTINUOUS
 62
     7
 10
-547.3319702148438
 20
215.6334533691406
 11
-542.3119506835938
 21
214.6024780273437
  0
LINE
  8
0
  6
CONTINUOUS
 62
     7
 10
-547.3319702148438
 20
251.631103515625
 11
-547.3319702148438
 21
208.4310913085938
  0
LINE
  8
0
  6
CONTINUOUS
 62
     7
 10
-563.4490356445313
 20
213.4742126464844
 11
-564.8319702148438
 21
205.631103515625
  0
LINE
  8
0
  6
CONTINUOUS
 62
     7
 10
-557.3319091796875
 20
215.6335144042969
 11
-562.3518676757813
 21
214.6025390625
  0
LINE
  8
0
  6
CONTINUOUS
 62
     7
 10
-557.3319702148437
 20
251.631103515625
 11
-557.3319702148437
 21
208.4310913085938
  0
LINE
  8
0
  6
CONTINUOUS
 62
     7
 10
-564.8319702148438
 20
205.631103515625
 11
-564.8319702148438
 21
202.631103515625
  0
LINE
  8
0
  6
CONTINUOUS
 62
     7
 10
-539.8319702148438
 20
205.6310729980469
 11
-539.8319702148438
 21
202.631103515625
  0
LINE
  8
0
  6
CONTINUOUS
 62
     7
 10
-732.3319702148438
 20
-142.3688659667969
 11
-642.3319702148437
 21
-142.3688659667969
  0
LINE
  8
0
  6
CONTINUOUS
 62
     3
 10
-625.9440307617187
 20
0.1309839338064194
 11
-643.2645263671875
 21
-9.869015693664551
  0
LINE
  8
0
  6
CONTINUOUS
 62
     3
 10
-625.9443359375
 20
85.13111114501953
 11
-643.2648315429688
 21
95.13111114501953
  0
LINE
  8
0
  6
CONTINUOUS
 62
     3
 10
-478.7196350097656
 20
85.13111877441406
 11
-461.3991394042969
 21
95.13111877441406
  0
LINE
  8
0
  6
CONTINUOUS
 62
     3
 10
-478.7198791503906
 20
0.1311229765415192
 11
-461.3993835449219
 21
-9.868879318237305
  0
LINE
  8
0
  6
CONTINUOUS
 62
     7
 10
-372.3319702148438
 20
10.63113498687744
 11
-372.3319702148438
 21
-142.3688659667969
  0
LINE
  8
0
  6
CONTINUOUS
 62
     7
 10
-732.3319702148438
 20
10.63113498687744
 11
-732.3319702148438
 21
-142.3688659667969
  0
LINE
  8
0
  6
CONTINUOUS
 62
     7
 10
-729.3319702148438
 20
-112.3688659667969
 11
-645.3319702148437
 21
-112.3688659667969
  0
LINE
  8
0
  6
CONTINUOUS
 62
     3
 10
-702.3319702148437
 20
-102.3688659667969
 11
-702.3319702148437
 21
-152.3688659667969
  0
LINE
  8
0
  6
CONTINUOUS
 62
     3
 10
-402.3319702148438
 20
-102.3688659667969
 11
-402.3319702148438
 21
-152.3688659667969
  0
LINE
  8
0
  6
CONTINUOUS
 62
     7
 10
-642.3319702148437
 20
-115.3688659667969
 11
-642.3319702148437
 21
-142.3688659667969
  0
LINE
  8
0
  6
CONTINUOUS
 62
     7
 10
-462.3319702148437
 20
-115.3688659667969
 11
-462.3319702148437
 21
-142.3688659667969
  0
LINE
  8
0
  6
CONTINUOUS
 62
     7
 10
-637.3319702148437
 20
-137.3688659667969
 11
-467.3319702148438
 21
-137.3688659667969
  0
LINE
  8
0
  6
CONTINUOUS
 62
     7
 10
-634.3319702148437
 20
-120.3688659667969
 11
-580.3319702148437
 21
-120.3688659667969
  0
LINE
  8
0
  6
CONTINUOUS
 62
     7
 10
-462.3319702148437
 20
-142.3688659667969
 11
-372.3319702148438
 21
-142.3688659667969
  0
LINE
  8
0
  6
CONTINUOUS
 62
     7
 10
-459.3319702148438
 20
-112.3688659667969
 11
-375.3319702148438
 21
-112.3688659667969
  0
LINE
  8
0
  6
CONTINUOUS
 62
     7
 10
-524.3319702148438
 20
-120.3688659667969
 11
-470.3319702148437
 21
-120.3688659667969
  0
LINE
  8
0
  6
CONTINUOUS
 62
     7
 10
-462.33203125
 20
-112.3688735961914
 11
-471.4193115234375
 21
-60.83218383789063
  0
LINE
  8
0
  6
CONTINUOUS
 62
     7
 10
-642.3319702148437
 20
-112.3688659667969
 11
-633.2446899414063
 21
-60.83214569091797
  0
LINE
  8
0
  6
CONTINUOUS
 62
     7
 10
-658.146240234375
 20
-99.97361755371094
 11
-652.3319091796875
 21
-66.99875640869141
  0
LINE
  8
0
  6
CONTINUOUS
 62
     7
 10
-446.5175476074219
 20
-99.97356414794922
 11
-452.3319702148438
 21
-66.99845123291016
  0
LINE
  8
0
  6
CONTINUOUS
 62
     7
 10
-452.3319702148438
 20
-6.358656883239746
 11
-452.3319702148438
 21
-66.99843597412109
  0
LINE
  8
0
  6
CONTINUOUS
 62
     7
 10
-652.3319702148438
 20
-6.358656883239746
 11
-652.3319702148438
 21
-66.99870300292969
  0
LINE
  8
0
  6
CONTINUOUS
 62
     3
 10
-443.77734375
 20
-2.33569860458374
 11
-416.0609436035156
 21
-13.81621170043945
  0
LINE
  8
0
  6
CONTINUOUS
 62
     3
 10
-597.2972412109375
 20
151.1869049072266
 11
-608.7777709960937
 21
178.9033508300781
  0
LINE
  8
0
  6
CONTINUOUS
 62
     3
 10
-507.3669738769531
 20
-65.92478179931641
 11
-495.8864440917969
 21
-93.64125061035156
  0
LINE
  8
0
  6
CONTINUOUS
 62
     3
 10
-597.297607421875
 20
-65.92472839355469
 11
-608.7781372070313
 21
-93.64114379882813
  0
LINE
  8
0
  6
CONTINUOUS
 62
     3
 10
-660.8880615234375
 20
87.59621429443359
 11
-688.6044311523437
 21
99.07672119140625
  0
LINE
  8
0
  6
CONTINUOUS
 62
     3
 10
-660.8880004882813
 20
-2.333641767501831
 11
-688.6043701171875
 21
-13.8141393661499
  0
LINE
  8
0
  6
CONTINUOUS
 62
     7
 10
-571.0669555664062
 20
186.9303283691406
 11
-571.0669555664062
 21
153.5211181640625
  0
LINE
  8
0
  6
CONTINUOUS
 62
     7
 10
-533.5969848632813
 20
186.9303283691406
 11
-533.5969848632813
 21
153.5211181640625
  0
LINE
  8
0
  6
CONTINUOUS
 62
     7
 10
-562.3319702148437
 20
84.63113403320313
 11
-562.3319702148437
 21
72.63113403320312
  0
LINE
  8
0
  6
CONTINUOUS
 62
     7
 10
-542.3319702148438
 20
84.63113403320313
 11
-542.3319702148438
 21
72.63113403320312
  0
LINE
  8
0
  6
CONTINUOUS
 62
     3
 10
-443.776123046875
 20
87.59646606445312
 11
-416.0596923828125
 21
99.07699584960938
  0
LINE
  8
0
  6
CONTINUOUS
 62
     3
 10
-507.3666381835938
 20
151.1869812011719
 11
-495.8861389160156
 21
178.9034271240234
  0
LINE
  8
0
  6
CONTINUOUS
 62
     7
 10
-562.3319702148437
 20
72.63113403320312
 11
-542.3319702148438
 21
72.63113403320312
  0
LINE
  8
0
  6
CONTINUOUS
 62
     7
 10
-562.3319702148437
 20
84.63113403320313
 11
-542.3319702148438
 21
84.63113403320313
  0
LINE
  8
0
  6
DASHED
 62
     7
 10
-413.3319702148438
 20
-112.3688659667969
 11
-413.3319702148438
 21
-142.3688659667969
  0
LINE
  8
0
  6
DASHED
 62
     7
 10
-391.3319702148437
 20
-112.3688659667969
 11
-391.3319702148437
 21
-142.3688659667969
  0
LINE
  8
0
  6
DASHED
 62
     7
 10
-691.3319702148438
 20
-112.3688659667969
 11
-691.3319702148438
 21
-142.3688659667969
  0
LINE
  8
0
  6
DASHED
 62
     7
 10
-713.3319702148438
 20
-112.3688659667969
 11
-713.3319702148438
 21
-142.3688659667969
  0
LINE
  8
0
  6
CONTINUOUS
 62
     7
 10
-427.6819458007812
 20
34.56005859375
 11
-427.6819458007812
 21
50.70220947265625
  0
LINE
  8
0
  6
CONTINUOUS
 62
     7
 10
-436.6819458007812
 20
34.12356567382813
 11
-436.6819458007812
 21
51.13870239257812
  0
LINE
  8
0
  6
CONTINUOUS
 62
     7
 10
-436.681884765625
 20
34.12356948852539
 11
-442.6471252441406
 21
34.30998229980469
  0
LINE
  8
0
  6
CONTINUOUS
 62
     7
 10
-436.6819458007812
 20
51.1386833190918
 11
-442.6471862792969
 21
50.9522705078125
  0
LINE
  8
0
  6
CONTINUOUS
 62
     7
 10
-427.6819458007812
 20
34.56005859375
 11
-436.6819458007812
 21
34.56005859375
  0
LINE
  8
0
  6
CONTINUOUS
 62
     7
 10
-427.6819458007812
 20
50.70220947265625
 11
-436.6819458007812
 21
50.70220947265625
  0
LINE
  8
0
  6
CONTINUOUS
 62
     3
 10
-436.6819763183594
 20
50.70223236083984
 11
-427.6819763183594
 21
42.63116073608398
  0
LINE
  8
0
  6
CONTINUOUS
 62
     3
 10
-436.6819458007812
 20
42.63113403320313
 11
-427.6819458007812
 21
50.70220565795898
  0
LINE
  8
0
  6
CONTINUOUS
 62
     3
 10
-436.6819763183594
 20
42.63117218017578
 11
-427.6819458007812
 21
34.56010437011719
  0
LINE
  8
0
  6
CONTINUOUS
 62
     3
 10
-436.6819152832031
 20
34.56003570556641
 11
-427.6819152832031
 21
42.63110733032227
  0
LINE
  8
0
  6
CONTINUOUS
 62
     7
 10
-427.6819458007812
 20
42.6314697265625
 11
-436.6819458007812
 21
42.6314697265625
  0
LINE
  8
0
  6
CONTINUOUS
 62
     7
 10
150.6680450439453
 20
720.6311645507812
 11
150.6680450439453
 21
424.6311340332031
  0
LINE
  8
0
  6
CONTINUOUS
 62
     7
 10
150.6680450439453
 20
424.6311340332031
 11
170.6680450439453
 21
424.6311340332031
  0
LINE
  8
0
  6
CONTINUOUS
 62
     7
 10
150.6680450439453
 20
720.6311645507812
 11
170.6680450439453
 21
720.6311645507812
  0
LINE
  8
0
  6
CONTINUOUS
 62
     7
 10
193.6680450439453
 20
674.5372924804687
 11
193.6680450439453
 21
470.7250671386719
  0
LINE
  8
0
  6
CONTINUOUS
 62
     7
 10
175.2322845458984
 20
464.5307006835938
 11
189.1038513183594
 21
465.7442932128906
  0
LINE
  8
0
  6
CONTINUOUS
 62
     7
 10
189.1039276123047
 20
679.5186157226562
 11
190.2323608398438
 21
679.4198608398438
  0
LINE
  8
0
  6
CONTINUOUS
 62
     7
 10
228.6680450439453
 20
645.1311645507812
 11
228.6680450439453
 21
500.1311340332031
  0
LINE
  8
0
  6
CONTINUOUS
 62
     7
 10
218.6680450439453
 20
645.1311645507812
 11
218.6680450439453
 21
500.1311340332031
  0
LINE
  8
0
  6
CONTINUOUS
 62
     7
 10
218.6680450439453
 20
500.1311340332031
 11
228.6680450439453
 21
500.1311340332031
  0
LINE
  8
0
  6
CONTINUOUS
 62
     7
 10
218.6680450439453
 20
645.1311645507812
 11
228.6680450439453
 21
645.1311645507812
  0
LINE
  8
0
  6
CONTINUOUS
 62
     7
 10
170.6680450439453
 20
720.6311645507812
 11
170.6680450439453
 21
601.35400390625
  0
LINE
  8
0
  6
CONTINUOUS
 62
     7
 10
175.2323608398438
 20
680.732177734375
 11
189.1039276123047
 21
679.5186157226562
  0
LINE
  8
0
  6
CONTINUOUS
 62
     3
 10
167.6680450439453
 20
590.5352783203125
 11
167.6680450439453
 21
553.8262939453125
  0
LINE
  8
0
  6
CONTINUOUS
 62
     7
 10
170.6680450439453
 20
543.9083251953125
 11
170.6680450439453
 21
424.6311340332031
  0
LINE
  8
0
  6
CONTINUOUS
 62
     7
 10
167.6680450439453
 20
582.5306396484375
 11
157.7685546875
 21
572.6311645507813
  0
LINE
  8
0
  6
CONTINUOUS
 62
     7
 10
157.7685699462891
 20
572.631103515625
 11
167.6680603027344
 21
562.7316284179688
  0
LINE
  8
0
  6
CONTINUOUS
 62
     7
 10
167.6680603027344
 20
562.7316284179688
 11
177.5675659179688
 21
572.631103515625
  0
LINE
  8
0
  6
CONTINUOUS
 62
     7
 10
177.5676116943359
 20
572.6311645507813
 11
167.6681213378906
 21
582.5306396484375
  0
LINE
  8
0
  6
CONTINUOUS
 62
     7
 10
193.6680450439453
 20
540.645751953125
 11
218.6680450439453
 21
540.645751953125
  0
LINE
  8
0
  6
CONTINUOUS
 62
     7
 10
218.6680145263672
 20
523.0685424804687
 11
193.6679992675781
 21
513.2108764648437
  0
LINE
  8
0
  6
CONTINUOUS
 62
     7
 10
193.6680450439453
 20
604.6165771484375
 11
218.6680450439453
 21
604.6165771484375
  0
LINE
  8
0
  6
CONTINUOUS
 62
     7
 10
218.66796875
 20
622.1937255859375
 11
193.6679992675781
 21
632.0513916015625
  0
LINE
  8
0
  6
CONTINUOUS
 62
     7
 10
268.6680297851563
 20
643.47021484375
 11
268.6680297851563
 21
593.4822387695313
  0
LINE
  8
0
  6
CONTINUOUS
 62
     7
 10
232.1680450439453
 20
647.6311645507813
 11
265.1680297851562
 21
647.6311645507813
  0
LINE
  8
0
  6
CONTINUOUS
 62
     7
 10
232.1680297851563
 20
647.631103515625
 11
228.6680145263672
 21
643.47021484375
  0
LINE
  8
0
  6
CONTINUOUS
 62
     7
 10
265.1680603027344
 20
647.631103515625
 11
268.6680603027344
 21
643.47021484375
  0
LINE
  8
0
  6
CONTINUOUS
 62
     7
 10
265.1679992675781
 20
497.631103515625
 11
268.6679992675781
 21
501.7919921875
  0
LINE
  8
0
  6
CONTINUOUS
 62
     7
 10
232.1680450439453
 20
497.6311340332031
 11
265.1680297851562
 21
497.6311340332031
  0
LINE
  8
0
  6
CONTINUOUS
 62
     7
 10
232.1680450439453
 20
497.631103515625
 11
228.6680908203125
 21
501.7919616699219
  0
LINE
  8
0
  6
CONTINUOUS
 62
     7
 10
232.1680450439453
 20
644.705078125
 11
265.1680297851562
 21
644.705078125
  0
LINE
  8
0
  6
CONTINUOUS
 62
     7
 10
232.1680450439453
 20
641.6136474609375
 11
265.1680297851562
 21
641.6136474609375
  0
LINE
  8
0
  6
CONTINUOUS
 62
     7
 10
232.1680450439453
 20
632.6136474609375
 11
265.1680297851562
 21
632.6136474609375
  0
LINE
  8
0
  6
CONTINUOUS
 62
     7
 10
232.1680450439453
 20
626.6337280273438
 11
265.1680297851562
 21
626.6337280273438
  0
LINE
  8
0
  6
CONTINUOUS
 62
     7
 10
232.1680450439453
 20
613.5419921875
 11
265.1680297851562
 21
613.5419921875
  0
LINE
  8
0
  6
CONTINUOUS
 62
     7
 10
232.1680450439453
 20
620.7828369140625
 11
265.1680297851562
 21
620.7828369140625
  0
LINE
  8
0
  6
CONTINUOUS
 62
     7
 10
232.1680450439453
 20
606.61376953125
 11
265.1680297851562
 21
606.61376953125
  0
LINE
  8
0
  6
CONTINUOUS
 62
     7
 10
232.1680450439453
 20
598.3531494140625
 11
265.1680297851562
 21
598.3531494140625
  0
LINE
  8
0
  6
CONTINUOUS
 62
     7
 10
232.1680450439453
 20
590.70263671875
 11
265.1680297851562
 21
590.70263671875
  0
LINE
  8
0
  6
CONTINUOUS
 62
     7
 10
232.1680450439453
 20
581.6312255859375
 11
265.1680297851562
 21
581.6312255859375
  0
LINE
  8
0
  6
CONTINUOUS
 62
     7
 10
232.1680450439453
 20
503.6485290527344
 11
265.1680297851562
 21
503.6485290527344
  0
LINE
  8
0
  6
CONTINUOUS
 62
     7
 10
232.1680450439453
 20
500.5571594238281
 11
265.1680297851562
 21
500.5571594238281
  0
LINE
  8
0
  6
CONTINUOUS
 62
     7
 10
77.66803741455078
 20
722.6312255859375
 11
145.6680450439453
 21
722.6312255859375
  0
LINE
  8
0
  6
CONTINUOUS
 62
     7
 10
77.66804504394531
 20
422.6311340332031
 11
145.6680450439453
 21
422.6311340332031
  0
LINE
  8
0
  6
CONTINUOUS
 62
     7
 10
72.66825866699219
 20
717.6310424804688
 11
77.66823577880859
 21
722.6310424804687
  0
LINE
  8
0
  6
CONTINUOUS
 62
     7
 10
145.6679077148438
 20
722.63134765625
 11
150.6678924560547
 21
717.63134765625
  0
LINE
  8
0
  6
CONTINUOUS
 62
     7
 10
72.66796112060547
 20
427.6313171386719
 11
77.66803741455078
 21
422.6312561035156
  0
LINE
  8
0
  6
CONTINUOUS
 62
     7
 10
145.6682281494141
 20
422.6310119628906
 11
150.668212890625
 21
427.6309814453125
  0
LINE
  8
0
  6
CONTINUOUS
 62
     7
 10
77.66822052001953
 20
716.2587280273437
 11
145.6679534912109
 21
716.2587280273437
  0
LINE
  8
0
  6
CONTINUOUS
 62
     7
 10
77.66822052001953
 20
704.7781982421875
 11
145.6679534912109
 21
704.7781982421875
  0
LINE
  8
0
  6
CONTINUOUS
 62
     7
 10
77.66822052001953
 20
694.5444946289063
 11
145.6679534912109
 21
694.5444946289063
  0
LINE
  8
0
  6
CONTINUOUS
 62
     7
 10
77.66822052001953
 20
685.206787109375
 11
145.6679534912109
 21
685.206787109375
  0
LINE
  8
0
  6
CONTINUOUS
 62
     7
 10
77.66822052001953
 20
671.7611694335937
 11
145.6679534912109
 21
671.7611694335937
  0
LINE
  8
0
  6
CONTINUOUS
 62
     7
 10
77.66822814941406
 20
615.8878784179688
 11
145.6679534912109
 21
615.8878784179688
  0
LINE
  8
0
  6
CONTINUOUS
 62
     7
 10
77.66822814941406
 20
597.6312255859375
 11
145.6679534912109
 21
597.6312255859375
  0
LINE
  8
0
  6
CONTINUOUS
 62
     7
 10
77.66822814941406
 20
547.6311645507813
 11
145.6679534912109
 21
547.6311645507813
  0
LINE
  8
0
  6
CONTINUOUS
 62
     7
 10
77.66822814941406
 20
529.3746337890625
 11
145.6679534912109
 21
529.3746337890625
  0
LINE
  8
0
  6
CONTINUOUS
 62
     7
 10
77.66822814941406
 20
473.5011901855469
 11
145.6679534912109
 21
473.5011901855469
  0
LINE
  8
0
  6
CONTINUOUS
 62
     7
 10
77.66822814941406
 20
460.0555725097656
 11
145.6679534912109
 21
460.0555725097656
  0
LINE
  8
0
  6
CONTINUOUS
 62
     7
 10
77.66822814941406
 20
450.7178649902344
 11
145.6679534912109
 21
450.7178649902344
  0
LINE
  8
0
  6
CONTINUOUS
 62
     7
 10
77.66822814941406
 20
440.4841003417969
 11
145.6679534912109
 21
440.4841003417969
  0
LINE
  8
0
  6
CONTINUOUS
 62
     7
 10
77.66822814941406
 20
429.0036010742188
 11
145.6679534912109
 21
429.0036010742188
  0
LINE
  8
0
  6
CONTINUOUS
 62
     7
 10
80.66798400878906
 20
577.6311645507812
 11
120.6679840087891
 21
577.6311645507812
  0
LINE
  8
0
  6
CONTINUOUS
 62
     7
 10
80.66798400878906
 20
567.6311645507812
 11
120.6679840087891
 21
567.6311645507812
  0
LINE
  8
0
  6
CONTINUOUS
 62
     7
 10
-7.331957340240479
 20
682.6311645507812
 11
-7.331957340240479
 21
462.6311340332031
  0
LINE
  8
0
  6
CONTINUOUS
 62
     7
 10
-25.33195495605469
 20
462.6311340332031
 11
22.66801452636719
 21
462.6311340332031
  0
LINE
  8
0
  6
CONTINUOUS
 62
     7
 10
-25.33196067810059
 20
682.6311645507812
 11
22.66828346252441
 21
682.6311645507812
  0
LINE
  8
0
  6
CONTINUOUS
 62
     7
 10
-35.33195877075195
 20
647.63134765625
 11
-35.33195877075195
 21
497.6311950683594
  0
LINE
  8
0
  6
CONTINUOUS
 62
     7
 10
-25.33195686340332
 20
682.6311645507812
 11
-25.33195686340332
 21
462.6311340332031
  0
LINE
  8
0
  6
CONTINUOUS
 62
     7
 10
-35.33197402954102
 20
647.63134765625
 11
-27.83205604553223
 21
651.96142578125
  0
LINE
  8
0
  6
CONTINUOUS
 62
     7
 10
-35.33195114135742
 20
497.6311950683594
 11
-27.83198165893555
 21
493.3010864257813
  0
LINE
  8
0
  6
CONTINUOUS
 62
     3
 10
-172.3319549560547
 20
572.6311645507813
 11
337.3655700683594
 21
572.6311645507813
  0
LINE
  8
0
  6
CONTINUOUS
 62
     7
 10
72.66804504394531
 20
737.6311645507813
 11
72.66804504394531
 21
407.6311340332031
  0
LINE
  8
0
  6
CONTINUOUS
 62
     7
 10
50.66804122924805
 20
752.6311645507813
 11
50.66804122924805
 21
597.3495483398438
  0
LINE
  8
0
  6
CONTINUOUS
 62
     7
 10
22.66830825805664
 20
682.6312866210938
 11
36.97541046142578
 21
683.8829956054688
  0
LINE
  8
0
  6
CONTINUOUS
 62
     7
 10
22.66801834106445
 20
462.6311645507813
 11
36.97542572021484
 21
461.3794555664062
  0
LINE
  8
0
  6
CONTINUOUS
 62
     7
 10
-12.3319616317749
 20
752.6311645507813
 11
257.6680297851562
 21
752.6311645507813
  0
LINE
  8
0
  6
CONTINUOUS
 62
     7
 10
-12.33195304870605
 20
392.6311340332031
 11
257.6680603027344
 21
392.6311340332031
  0
LINE
  8
0
  6
CONTINUOUS
 62
     3
 10
-17.33195304870605
 20
422.6311340332031
 11
12.66804599761963
 21
422.6311340332031
  0
LINE
  8
0
  6
CONTINUOUS
 62
     3
 10
-17.33196067810059
 20
722.6311645507813
 11
12.6680383682251
 21
722.6311645507813
  0
LINE
  8
0
  6
CONTINUOUS
 62
     7
 10
-27.33195686340332
 20
737.6311645507813
 11
-27.33195686340332
 21
677.6311645507813
  0
LINE
  8
0
  6
CONTINUOUS
 62
     7
 10
272.6680297851562
 20
737.6311645507813
 11
272.6680297851562
 21
695.1898193359375
  0
LINE
  8
0
  6
CONTINUOUS
 62
     7
 10
193.6680450439453
 20
668.5242309570312
 11
260.3048706054688
 21
680.4236450195312
  0
LINE
  8
0
  6
CONTINUOUS
 62
     7
 10
193.6680603027344
 20
476.7384338378906
 11
260.3049011230469
 21
464.8390197753906
  0
LINE
  8
0
  6
CONTINUOUS
 62
     7
 10
-27.33195686340332
 20
467.6311340332031
 11
-27.33195686340332
 21
407.6311340332031
  0
LINE
  8
0
  6
CONTINUOUS
 62
     7
 10
272.6680297851562
 20
450.0724182128906
 11
272.6680297851562
 21
407.6311340332031
  0
LINE
  8
0
  6
CONTINUOUS
 62
     3
 10
-2.331957340240479
 20
737.6311645507813
 11
-2.331957340240479
 21
707.6311645507812
  0
LINE
  8
0
  6
CONTINUOUS
 62
     3
 10
247.6680450439453
 20
737.6311645507813
 11
247.6680450439453
 21
707.6311645507812
  0
LINE
  8
0
  6
CONTINUOUS
 62
     3
 10
-2.331957340240479
 20
437.6311340332031
 11
-2.331957340240479
 21
407.6311340332031
  0
LINE
  8
0
  6
CONTINUOUS
 62
     3
 10
247.6680450439453
 20
437.6311340332031
 11
247.6680450439453
 21
407.6311340332031
  0
LINE
  8
0
  6
CONTINUOUS
 62
     3
 10
232.6680450439453
 20
422.6311340332031
 11
262.6680603027344
 21
422.6311340332031
  0
LINE
  8
0
  6
CONTINUOUS
 62
     3
 10
232.6680450439453
 20
722.6311645507813
 11
262.6680297851563
 21
722.6311645507813
  0
LINE
  8
0
  6
CONTINUOUS
 62
     7
 10
50.66804122924805
 20
547.9127807617188
 11
50.66804122924805
 21
392.6311340332031
  0
LINE
  8
0
  6
CONTINUOUS
 62
     7
 10
-152.3319549560547
 20
610.1311645507813
 11
-152.3319549560547
 21
535.1311645507813
  0
LINE
  8
0
  6
CONTINUOUS
 62
     7
 10
-152.3319549560547
 20
610.1311645507813
 11
-42.33195877075195
 21
610.1311645507813
  0
LINE
  8
0
  6
CONTINUOUS
 62
     7
 10
-152.3319549560547
 20
535.1311645507813
 11
-42.33195495605469
 21
535.1311645507813
  0
LINE
  8
0
  6
CONTINUOUS
 62
     7
 10
-42.33195877075195
 20
615.1311645507813
 11
-42.33195877075195
 21
530.1311645507812
  0
LINE
  8
0
  6
CONTINUOUS
 62
     7
 10
-42.33195495605469
 20
530.1311645507812
 11
-35.33195495605469
 21
530.1311645507812
  0
LINE
  8
0
  6
CONTINUOUS
 62
     7
 10
-42.33195877075195
 20
615.1311645507813
 11
-35.33195877075195
 21
615.1311645507813
  0
LINE
  8
0
  6
CONTINUOUS
 62
     7
 10
-152.3319549560547
 20
582.6311645507812
 11
-57.33195877075195
 21
582.6311645507812
  0
LINE
  8
0
  6
CONTINUOUS
 62
     7
 10
-152.3319549560547
 20
562.6311645507813
 11
-57.33195877075195
 21
562.6311645507813
  0
LINE
  8
0
  6
CONTINUOUS
 62
     7
 10
72.66804504394531
 20
407.6311340332031
 11
192.6680450439453
 21
407.6311340332031
  0
LINE
  8
0
  6
CONTINUOUS
 62
     7
 10
72.66803741455078
 20
737.6311645507813
 11
192.6680450439453
 21
737.6311645507813
  0
LINE
  8
0
  6
CONTINUOUS
 62
     7
 10
24.59696960449219
 20
447.9811401367187
 11
40.73912048339844
 21
447.9811401367187
  0
LINE
  8
0
  6
CONTINUOUS
 62
     7
 10
24.16047668457031
 20
456.9811096191406
 11
41.17561340332031
 21
456.9811096191406
  0
LINE
  8
0
  6
CONTINUOUS
 62
     7
 10
24.1605110168457
 20
456.9811401367187
 11
24.3325252532959
 21
462.4855651855469
  0
LINE
  8
0
  6
CONTINUOUS
 62
     7
 10
41.17561721801758
 20
456.9811706542969
 11
41.06781768798828
 21
460.4308776855469
  0
LINE
  8
0
  6
CONTINUOUS
 62
     7
 10
24.59696769714355
 20
447.9811401367187
 11
24.59696769714355
 21
456.9811096191406
  0
LINE
  8
0
  6
CONTINUOUS
 62
     7
 10
40.73911666870117
 20
447.9811401367187
 11
40.73911666870117
 21
456.9811096191406
  0
LINE
  8
0
  6
CONTINUOUS
 62
     3
 10
32.66804122924805
 20
472.6693420410156
 11
32.66804122924805
 21
437.9811401367187
  0
LINE
  8
0
  6
CONTINUOUS
 62
     3
 10
32.6680793762207
 20
456.9810791015625
 11
40.73915481567383
 21
447.9810791015625
  0
LINE
  8
0
  6
CONTINUOUS
 62
     3
 10
40.7391242980957
 20
456.9811096191406
 11
32.66805267333984
 21
447.9811096191406
  0
LINE
  8
0
  6
CONTINUOUS
 62
     3
 10
24.59694862365723
 20
456.9811401367187
 11
32.66802215576172
 21
447.9811401367187
  0
LINE
  8
0
  6
CONTINUOUS
 62
     3
 10
32.66801071166992
 20
456.9811706542969
 11
24.59694290161133
 21
447.9811706542969
  0
LINE
  8
0
  6
CONTINUOUS
 62
     7
 10
32.66837692260742
 20
447.9811096191406
 11
32.66837692260742
 21
456.9811096191406
  0
LINE
  8
0
  6
CONTINUOUS
 62
     7
 10
-62.33195877075195
 20
582.6311645507812
 11
-62.33195877075195
 21
562.6311645507813
  0
LINE
  8
0
  6
CONTINUOUS
 62
     7
 10
268.6680297851563
 20
115.1311340332031
 11
271.775146484375
 21
115.1311340332031
  0
LINE
  8
0
  6
CONTINUOUS
 62
     7
 10
268.6680297851563
 20
-29.86886596679687
 11
268.6680297851563
 21
115.1311340332031
  0
LINE
  8
0
  6
CONTINUOUS
 62
     7
 10
283.6680297851563
 20
-29.86886596679687
 11
283.6680297851563
 21
115.1311340332031
  0
LINE
  8
0
  6
CONTINUOUS
 62
     7
 10
268.6680297851563
 20
-29.86886596679687
 11
283.6680297851563
 21
-29.86886596679687
  0
LINE
  8
0
  6
CONTINUOUS
 62
     7
 10
268.6680297851563
 20
115.1311340332031
 11
283.6680297851563
 21
115.1311340332031
  0
LINE
  8
0
  6
CONTINUOUS
 62
     7
 10
268.6680297851563
 20
500.1311645507813
 11
268.6680297851563
 21
583.6536254882813
  0
LINE
  8
0
  6
CONTINUOUS
 62
     7
 10
283.6680297851563
 20
500.1311645507813
 11
283.6680297851563
 21
581.8018188476562
  0
LINE
  8
0
  6
CONTINUOUS
 62
     7
 10
268.6680297851563
 20
500.1311645507813
 11
283.6680297851563
 21
500.1311645507813
  0
LINE
  8
0
  6
CONTINUOUS
 62
     7
 10
262.7772216796875
 20
572.6311645507813
 11
324.151611328125
 21
572.6311645507813
  0
LINE
  8
0
  6
CONTINUOUS
 62
     7
 10
268.6680297851563
 20
645.1311645507812
 11
283.6680297851563
 21
645.1311645507812
  0
LINE
  8
0
  6
CONTINUOUS
 62
     7
 10
283.6680297851563
 20
572.6311645507813
 11
283.6680297851563
 21
645.1311645507812
  0
LINE
  8
0
  6
CONTINUOUS
 62
     7
 10
268.6680297851563
 20
572.6311645507813
 11
268.6680297851563
 21
645.1311645507812
  0
LINE
  8
0
  6
CONTINUOUS
 62
     7
 10
318.6680297851563
 20
122.6311340332031
 11
318.6680297851563
 21
-37.36886596679687
  0
LINE
  8
0
  6
CONTINUOUS
 62
     7
 10
306.6680297851562
 20
122.6311340332031
 11
318.6680297851563
 21
122.6311340332031
  0
LINE
  8
0
  6
CONTINUOUS
 62
     7
 10
306.6680297851562
 20
122.6311340332031
 11
306.6680297851562
 21
-37.36886596679687
  0
LINE
  8
0
  6
CONTINUOUS
 62
     7
 10
288.6680297851563
 20
80.63113403320313
 11
301.6680297851562
 21
80.63113403320313
  0
LINE
  8
0
  6
CONTINUOUS
 62
     7
 10
306.6680297851562
 20
-37.36886596679687
 11
318.6680297851563
 21
-37.36886596679687
  0
LINE
  8
0
  6
CONTINUOUS
 62
     7
 10
288.6680297851563
 20
4.631134033203125
 11
301.6680297851562
 21
4.631134033203125
  0
LINE
  8
0
  6
CONTINUOUS
 62
     7
 10
283.6680297851563
 20
-13.36886596679688
 11
306.6680297851562
 21
-13.36886596679688
  0
LINE
  8
0
  6
CONTINUOUS
 62
     7
 10
283.6680297851563
 20
98.63113403320313
 11
306.6680297851562
 21
98.63113403320313
  0
LINE
  8
0
  6
CONTINUOUS
 62
     7
 10
283.6680297851563
 20
37.63113403320313
 11
306.6680297851562
 21
37.63113403320313
  0
LINE
  8
0
  6
CONTINUOUS
 62
     7
 10
283.6680297851563
 20
47.63113403320313
 11
306.6680297851562
 21
47.63113403320313
  0
LINE
  8
0
  6
CONTINUOUS
 62
     7
 10
256.0503234863281
 20
572.6311645507813
 11
330.375732421875
 21
572.6311645507813
  0
LINE
  8
0
  6
CONTINUOUS
 62
     7
 10
283.6680297851563
 20
577.6311645507812
 11
306.6680297851562
 21
577.6311645507812
  0
LINE
  8
0
  6
CONTINUOUS
 62
     7
 10
283.6680297851563
 20
567.6311645507812
 11
306.6680297851562
 21
567.6311645507812
  0
LINE
  8
0
  6
CONTINUOUS
 62
     7
 10
283.6680297851563
 20
628.6311645507813
 11
306.6680297851562
 21
628.6311645507813
  0
LINE
  8
0
  6
CONTINUOUS
 62
     7
 10
283.6680297851563
 20
516.6311645507813
 11
306.6680297851562
 21
516.6311645507813
  0
LINE
  8
0
  6
CONTINUOUS
 62
     7
 10
288.6680297851563
 20
534.6311645507812
 11
301.6680297851562
 21
534.6311645507812
  0
LINE
  8
0
  6
CONTINUOUS
 62
     7
 10
306.6680297851562
 20
492.6311645507812
 11
318.6680297851563
 21
492.6311645507812
  0
LINE
  8
0
  6
CONTINUOUS
 62
     7
 10
288.6680297851563
 20
610.6311645507813
 11
301.6680297851562
 21
610.6311645507813
  0
LINE
  8
0
  6
CONTINUOUS
 62
     7
 10
306.6680297851562
 20
652.6311645507812
 11
306.6680297851562
 21
492.6311645507812
  0
LINE
  8
0
  6
CONTINUOUS
 62
     7
 10
306.6680297851562
 20
652.6311645507812
 11
318.6680297851563
 21
652.6311645507812
  0
LINE
  8
0
  6
CONTINUOUS
 62
     7
 10
318.6680297851563
 20
652.6311645507812
 11
318.6680297851563
 21
492.6311645507812
  0
LINE
  8
0
  6
CONTINUOUS
 62
     7
 10
268.6680297851563
 20
583.6533813476562
 11
268.6680297851563
 21
501.7920227050781
  0
LINE
  8
0
  6
CONTINUOUS
 62
     7
 10
100.6680450439453
 20
266.4921569824219
 11
100.6680450439453
 21
184.3649291992188
  0
LINE
  8
0
  6
CONTINUOUS
 62
     7
 10
63.58135986328125
 20
231.631103515625
 11
133.9761352539063
 21
231.631103515625
  0
ARC
  8
0
  6
CONTINUOUS
 62
     7
 10
188.6680450439453
 20
-59.27496337890625
 40
5.000000000000004
 50
275.0001399302674
 51
0
  0
ARC
  8
0
  6
CONTINUOUS
 62
     7
 10
175.6680450439453
 20
-70.45050048828125
 40
5.000000000000007
 50
95.00015859960196
 51
179.9999640278213
  0
ARC
  8
0
  6
CONTINUOUS
 62
     7
 10
188.6680450439453
 20
144.5372619628906
 40
5
 50
359.9999453584866
 51
84.99980542821947
  0
ARC
  8
0
  6
CONTINUOUS
 62
     7
 10
190.6680450439453
 20
154.4004821777344
 40
5.00000000000001
 50
179.9999776881996
 51
264.999865078689
  0
ARC
  8
0
  6
CONTINUOUS
 62
     7
 10
175.6680450439453
 20
155.7127990722656
 40
5.00000000000001
 50
179.9999776881996
 51
264.9998377579323
  0
ARC
  8
0
  6
CONTINUOUS
 62
     7
 10
119.0744171142578
 20
206.6870422363281
 40
5.999999999999993
 50
126.423864555593
 51
189.9999620293668
  0
ARC
  8
0
  6
CONTINUOUS
 62
     7
 10
100.6680450439453
 20
231.631103515625
 40
25
 50
306.4238458862582
 51
233.5761318019414
  0
CIRCLE
  8
0
  6
CONTINUOUS
 62
     7
 10
100.6680450439453
 20
231.631103515625
 40
15
  0
ARC
  8
0
  6
CONTINUOUS
 62
     7
 10
91.43318176269531
 20
212.631103515625
 40
2.000000000000013
 50
89.99998201391055
 51
170.0000206677887
  0
ARC
  8
0
  6
CONTINUOUS
 62
     7
 10
109.9029083251953
 20
212.631103515625
 40
1.999999999999997
 50
9.999994586451287
 51
89.99998201391055
  0
ARC
  8
0
  6
CONTINUOUS
 62
     7
 10
82.26167297363281
 20
206.6870422363281
 40
5.999999999999996
 50
349.8636347103541
 51
53.57615411374177
  0
ARC
  8
0
  6
CONTINUOUS
 62
     7
 10
27.66804313659668
 20
163.1067810058594
 40
9.999999999999986
 50
274.999969175538
 51
0
  0
ARC
  8
0
  6
CONTINUOUS
 62
     7
 10
-72.95454406738281
 20
-59.27857971191406
 40
70
 50
310.6737705878532
 51
353.3631794618058
  0
ARC
  8
0
  6
CONTINUOUS
 62
     7
 10
35.66804122924805
 20
-97.36886596679688
 40
15
 50
270.0000179860893
 51
0
  0
ARC
  8
0
  6
CONTINUOUS
 62
     7
 10
-24.33195686340332
 20
-115.3688659667969
 40
3.000000000000006
 50
89.99998201391062
 51
179.9999640278214
  0
ARC
  8
0
  6
CONTINUOUS
 62
     7
 10
269.6680297851563
 20
-115.3688659667969
 40
3
 50
0
 51
89.99998201391097
  0
ARC
  8
0
  6
CONTINUOUS
 62
     7
 10
35.66804122924805
 20
168.8258666992187
 40
15.00000000000001
 50
275.0000238170513
 51
0
  0
ARC
  8
0
  6
CONTINUOUS
 62
     7
 10
216.3203277587891
 20
-72.36886596679687
 40
40
 50
219.9999869972262
 51
270.0000179860893
  0
ARC
  8
0
  6
CONTINUOUS
 62
     7
 10
172.6680450439453
 20
72.99734497070312
 40
99.99999999999999
 50
179.9999776881997
 51
219.9999833547605
  0
CIRCLE
  8
0
  6
CONTINUOUS
 62
     3
 10
32.66804122924805
 20
42.63113403320313
 40
8.507550239562988
  0
CIRCLE
  8
0
  6
CONTINUOUS
 62
     3
 10
30.66804313659668
 20
-42.36886596679687
 40
8.507550239562988
  0
ARC
  8
0
  6
CONTINUOUS
 62
     7
 10
-2.393511295318604
 20
-21.5010986328125
 40
3
 50
355.0001030251779
 51
89.99998201391064
  0
ARC
  8
0
  6
CONTINUOUS
 62
     7
 10
-552.3319702148438
 20
42.63113403320313
 40
150
 50
80.40595679625224
 51
99.59408919383908
  0
ARC
  8
0
  6
CONTINUOUS
 62
     7
 10
-552.3319702148438
 20
42.63111877441406
 40
150
 50
106.760829105015
 51
112.3943349814957
  0
ARC
  8
0
  6
CONTINUOUS
 62
     7
 10
-552.3319702148438
 20
42.63113403320313
 40
150
 50
67.60560855575808
 51
73.23914858318459
  0
ARC
  8
0
  6
CONTINUOUS
 62
     7
 10
-542.5936279296875
 20
213.2311096191406
 40
1.399999976158165
 50
9.999995440224083
 51
78.39428850076517
  0
ARC
  8
0
  6
CONTINUOUS
 62
     7
 10
-552.3319702148438
 20
251.631103515625
 40
5
 50
0
 51
179.9999640278213
  0
ARC
  8
0
  6
CONTINUOUS
 62
     7
 10
-545.9319458007813
 20
208.4310913085938
 40
1.399999976158135
 50
179.9999776881999
 51
270.0000280040029
  0
ARC
  8
0
  6
CONTINUOUS
 62
     7
 10
-558.7319946289062
 20
208.4310913085938
 40
1.399999976158144
 50
269.9999633445764
 51
0
  0
ARC
  8
0
  6
CONTINUOUS
 62
     7
 10
-562.0703125
 20
213.2311096191406
 40
1.399999976158153
 50
101.6056755270559
 51
169.9999660262756
  0
CIRCLE
  8
0
  6
CONTINUOUS
 62
     7
 10
-552.3319702148438
 20
42.63113403320313
 40
75
  0
CIRCLE
  8
0
  6
CONTINUOUS
 62
     7
 10
-552.3319702148438
 20
42.63113403320313
 40
110
  0
ARC
  8
0
  6
CONTINUOUS
 62
     3
 10
-552.3319702148438
 20
42.63113403320313
 40
95.00000000000001
 50
23.96605804278047
 51
36.03388215516911
  0
ARC
  8
0
  6
CONTINUOUS
 62
     3
 10
-552.3319702148438
 20
42.63113403320313
 40
94.99999999999999
 50
83.96605629733801
 51
96.03390773048329
  0
ARC
  8
0
  6
CONTINUOUS
 62
     3
 10
-552.3319702148438
 20
42.63113403320313
 40
94.99999999999996
 50
143.9660579669901
 51
156.0338957397571
  0
ARC
  8
0
  6
CONTINUOUS
 62
     3
 10
-552.3319702148438
 20
42.63113403320313
 40
95.00000000000004
 50
203.9660632791079
 51
216.0339010518749
  0
ARC
  8
0
  6
CONTINUOUS
 62
     3
 10
-552.3319702148438
 20
42.63113403320313
 40
95
 50
263.96606494876
 51
276.0338890611487
  0
ARC
  8
0
  6
CONTINUOUS
 62
     3
 10
-552.3319702148438
 20
42.63113403320313
 40
94.99999999999999
 50
323.9660632033175
 51
336.0338873157062
  0
ARC
  8
0
  6
CONTINUOUS
 62
     7
 10
-552.3319702148438
 20
10.63113498687744
 40
180
 50
0
 51
179.9999640278213
  0
ARC
  8
0
  6
CONTINUOUS
 62
     7
 10
-634.3319702148437
 20
-112.3688659667969
 40
8.000000000000039
 50
179.9999776881997
 51
270.0000280040021
  0
ARC
  8
0
  6
CONTINUOUS
 62
     7
 10
-470.3319702148437
 20
-112.3688659667969
 40
7.999999999999996
 50
270.0000179860895
 51
0
  0
ARC
  8
0
  6
CONTINUOUS
 62
     7
 10
-637.3319702148437
 20
-142.3688659667969
 40
4.99999999999999
 50
89.99998201391031
 51
179.9999640278213
  0
ARC
  8
0
  6
CONTINUOUS
 62
     7
 10
-467.3319702148438
 20
-142.3688659667969
 40
5
 50
0
 51
89.99998201391097
  0
ARC
  8
0
  6
CONTINUOUS
 62
     7
 10
-524.3319702148438
 20
-117.3688659667969
 40
3
 50
179.9999776881997
 51
270.0000280040019
  0
ARC
  8
0
  6
CONTINUOUS
 62
     7
 10
-580.3319702148437
 20
-117.3688659667969
 40
3.000000000000006
 50
270.0000179860901
 51
0
  0
ARC
  8
0
  6
CONTINUOUS
 62
     7
 10
-431.7454223632813
 20
-97.36886596679688
 40
14.99999999999999
 50
189.999979332211
 51
270.0000179860892
  0
ARC
  8
0
  6
CONTINUOUS
 62
     7
 10
-672.91845703125
 20
-97.36886596679688
 40
15
 50
270.0000179860892
 51
349.9999917531706
  0
ARC
  8
0
  6
CONTINUOUS
 62
     7
 10
-486.19140625
 20
-63.43688201904297
 40
14.99999999999999
 50
9.999968119468008
 51
121.946416007461
  0
ARC
  8
0
  6
CONTINUOUS
 62
     7
 10
-618.4725341796875
 20
-63.43686676025391
 40
15.00000000000002
 50
58.05376658641352
 51
170.000020667789
  0
ARC
  8
0
  6
CONTINUOUS
 62
     3
 10
-552.3319702148438
 20
42.63113403320313
 40
132.5
 50
331.0102046339863
 51
343.9897565477341
  0
ARC
  8
0
  6
CONTINUOUS
 62
     3
 10
-552.3319702148438
 20
42.63113403320313
 40
132.5
 50
106.010204975609
 51
118.9897773799243
  0
ARC
  8
0
  6
CONTINUOUS
 62
     3
 10
-552.3319702148438
 20
42.63113403320313
 40
132.5
 50
286.0101726458959
 51
298.9897450502113
  0
ARC
  8
0
  6
CONTINUOUS
 62
     3
 10
-552.3319702148438
 20
42.63113403320313
 40
132.5
 50
241.0101816389407
 51
253.9897472130668
  0
ARC
  8
0
  6
CONTINUOUS
 62
     3
 10
-552.3319702148438
 20
42.63113403320313
 40
132.5
 50
151.0101959825643
 51
163.9897547265013
  0
ARC
  8
0
  6
CONTINUOUS
 62
     3
 10
-552.3319702148438
 20
42.63113403320313
 40
132.5
 50
196.010217952742
 51
208.9897630363006
  0
ARC
  8
0
  6
CONTINUOUS
 62
     3
 10
-552.3319702148438
 20
42.63113403320313
 40
132.5
 50
331.0102046339863
 51
343.9897565477341
  0
ARC
  8
0
  6
CONTINUOUS
 62
     7
 10
-536.5969848632813
 20
186.9303283691406
 40
3
 50
0
 51
84.89928553420361
  0
ARC
  8
0
  6
CONTINUOUS
 62
     7
 10
-568.0669555664062
 20
186.9303283691406
 40
2.999999999999992
 50
95.10073313512979
 51
179.9999640278214
  0
ARC
  8
0
  6
CONTINUOUS
 62
     7
 10
-574.0669555664062
 20
153.5211181640625
 40
3
 50
281.0895541036565
 51
0
  0
ARC
  8
0
  6
CONTINUOUS
 62
     7
 10
-530.5969848632813
 20
153.5211181640625
 40
3
 50
179.9999776881997
 51
258.9104235845416
  0
ARC
  8
0
  6
CONTINUOUS
 62
     7
 10
-437.3319702148437
 20
-6.358656883239746
 40
15.00000000000001
 50
156.9261096906575
 51
179.9999640278213
  0
ARC
  8
0
  6
CONTINUOUS
 62
     7
 10
-667.3319702148438
 20
-6.358656883239746
 40
15
 50
0
 51
23.07391410131903
  0
ARC
  8
0
  6
CONTINUOUS
 62
     7
 10
-552.3319702148438
 20
42.63113403320313
 40
37.5
 50
105.4660233138666
 51
74.5339848828133
  0
ARC
  8
0
  6
CONTINUOUS
 62
     7
 10
-375.3319702148438
 20
-115.3688659667969
 40
3
 50
0
 51
89.99998201391097
  0
ARC
  8
0
  6
CONTINUOUS
 62
     7
 10
-459.3319702148438
 20
-115.3688659667969
 40
3.000000000000006
 50
89.99998201391097
 51
179.9999640278214
  0
ARC
  8
0
  6
CONTINUOUS
 62
     7
 10
-645.3319702148437
 20
-115.3688659667969
 40
3
 50
0
 51
89.99998201390989
  0
ARC
  8
0
  6
CONTINUOUS
 62
     7
 10
-729.3319702148438
 20
-115.3688659667969
 40
3.000000000000006
 50
89.99998201390989
 51
179.9999640278214
  0
ARC
  8
0
  6
CONTINUOUS
 62
     3
 10
-552.3319702148438
 20
42.63113403320313
 40
132.5
 50
16.01020588622542
 51
28.98977487544615
  0
ARC
  8
0
  6
CONTINUOUS
 62
     3
 10
-552.3319702148438
 20
42.63113403320313
 40
132.5
 50
61.01020713846451
 51
73.98977271259065
  0
CIRCLE
  8
0
  6
CONTINUOUS
 62
     3
 10
-552.3319702148438
 20
42.63113403320313
 40
8
  0
CIRCLE
  8
0
  6
CONTINUOUS
 62
     7
 10
-552.3319702148438
 20
42.63113403320313
 40
7.099999904632568
  0
ARC
  8
0
  6
CONTINUOUS
 62
     7
 10
188.6680450439453
 20
470.7250671386719
 40
5.000000000000004
 50
275.0001399302674
 51
0
  0
ARC
  8
0
  6
CONTINUOUS
 62
     7
 10
175.6680450439453
 20
459.5495300292969
 40
5.000000000000007
 50
95.00015859960196
 51
179.9999640278213
  0
ARC
  8
0
  6
CONTINUOUS
 62
     7
 10
188.6680450439453
 20
674.5372924804687
 40
5
 50
359.9999453584866
 51
84.99980542821945
  0
ARC
  8
0
  6
CONTINUOUS
 62
     7
 10
175.6680450439453
 20
685.7128295898438
 40
5.00000000000001
 50
179.9999776882003
 51
264.9998377579323
  0
ARC
  8
0
  6
CONTINUOUS
 62
     7
 10
155.6680450439453
 20
572.6311645507813
 40
29.99999999999996
 50
304.8499175844881
 51
55.15011656645781
  0
ARC
  8
0
  6
CONTINUOUS
 62
     7
 10
175.6680450439453
 20
543.9083251953125
 40
5.000000000000017
 50
124.8498884424983
 51
179.9999640278219
  0
ARC
  8
0
  6
CONTINUOUS
 62
     7
 10
175.6680450439453
 20
601.35400390625
 40
5.00000000000001
 50
179.9999776882003
 51
235.1501079150361
  0
CIRCLE
  8
0
  6
CONTINUOUS
 62
     3
 10
167.6680450439453
 20
572.6311645507813
 40
10.69374942779541
  0
ARC
  8
0
  6
CONTINUOUS
 62
     7
 10
100.6680450439453
 20
572.6311645507813
 40
20.13370323181153
 50
14.37929160866259
 51
165.6207082776519
  0
ARC
  8
0
  6
CONTINUOUS
 62
     7
 10
100.6680450439453
 20
572.6311645507813
 40
20.13370323181153
 50
194.3792917223481
 51
345.6207083913374
  0
ARC
  8
0
  6
CONTINUOUS
 62
     7
 10
100.6679840087891
 20
572.6311645507813
 40
12.50000000000002
 50
23.57817843000477
 51
156.4218368242355
  0
ARC
  8
0
  6
CONTINUOUS
 62
     7
 10
80.66798400878906
 20
572.6311645507813
 40
5.000000000000019
 50
89.99998201391064
 51
270.0000006832453
  0
ARC
  8
0
  6
CONTINUOUS
 62
     7
 10
120.6679840087891
 20
572.6311645507813
 40
5.000000000000019
 50
270.0000179860893
 51
89.99998201391064
  0
ARC
  8
0
  6
CONTINUOUS
 62
     7
 10
100.6679840087891
 20
572.6311645507813
 40
12.49999999999999
 50
203.5781631757645
 51
336.4218215699952
  0
ARC
  8
0
  6
CONTINUOUS
 62
     7
 10
-30.33195495605469
 20
488.9708557128906
 40
5
 50
0
 51
59.99998117908456
  0
ARC
  8
0
  6
CONTINUOUS
 62
     7
 10
-30.33195877075195
 20
656.2914428710938
 40
4.999999999999982
 50
299.9999300284563
 51
0
  0
ARC
  8
0
  6
CONTINUOUS
 62
     7
 10
35.66803741455078
 20
698.8258056640625
 40
15.00000000000004
 50
275.0000238170513
 51
0
  0
ARC
  8
0
  6
CONTINUOUS
 62
     7
 10
35.66804504394531
 20
446.4364929199219
 40
15
 50
0
 51
84.99997618294867
  0
ARC
  8
0
  6
CONTINUOUS
 62
     7
 10
-12.3319616317749
 20
737.6311645507813
 40
14.99999999999994
 50
89.99998201391065
 51
179.9999640278215
  0
ARC
  8
0
  6
CONTINUOUS
 62
     7
 10
-12.33195972442627
 20
677.6311645507813
 40
15
 50
179.9999776881998
 51
209.9264925177455
  0
ARC
  8
0
  6
CONTINUOUS
 62
     7
 10
257.6680297851562
 20
737.6311645507813
 40
15
 50
0
 51
89.99998201391075
  0
ARC
  8
0
  6
CONTINUOUS
 62
     7
 10
257.6680297851562
 20
695.1898193359375
 40
15.00000000000002
 50
280.1246942607443
 51
0
  0
ARC
  8
0
  6
CONTINUOUS
 62
     7
 10
257.6680603027344
 20
450.0724182128906
 40
15
 50
0
 51
79.87534672039074
  0
ARC
  8
0
  6
CONTINUOUS
 62
     7
 10
257.6680603027344
 20
407.6311340332031
 40
15
 50
270.0000179860892
 51
0
  0
ARC
  8
0
  6
CONTINUOUS
 62
     7
 10
-12.33195495605469
 20
467.6311340332031
 40
14.99999999999999
 50
150.0735038397888
 51
179.9999640278213
  0
ARC
  8
0
  6
CONTINUOUS
 62
     7
 10
-12.33195304870605
 20
407.6311340332031
 40
15
 50
179.9999776881996
 51
270.000028004002
  0
ARC
  8
0
  6
CONTINUOUS
 62
     7
 10
57.66804122924805
 20
572.6311645507813
 40
20.00000000000003
 50
124.5181461545109
 51
235.481836542645
  0
ARC
  8
0
  6
CONTINUOUS
 62
     7
 10
40.66804122924805
 20
597.3495483398438
 40
9.999999999999996
 50
304.5181582210276
 51
0
  0
ARC
  8
0
  6
CONTINUOUS
 62
     7
 10
-57.33195877075195
 20
572.6311645507813
 40
10.00000000000004
 50
270.0000179860893
 51
89.99998201391064
  0
ARC
  8
0
  6
CONTINUOUS
 62
     7
 10
40.66804504394531
 20
547.9127807617188
 40
10
 50
0
 51
55.48184177897242
  0
CIRCLE
  8
0
  6
CONTINUOUS
 62
     7
 10
-2.331953525543213
 20
422.6311340332031
 40
11
  0
CIRCLE
  8
0
  6
CONTINUOUS
 62
     7
 10
-2.331961393356323
 20
722.6311645507813
 40
11
  0
CIRCLE
  8
0
  6
CONTINUOUS
 62
     7
 10
247.6680450439453
 20
722.6311645507813
 40
11
  0
CIRCLE
  8
0
  6
CONTINUOUS
 62
     7
 10
247.6680450439453
 20
422.6311340332031
 40
11
  0
ARC
  8
0
  6
CONTINUOUS
 62
     7
 10
192.6680450439453
 20
732.6311645507813
 40
5.000000000000005
 50
6.865607969727647
 51
90.00000250447815
  0
ARC
  8
0
  6
CONTINUOUS
 62
     7
 10
192.6680450439453
 20
412.6311340332031
 40
5.000000000000004
 50
269.9999974955218
 51
355.039146947795
  0
ARC
  8
0
  6
CONTINUOUS
 62
     7
 10
301.6680297851562
 20
-0.368865966796875
 40
5
 50
0
 51
90.00000250447847
  0
ARC
  8
0
  6
CONTINUOUS
 62
     7
 10
301.6680297851562
 20
85.63113403320312
 40
5.000000000000004
 50
269.9999974955215
 51
0
  0
ARC
  8
0
  6
CONTINUOUS
 62
     7
 10
288.6680297851563
 20
85.63113403320312
 40
5
 50
179.999991348578
 51
270.0000006832456
  0
ARC
  8
0
  6
CONTINUOUS
 62
     7
 10
288.6680297851563
 20
-0.368865966796875
 40
5
 50
90.00000250447847
 51
180.0000050089563
  0
ARC
  8
0
  6
CONTINUOUS
 62
     7
 10
288.6680297851563
 20
529.6311645507813
 40
5.000000000000004
 50
90.00000250447847
 51
180.0000050089569
  0
ARC
  8
0
  6
CONTINUOUS
 62
     7
 10
288.6680297851563
 20
615.6311645507813
 40
5
 50
179.9999913485786
 51
270.0000006832456
  0
ARC
  8
0
  6
CONTINUOUS
 62
     7
 10
301.6680297851562
 20
615.6311645507813
 40
5.000000000000004
 50
269.9999974955215
 51
0
  0
ARC
  8
0
  6
CONTINUOUS
 62
     7
 10
301.6680297851562
 20
529.6311645507813
 40
5
 50
0
 51
90.00000250447847
  0
TEXT
  8
0
  6
CONTINUOUS
 62
     7
 10
-648.7605395317078
 20
563.6311645507813
 40
18
 41
1.031321647970434
  1
ERK-NBE-400
  0
ENDSEC
  0
EOF
