  0
SECTION
  2
HEADER
  0
ENDSEC
  0
SECTION
  2
TABLES
  0
TABLE
  2
LTYPE
 70
    22
  0
LTYPE
  2
CONTINUOUS
 70
    64
  3
Solid line
 72
    65
 73
     0
 40
0.000000
  0
LTYPE
  2
DASHED
 70
    64
  3
__ __ __ __ __ __ __ __ __ __ __ __ __ __ __
 72
    65
 73
     2
 40
3.500000
 49
2.000000
 49
-1.500000
  0
LTYPE
  2
CENTER
 70
    64
  3
____ _ ____ _ ____ _ ____ _ ____ _ ____ _ ____
 72
    65
 73
     4
 40
17.500000
 49
13.000000
 49
-1.500000
 49
1.500000
 49
-1.500000
  0
LTYPE
  2
PHANTOM
 70
    64
  3
_____ _ _ _____ _ _ _____ _ _ _____ _ _ ____  
 72
    65
 73
     6
 40
15.500000
 49
8.000000
 49
-1.500000
 49
1.500000
 49
-1.500000
 49
1.500000
 49
-1.500000
  0
LTYPE
  2
DOT
 70
    64
  3
. . . . . . . . . . . . . . . . . . . . . . . .
 72
    65
 73
     2
 40
0.25
 49
0.0
 49
-0.25
  0
ENDTAB
  0
TABLE
  2
LAYER
 70
     1
  0
LAYER
  2
0
 70
     0
 62
     7
  6
CONTINUOUS
  0
ENDTAB
  0
TABLE
  2
STYLE
 70
     1
  0
STYLE
  2
STANDARD
 70
     0
 40
0.000000
 41
1.000000
 50
0.000000
 71
     0
 42
0.200000
  3
txt
  0
ENDTAB
  0
TABLE
  2
VIEW
 70
     0
  0
ENDTAB
  0
ENDSEC
  0
SECTION
  2
BLOCKS
  0
ENDSEC
  0
SECTION
  2
ENTITIES
  0
LINE
  8
0
  6
CONTINUOUS
 62
     3
 10
171.4525146484375
 20
-9.481851577758789
 11
610.9148559570312
 21
-9.481851577758789
  0
LINE
  8
0
  6
CONTINUOUS
 62
     7
 10
427.9525146484375
 20
105.5181198120117
 11
427.9525146484375
 21
-5.481851100921631
  0
LINE
  8
0
  6
CONTINUOUS
 62
     7
 10
427.9525146484375
 20
105.5181198120117
 11
445.9525146484375
 21
105.5181198120117
  0
LINE
  8
0
  6
CONTINUOUS
 62
     7
 10
427.9525146484375
 20
-124.4818496704102
 11
445.9525146484375
 21
-124.4818496704102
  0
LINE
  8
0
  6
CONTINUOUS
 62
     7
 10
445.9525146484375
 20
105.5181198120117
 11
445.9525146484375
 21
2.952536106109619
  0
LINE
  8
0
  6
CONTINUOUS
 62
     7
 10
492.9525146484375
 20
63.01811981201172
 11
492.9525146484375
 21
-81.98184967041016
  0
LINE
  8
0
  6
CONTINUOUS
 62
     7
 10
492.9525146484375
 20
-81.98184967041016
 11
502.9525146484375
 21
-81.98184967041016
  0
LINE
  8
0
  6
CONTINUOUS
 62
     7
 10
492.9525146484375
 20
63.01811981201172
 11
502.9525146484375
 21
63.01811981201172
  0
LINE
  8
0
  6
CONTINUOUS
 62
     7
 10
460.9525146484375
 20
68.01811981201172
 11
460.9525146484375
 21
-5.773751735687256
  0
LINE
  8
0
  6
CONTINUOUS
 62
     7
 10
450.9525146484375
 20
-91.98184967041016
 11
455.9525146484375
 21
-91.98184967041016
  0
LINE
  8
0
  6
CONTINUOUS
 62
     7
 10
450.9525146484375
 20
73.01811981201172
 11
455.9525146484375
 21
73.01811981201172
  0
LINE
  8
0
  6
CONTINUOUS
 62
     7
 10
454.9525146484375
 20
-58.08298492431641
 11
454.9525146484375
 21
-13.48185157775879
  0
LINE
  8
0
  6
CONTINUOUS
 62
     7
 10
445.9525756835937
 20
2.952528715133667
 11
454.9525451660156
 21
0.5409971475601196
  0
LINE
  8
0
  6
CONTINUOUS
 62
     7
 10
445.9525146484375
 20
-60.49452209472656
 11
454.9525146484375
 21
-58.08297348022461
  0
LINE
  8
0
  6
CONTINUOUS
 62
     7
 10
445.9525146484375
 20
-60.49451446533203
 11
445.9525146484375
 21
-124.4818496704102
  0
LINE
  8
0
  6
CONTINUOUS
 62
     7
 10
460.9525146484375
 20
21.70033836364746
 11
492.9525146484375
 21
21.70033836364746
  0
LINE
  8
0
  6
CONTINUOUS
 62
     7
 10
460.9525451660156
 20
47.59379196166992
 11
492.9525756835938
 21
40.76390838623047
  0
LINE
  8
0
  6
CONTINUOUS
 62
     7
 10
460.9525146484375
 20
-40.66403961181641
 11
492.9525146484375
 21
-40.66403961181641
  0
LINE
  8
0
  6
CONTINUOUS
 62
     7
 10
460.9525451660156
 20
-66.55744934082031
 11
492.9525756835938
 21
-59.72756576538086
  0
LINE
  8
0
  6
CONTINUOUS
 62
     7
 10
426.4525146484375
 20
-5.481851100921631
 11
459.4525146484375
 21
-5.481851100921631
  0
LINE
  8
0
  6
CONTINUOUS
 62
     7
 10
426.4525146484375
 20
-13.48185157775879
 11
459.4525146484375
 21
-13.48185157775879
  0
LINE
  8
0
  6
CONTINUOUS
 62
     7
 10
454.9525146484375
 20
-5.481851100921631
 11
454.9525146484375
 21
0.5409759879112244
  0
LINE
  8
0
  6
CONTINUOUS
 62
     7
 10
460.9525146484375
 20
-13.18995094299316
 11
460.9525146484375
 21
-86.98184967041016
  0
LINE
  8
0
  6
CONTINUOUS
 62
     7
 10
427.9525146484375
 20
-13.48185157775879
 11
427.9525146484375
 21
-124.4818496704102
  0
LINE
  8
0
  6
CONTINUOUS
 62
     3
 10
442.9525146484375
 20
-49.17361068725586
 11
442.9525146484375
 21
-23.47573280334473
  0
LINE
  8
0
  6
CONTINUOUS
 62
     7
 10
379.9525146484375
 20
108.0181198120117
 11
423.9525146484375
 21
108.0181198120117
  0
LINE
  8
0
  6
CONTINUOUS
 62
     7
 10
379.9525146484375
 20
-126.9818496704102
 11
423.9525146484375
 21
-126.9818496704102
  0
LINE
  8
0
  6
CONTINUOUS
 62
     7
 10
379.9525146484375
 20
-120.949592590332
 11
423.9525146484375
 21
-120.949592590332
  0
LINE
  8
0
  6
CONTINUOUS
 62
     7
 10
375.9525451660156
 20
104.0180892944336
 11
379.9525756835937
 21
108.0180892944336
  0
LINE
  8
0
  6
CONTINUOUS
 62
     7
 10
423.9523010253906
 20
108.0180969238281
 11
427.9523010253906
 21
104.0180892944336
  0
LINE
  8
0
  6
CONTINUOUS
 62
     7
 10
427.9525451660156
 20
-122.9819183349609
 11
423.9525451660156
 21
-126.9819183349609
  0
LINE
  8
0
  6
CONTINUOUS
 62
     7
 10
379.95263671875
 20
-126.9817352294922
 11
375.95263671875
 21
-122.9816970825195
  0
LINE
  8
0
  6
CONTINUOUS
 62
     7
 10
379.9525146484375
 20
101.9857711791992
 11
423.9525146484375
 21
101.9857711791992
  0
LINE
  8
0
  6
CONTINUOUS
 62
     7
 10
379.9525146484375
 20
95.61638641357422
 11
423.9525146484375
 21
95.61638641357422
  0
LINE
  8
0
  6
CONTINUOUS
 62
     7
 10
379.9525146484375
 20
90.76836395263672
 11
423.9525146484375
 21
90.76836395263672
  0
LINE
  8
0
  6
CONTINUOUS
 62
     7
 10
379.9525146484375
 20
81.01396942138672
 11
423.9525146484375
 21
81.01396942138672
  0
LINE
  8
0
  6
CONTINUOUS
 62
     7
 10
379.9525146484375
 20
65.45928192138672
 11
423.9525146484375
 21
65.45928192138672
  0
LINE
  8
0
  6
CONTINUOUS
 62
     7
 10
379.9525146484375
 20
51.80284881591797
 11
423.9525146484375
 21
51.80284881591797
  0
LINE
  8
0
  6
CONTINUOUS
 62
     7
 10
379.9525146484375
 20
43.05764007568359
 11
423.9525146484375
 21
43.05764007568359
  0
LINE
  8
0
  6
CONTINUOUS
 62
     7
 10
379.9525146484375
 20
27.68214988708496
 11
423.9525146484375
 21
27.68214988708496
  0
LINE
  8
0
  6
CONTINUOUS
 62
     7
 10
379.9525146484375
 20
18.06856346130371
 11
423.9525146484375
 21
18.06856346130371
  0
LINE
  8
0
  6
CONTINUOUS
 62
     7
 10
379.9525146484375
 20
1.517630100250244
 11
423.9525146484375
 21
1.517630100250244
  0
LINE
  8
0
  6
CONTINUOUS
 62
     7
 10
379.9525146484375
 20
-99.97968292236328
 11
423.9525146484375
 21
-99.97968292236328
  0
LINE
  8
0
  6
CONTINUOUS
 62
     7
 10
379.9525146484375
 20
-109.732551574707
 11
423.9525146484375
 21
-109.732551574707
  0
LINE
  8
0
  6
CONTINUOUS
 62
     7
 10
379.9525146484375
 20
-114.580696105957
 11
423.9525146484375
 21
-114.580696105957
  0
LINE
  8
0
  6
CONTINUOUS
 62
     7
 10
313.9525146484375
 20
78.01815032958984
 11
313.9525146484375
 21
-96.98184967041016
  0
LINE
  8
0
  6
CONTINUOUS
 62
     7
 10
301.9525146484375
 20
78.01815032958984
 11
333.5158996582031
 21
78.01815032958984
  0
LINE
  8
0
  6
CONTINUOUS
 62
     7
 10
301.9525146484375
 20
78.01815032958984
 11
301.9525146484375
 21
-96.98184967041016
  0
LINE
  8
0
  6
CONTINUOUS
 62
     7
 10
289.9525146484375
 20
45.51815032958984
 11
289.9525146484375
 21
-64.48184967041016
  0
LINE
  8
0
  6
CONTINUOUS
 62
     7
 10
301.9525146484375
 20
-96.98184967041016
 11
333.5159912109375
 21
-96.98184967041016
  0
LINE
  8
0
  6
CONTINUOUS
 62
     7
 10
289.9525146484375
 20
45.51819229125977
 11
301.9525146484375
 21
78.01815795898438
  0
LINE
  8
0
  6
CONTINUOUS
 62
     7
 10
289.9524841308594
 20
-64.4818115234375
 11
301.9524841308594
 21
-96.98183441162109
  0
LINE
  8
0
  6
CONTINUOUS
 62
     7
 10
375.9525146484375
 20
116.0181503295898
 11
375.9525146484375
 21
-134.9818572998047
  0
LINE
  8
0
  6
CONTINUOUS
 62
     7
 10
355.9525146484375
 20
128.0181427001953
 11
355.9525146484375
 21
16.49892234802246
  0
LINE
  8
0
  6
CONTINUOUS
 62
     7
 10
308.9525146484375
 20
128.0181427001953
 11
518.9525146484375
 21
128.0181427001953
  0
LINE
  8
0
  6
CONTINUOUS
 62
     7
 10
308.9525146484375
 20
-146.9818572998047
 11
518.9525146484375
 21
-146.9818572998047
  0
LINE
  8
0
  6
CONTINUOUS
 62
     7
 10
355.9525146484375
 20
-35.46262359619141
 11
355.9525146484375
 21
-146.9818572998047
  0
LINE
  8
0
  6
CONTINUOUS
 62
     7
 10
298.9525146484375
 20
118.0181503295898
 11
298.9525146484375
 21
69.89308929443359
  0
LINE
  8
0
  6
CONTINUOUS
 62
     7
 10
298.9525146484375
 20
-88.85684967041016
 11
298.9525146484375
 21
-136.9818572998047
  0
LINE
  8
0
  6
CONTINUOUS
 62
     7
 10
528.9525146484375
 20
118.0181503295898
 11
528.9525146484375
 21
81.50478363037109
  0
LINE
  8
0
  6
CONTINUOUS
 62
     7
 10
528.9525146484375
 20
-100.4684219360352
 11
528.9525146484375
 21
-136.9818572998047
  0
LINE
  8
0
  6
CONTINUOUS
 62
     7
 10
460.9525146484375
 20
61.8093376159668
 11
520.5789184570312
 21
71.63786315917969
  0
LINE
  8
0
  6
CONTINUOUS
 62
     7
 10
460.9525146484375
 20
-80.77302551269531
 11
520.5789184570312
 21
-90.60155487060547
  0
LINE
  8
0
  6
CONTINUOUS
 62
     3
 10
308.9525146484375
 20
103.0180892944336
 11
338.9525146484375
 21
103.0180892944336
  0
LINE
  8
0
  6
CONTINUOUS
 62
     3
 10
323.9525146484375
 20
118.0180892944336
 11
323.9525146484375
 21
88.01808929443359
  0
LINE
  8
0
  6
CONTINUOUS
 62
     3
 10
323.9525146484375
 20
-106.9819107055664
 11
323.9525146484375
 21
-136.9819183349609
  0
LINE
  8
0
  6
CONTINUOUS
 62
     3
 10
308.9525146484375
 20
-121.9819107055664
 11
338.9525146484375
 21
-121.9819107055664
  0
LINE
  8
0
  6
CONTINUOUS
 62
     3
 10
503.9525146484375
 20
-106.9819107055664
 11
503.9525146484375
 21
-136.9819183349609
  0
LINE
  8
0
  6
CONTINUOUS
 62
     3
 10
488.9525146484375
 20
-121.9819107055664
 11
518.9525146484375
 21
-121.9819107055664
  0
LINE
  8
0
  6
CONTINUOUS
 62
     3
 10
503.9525146484375
 20
118.0180892944336
 11
503.9525146484375
 21
88.01808929443359
  0
LINE
  8
0
  6
CONTINUOUS
 62
     3
 10
488.9525146484375
 20
103.0180892944336
 11
518.9525146484375
 21
103.0180892944336
  0
LINE
  8
0
  6
CONTINUOUS
 62
     7
 10
188.9525146484375
 20
23.01814842224121
 11
188.9525146484375
 21
-41.98184967041016
  0
LINE
  8
0
  6
CONTINUOUS
 62
     7
 10
283.9525146484375
 20
28.01814842224121
 11
283.9525146484375
 21
-46.98184967041016
  0
LINE
  8
0
  6
CONTINUOUS
 62
     7
 10
188.9525146484375
 20
-41.98184967041016
 11
283.9525146484375
 21
-41.98184967041016
  0
LINE
  8
0
  6
CONTINUOUS
 62
     7
 10
188.9525146484375
 20
23.01814842224121
 11
283.9525146484375
 21
23.01814842224121
  0
LINE
  8
0
  6
CONTINUOUS
 62
     7
 10
283.9525146484375
 20
28.01814842224121
 11
289.9525146484375
 21
28.01814842224121
  0
LINE
  8
0
  6
CONTINUOUS
 62
     7
 10
283.9525146484375
 20
-46.98184967041016
 11
289.9525146484375
 21
-46.98184967041016
  0
LINE
  8
0
  6
CONTINUOUS
 62
     7
 10
188.9525146484375
 20
-18.48185157775879
 11
269.9525146484375
 21
-18.48185157775879
  0
LINE
  8
0
  6
CONTINUOUS
 62
     7
 10
188.9525146484375
 20
-0.4818511307239532
 11
269.9525146484375
 21
-0.4818511307239532
  0
LINE
  8
0
  6
CONTINUOUS
 62
     3
 10
343.9525146484375
 20
-90.05002593994141
 11
343.9525146484375
 21
-116.9818496704102
  0
LINE
  8
0
  6
CONTINUOUS
 62
     7
 10
334.3874816894531
 20
78.05622863769531
 11
346.8240966796875
 21
79.14429473876953
  0
LINE
  8
0
  6
CONTINUOUS
 62
     7
 10
334.3875427246094
 20
-97.01988983154297
 11
346.8240661621094
 21
-98.10794830322266
  0
LINE
  8
0
  6
CONTINUOUS
 62
     7
 10
268.9525146484375
 20
-0.4818511307239532
 11
268.9525146484375
 21
-18.48185157775879
  0
LINE
  8
0
  6
CONTINUOUS
 62
     7
 10
338.0027770996094
 20
-109.9718399047852
 11
349.9022521972656
 21
-109.9718399047852
  0
LINE
  8
0
  6
CONTINUOUS
 62
     7
 10
337.2165832519531
 20
-101.9718399047852
 11
350.6884460449219
 21
-101.9718399047852
  0
LINE
  8
0
  6
CONTINUOUS
 62
     7
 10
337.2165832519531
 20
-101.9718170166016
 11
337.3631896972656
 21
-97.28019714355469
  0
LINE
  8
0
  6
CONTINUOUS
 62
     7
 10
350.6884765625
 20
-101.9718399047852
 11
350.6023864746094
 21
-99.21673583984375
  0
LINE
  8
0
  6
CONTINUOUS
 62
     7
 10
338.0027770996094
 20
-109.9718399047852
 11
338.0027770996094
 21
-101.9718399047852
  0
LINE
  8
0
  6
CONTINUOUS
 62
     7
 10
349.9022521972656
 20
-109.9718399047852
 11
349.9022521972656
 21
-101.9718399047852
  0
LINE
  8
0
  6
CONTINUOUS
 62
     7
 10
375.9525146484375
 20
-134.9818572998047
 11
467.9525146484375
 21
-134.9818572998047
  0
LINE
  8
0
  6
CONTINUOUS
 62
     7
 10
375.9525146484375
 20
116.0181503295898
 11
467.9525146484375
 21
116.0181503295898
  0
LINE
  8
0
  6
CONTINUOUS
 62
     3
 10
338.0027770996094
 20
-101.9718017578125
 11
343.9524841308594
 21
-109.971794128418
  0
LINE
  8
0
  6
CONTINUOUS
 62
     7
 10
343.9525146484375
 20
-109.9718399047852
 11
343.9525146484375
 21
-101.9718399047852
  0
LINE
  8
0
  6
CONTINUOUS
 62
     3
 10
343.9525146484375
 20
-101.9718475341797
 11
349.9022521972656
 21
-109.9718322753906
  0
LINE
  8
0
  6
CONTINUOUS
 62
     3
 10
349.9022521972656
 20
-101.9718246459961
 11
343.9525451660156
 21
-109.9718170166016
  0
LINE
  8
0
  6
CONTINUOUS
 62
     3
 10
343.9525146484375
 20
-101.971809387207
 11
338.0027770996094
 21
-109.9718246459961
  0
LINE
  8
0
  6
CONTINUOUS
 62
     7
 10
502.9525146484375
 20
63.01811981201172
 11
502.9525146484375
 21
-81.98184967041016
  0
LINE
  8
0
  6
CONTINUOUS
 62
     7
 10
542.9525146484375
 20
61.35725402832031
 11
542.9525146484375
 21
11.36924171447754
  0
LINE
  8
0
  6
CONTINUOUS
 62
     7
 10
506.4525146484375
 20
65.51815032958984
 11
539.4525146484375
 21
65.51815032958984
  0
LINE
  8
0
  6
CONTINUOUS
 62
     7
 10
506.4524841308594
 20
65.51815032958984
 11
502.9524841308594
 21
61.35725402832031
  0
LINE
  8
0
  6
CONTINUOUS
 62
     7
 10
539.4525146484375
 20
65.51811218261719
 11
542.9525756835938
 21
61.35721969604492
  0
LINE
  8
0
  6
CONTINUOUS
 62
     7
 10
539.4525146484375
 20
-84.48186492919922
 11
542.9525146484375
 21
-80.32096862792969
  0
LINE
  8
0
  6
CONTINUOUS
 62
     7
 10
506.4525146484375
 20
-84.48184967041016
 11
539.4525146484375
 21
-84.48184967041016
  0
LINE
  8
0
  6
CONTINUOUS
 62
     7
 10
506.4525146484375
 20
-84.48183441162109
 11
502.9525146484375
 21
-80.32096099853516
  0
LINE
  8
0
  6
CONTINUOUS
 62
     7
 10
506.4525146484375
 20
62.59206390380859
 11
539.4525146484375
 21
62.59206390380859
  0
LINE
  8
0
  6
CONTINUOUS
 62
     7
 10
506.4525146484375
 20
59.50066375732422
 11
539.4525146484375
 21
59.50066375732422
  0
LINE
  8
0
  6
CONTINUOUS
 62
     7
 10
506.4525146484375
 20
50.50063323974609
 11
539.4525146484375
 21
50.50063323974609
  0
LINE
  8
0
  6
CONTINUOUS
 62
     7
 10
506.4525146484375
 20
44.52071380615234
 11
539.4525146484375
 21
44.52071380615234
  0
LINE
  8
0
  6
CONTINUOUS
 62
     7
 10
506.4525146484375
 20
31.42894554138184
 11
539.4525146484375
 21
31.42894554138184
  0
LINE
  8
0
  6
CONTINUOUS
 62
     7
 10
506.4525146484375
 20
38.66985321044922
 11
539.4525146484375
 21
38.66985321044922
  0
LINE
  8
0
  6
CONTINUOUS
 62
     7
 10
506.4525146484375
 20
24.50072288513184
 11
539.4525146484375
 21
24.50072288513184
  0
LINE
  8
0
  6
CONTINUOUS
 62
     7
 10
506.4525146484375
 20
16.24010276794434
 11
539.4525146484375
 21
16.24010276794434
  0
LINE
  8
0
  6
CONTINUOUS
 62
     7
 10
506.4525146484375
 20
8.589651107788086
 11
539.4525146484375
 21
8.589651107788086
  0
LINE
  8
0
  6
CONTINUOUS
 62
     7
 10
506.4525146484375
 20
-0.4817900955677032
 11
539.4525146484375
 21
-0.4817900955677032
  0
LINE
  8
0
  6
CONTINUOUS
 62
     7
 10
506.4525146484375
 20
-78.46445465087891
 11
539.4525146484375
 21
-78.46445465087891
  0
LINE
  8
0
  6
CONTINUOUS
 62
     7
 10
506.4525146484375
 20
-81.55580902099609
 11
539.4525146484375
 21
-81.55580902099609
  0
LINE
  8
0
  6
CONTINUOUS
 62
     3
 10
431.74365234375
 20
-35.35120391845703
 11
453.7686157226563
 21
-35.35120391845703
  0
LINE
  8
0
  6
CONTINUOUS
 62
     7
 10
427.9525146484375
 20
-319.4818420410156
 11
427.9525146484375
 21
-509.2152099609375
  0
LINE
  8
0
  6
CONTINUOUS
 62
     7
 10
427.9525146484375
 20
-319.4818420410156
 11
434.5267944335937
 21
-319.4818420410156
  0
LINE
  8
0
  6
CONTINUOUS
 62
     7
 10
445.9525146484375
 20
-331.2984924316406
 11
445.9525146484375
 21
-534.921875
  0
LINE
  8
0
  6
CONTINUOUS
 62
     7
 10
492.9525146484375
 20
-361.9818420410156
 11
492.9525146484375
 21
-506.9818420410156
  0
LINE
  8
0
  6
CONTINUOUS
 62
     7
 10
492.9525146484375
 20
-506.9818420410156
 11
502.9525146484375
 21
-506.9818420410156
  0
LINE
  8
0
  6
CONTINUOUS
 62
     7
 10
492.9525146484375
 20
-361.9818420410156
 11
502.9525146484375
 21
-361.9818420410156
  0
LINE
  8
0
  6
CONTINUOUS
 62
     7
 10
460.9525146484375
 20
-356.9818420410156
 11
460.9525146484375
 21
-511.9818420410156
  0
LINE
  8
0
  6
CONTINUOUS
 62
     7
 10
450.9525146484375
 20
-516.9818725585938
 11
455.9525146484375
 21
-516.9818725585938
  0
LINE
  8
0
  6
CONTINUOUS
 62
     7
 10
454.9525146484375
 20
-319.4818420410156
 11
454.9525146484375
 21
-349.9818420410156
  0
LINE
  8
0
  6
CONTINUOUS
 62
     7
 10
450.9525146484375
 20
-351.9818420410156
 11
455.9525146484375
 21
-351.9818420410156
  0
LINE
  8
0
  6
CONTINUOUS
 62
     7
 10
454.9525146484375
 20
-547.7752075195312
 11
454.9525146484375
 21
-518.9818725585937
  0
LINE
  8
0
  6
CONTINUOUS
 62
     7
 10
460.9524536132813
 20
-373.6848754882813
 11
492.9524230957031
 21
-381.0090026855469
  0
LINE
  8
0
  6
CONTINUOUS
 62
     7
 10
460.9525146484375
 20
-400.4293518066406
 11
492.9525146484375
 21
-400.4293518066406
  0
LINE
  8
0
  6
CONTINUOUS
 62
     7
 10
460.9525146484375
 20
-495.2788391113281
 11
492.9524841308594
 21
-487.9546813964844
  0
LINE
  8
0
  6
CONTINUOUS
 62
     7
 10
460.9525146484375
 20
-468.5343322753906
 11
492.9525146484375
 21
-468.5343322753906
  0
LINE
  8
0
  6
CONTINUOUS
 62
     7
 10
434.8814697265625
 20
-308.1547546386719
 11
434.8814697265625
 21
-316.9241027832031
  0
LINE
  8
0
  6
CONTINUOUS
 62
     7
 10
451.0235595703125
 20
-308.1547546386719
 11
451.0235595703125
 21
-316.9241027832031
  0
LINE
  8
0
  6
CONTINUOUS
 62
     3
 10
434.8814697265625
 20
-308.15478515625
 11
442.9525146484375
 21
-318.7396850585937
  0
LINE
  8
0
  6
CONTINUOUS
 62
     3
 10
442.9525146484375
 20
-318.7396850585937
 11
451.0235900878906
 21
-308.1547546386719
  0
LINE
  8
0
  6
CONTINUOUS
 62
     7
 10
434.4451599121094
 20
-316.9378967285156
 11
434.6311950683594
 21
-322.7365417480469
  0
LINE
  8
0
  6
CONTINUOUS
 62
     7
 10
451.4598388671875
 20
-316.9379272460937
 11
451.2738037109375
 21
-322.736572265625
  0
LINE
  8
0
  6
CONTINUOUS
 62
     7
 10
451.3782348632813
 20
-319.4818420410156
 11
454.9525146484375
 21
-319.4818420410156
  0
LINE
  8
0
  6
CONTINUOUS
 62
     7
 10
442.9525146484375
 20
-308.1547546386719
 11
442.9525146484375
 21
-318.7396850585937
  0
LINE
  8
0
  6
CONTINUOUS
 62
     7
 10
445.9524841308594
 20
-331.2985229492187
 11
454.9524841308594
 21
-330.2564392089844
  0
LINE
  8
0
  6
CONTINUOUS
 62
     7
 10
434.8814697265625
 20
-308.1547546386719
 11
451.0235595703125
 21
-308.1547546386719
  0
LINE
  8
0
  6
CONTINUOUS
 62
     3
 10
442.9525451660156
 20
-308.15478515625
 11
434.8815002441406
 21
-316.9241333007813
  0
LINE
  8
0
  6
CONTINUOUS
 62
     3
 10
451.0235595703125
 20
-316.9241027832031
 11
442.9524841308594
 21
-308.1547546386719
  0
LINE
  8
0
  6
CONTINUOUS
 62
     7
 10
379.9525146484375
 20
-316.9818420410156
 11
423.9525146484375
 21
-316.9818420410156
  0
LINE
  8
0
  6
CONTINUOUS
 62
     7
 10
375.9525451660156
 20
-320.9818725585938
 11
379.9525756835937
 21
-316.9818725585937
  0
LINE
  8
0
  6
CONTINUOUS
 62
     7
 10
423.9525451660156
 20
-316.9818725585937
 11
427.9525451660156
 21
-320.9818725585938
  0
LINE
  8
0
  6
CONTINUOUS
 62
     7
 10
379.9525146484375
 20
-359.5396423339844
 11
423.9525146484375
 21
-359.5396423339844
  0
LINE
  8
0
  6
CONTINUOUS
 62
     7
 10
379.9525146484375
 20
-373.1950988769531
 11
423.9525146484375
 21
-373.1950988769531
  0
LINE
  8
0
  6
CONTINUOUS
 62
     7
 10
379.9525146484375
 20
-381.9414978027344
 11
423.9525146484375
 21
-381.9414978027344
  0
LINE
  8
0
  6
CONTINUOUS
 62
     7
 10
379.9525146484375
 20
-397.317138671875
 11
423.9525146484375
 21
-397.317138671875
  0
LINE
  8
0
  6
CONTINUOUS
 62
     7
 10
379.9525146484375
 20
-406.9298400878906
 11
423.9525146484375
 21
-406.9298400878906
  0
LINE
  8
0
  6
CONTINUOUS
 62
     7
 10
379.9525146484375
 20
-423.4823303222656
 11
423.9525146484375
 21
-423.4823303222656
  0
LINE
  8
0
  6
CONTINUOUS
 62
     7
 10
383.6764526367188
 20
-445.4821472167969
 11
423.9525146484375
 21
-445.4821472167969
  0
LINE
  8
0
  6
CONTINUOUS
 62
     7
 10
394.91552734375
 20
-462.0335083007813
 11
423.9525146484375
 21
-462.0335083007813
  0
LINE
  8
0
  6
CONTINUOUS
 62
     7
 10
401.6461181640625
 20
-471.6457824707031
 11
423.9525146484375
 21
-471.6457824707031
  0
LINE
  8
0
  6
CONTINUOUS
 62
     7
 10
412.412841796875
 20
-487.0222778320312
 11
423.9525146484375
 21
-487.0222778320312
  0
LINE
  8
0
  6
CONTINUOUS
 62
     7
 10
418.536865234375
 20
-495.7682800292969
 11
423.9525146484375
 21
-495.7682800292969
  0
LINE
  8
0
  6
CONTINUOUS
 62
     3
 10
343.9525146484375
 20
-424.4818420410156
 11
343.9525146484375
 21
-444.4818420410156
  0
LINE
  8
0
  6
CONTINUOUS
 62
     3
 10
333.9525146484375
 20
-499.4818420410156
 11
353.9525146484375
 21
-499.4818420410156
  0
LINE
  8
0
  6
CONTINUOUS
 62
     3
 10
343.9525146484375
 20
-489.4818420410156
 11
343.9525146484375
 21
-509.4818420410156
  0
LINE
  8
0
  6
CONTINUOUS
 62
     7
 10
289.9525146484375
 20
-379.4818725585937
 11
289.9525146484375
 21
-489.4818420410156
  0
LINE
  8
0
  6
CONTINUOUS
 62
     7
 10
301.9525146484375
 20
-346.9818420410156
 11
301.9525146484375
 21
-521.9818725585937
  0
LINE
  8
0
  6
CONTINUOUS
 62
     7
 10
301.9525146484375
 20
-521.9818725585937
 11
318.4581909179688
 21
-521.9818725585937
  0
LINE
  8
0
  6
CONTINUOUS
 62
     7
 10
313.9525146484375
 20
-346.9818420410156
 11
313.9525146484375
 21
-521.9818725585937
  0
LINE
  8
0
  6
CONTINUOUS
 62
     7
 10
301.9525146484375
 20
-346.9818420410156
 11
345.9525146484375
 21
-346.9818420410156
  0
LINE
  8
0
  6
CONTINUOUS
 62
     7
 10
298.9525146484375
 20
-599.4818725585937
 11
528.9525146484375
 21
-599.4818725585937
  0
LINE
  8
0
  6
CONTINUOUS
 62
     7
 10
298.9525146484375
 20
-573.4818725585937
 11
345.9525146484375
 21
-573.4818725585937
  0
LINE
  8
0
  6
CONTINUOUS
 62
     7
 10
298.9525146484375
 20
-573.4818725585937
 11
298.9525146484375
 21
-599.4818725585937
  0
LINE
  8
0
  6
CONTINUOUS
 62
     7
 10
528.9525146484375
 20
-573.4818725585937
 11
528.9525146484375
 21
-599.4818725585937
  0
LINE
  8
0
  6
CONTINUOUS
 62
     3
 10
503.9525146484375
 20
-558.4818725585938
 11
503.9525146484375
 21
-614.4818725585938
  0
LINE
  8
0
  6
CONTINUOUS
 62
     7
 10
386.8034057617188
 20
-450.4482421875
 11
466.9808349609375
 21
-564.9534301757812
  0
LINE
  8
0
  6
CONTINUOUS
 62
     7
 10
317.0378112792969
 20
-538.2166137695312
 11
323.0125122070313
 21
-469.9254760742188
  0
LINE
  8
0
  6
CONTINUOUS
 62
     7
 10
340.9525146484375
 20
-319.4818420410156
 11
375.9525146484375
 21
-319.4818420410156
  0
LINE
  8
0
  6
CONTINUOUS
 62
     7
 10
355.9525146484375
 20
-319.4818420410156
 11
355.9525146484375
 21
-563.4818725585937
  0
LINE
  8
0
  6
CONTINUOUS
 62
     7
 10
375.9525146484375
 20
-319.4818420410156
 11
375.9525146484375
 21
-416.0336608886719
  0
LINE
  8
0
  6
CONTINUOUS
 62
     7
 10
340.9525146484375
 20
-319.4818420410156
 11
340.9525146484375
 21
-336.9818420410156
  0
LINE
  8
0
  6
CONTINUOUS
 62
     3
 10
323.9525146484375
 20
-558.4818725585938
 11
323.9525146484375
 21
-614.4818725585938
  0
LINE
  8
0
  6
CONTINUOUS
 62
     7
 10
188.9525146484375
 20
-397.9818420410156
 11
188.9525146484375
 21
-466.9818420410156
  0
LINE
  8
0
  6
CONTINUOUS
 62
     7
 10
188.9525146484375
 20
-401.9818420410156
 11
283.9525146484375
 21
-401.9818420410156
  0
LINE
  8
0
  6
CONTINUOUS
 62
     7
 10
188.9525146484375
 20
-466.9818420410156
 11
283.9525146484375
 21
-466.9818420410156
  0
LINE
  8
0
  6
CONTINUOUS
 62
     7
 10
283.9525146484375
 20
-396.9818420410156
 11
283.9525146484375
 21
-471.9818420410156
  0
LINE
  8
0
  6
CONTINUOUS
 62
     7
 10
283.9525146484375
 20
-396.9818420410156
 11
289.9525146484375
 21
-396.9818420410156
  0
LINE
  8
0
  6
CONTINUOUS
 62
     7
 10
283.9525146484375
 20
-471.9818420410156
 11
289.9525146484375
 21
-471.9818420410156
  0
LINE
  8
0
  6
DASHED
 62
     7
 10
314.4525146484375
 20
-573.4818725585937
 11
314.4525146484375
 21
-599.4818725585937
  0
LINE
  8
0
  6
DASHED
 62
     7
 10
333.4525146484375
 20
-573.4818725585937
 11
333.4525146484375
 21
-599.4818725585937
  0
LINE
  8
0
  6
DASHED
 62
     7
 10
513.4525146484375
 20
-573.4818725585937
 11
513.4525146484375
 21
-599.4818725585937
  0
LINE
  8
0
  6
DASHED
 62
     7
 10
494.4525146484375
 20
-573.4818725585937
 11
494.4525146484375
 21
-599.4818725585937
  0
LINE
  8
0
  6
CONTINUOUS
 62
     7
 10
188.9525146484375
 20
-397.9818420410156
 11
268.9525146484375
 21
-397.9818420410156
  0
LINE
  8
0
  6
CONTINUOUS
 62
     7
 10
268.9525146484375
 20
-397.9818420410156
 11
268.9525146484375
 21
-401.9818420410156
  0
LINE
  8
0
  6
CONTINUOUS
 62
     7
 10
483.3638916015625
 20
-573.4818725585937
 11
528.9525146484375
 21
-573.4818725585937
  0
LINE
  8
0
  6
CONTINUOUS
 62
     7
 10
343.9525146484375
 20
-428.1178894042969
 11
337.5885620117188
 21
-434.4818420410156
  0
LINE
  8
0
  6
CONTINUOUS
 62
     7
 10
337.5885620117188
 20
-434.4818420410156
 11
343.9525146484375
 21
-440.8457946777344
  0
LINE
  8
0
  6
CONTINUOUS
 62
     7
 10
343.9525146484375
 20
-440.8458251953125
 11
350.3164672851563
 21
-434.4818420410156
  0
LINE
  8
0
  6
CONTINUOUS
 62
     7
 10
350.3164672851563
 20
-434.4818725585937
 11
343.9525146484375
 21
-428.1178894042969
  0
LINE
  8
0
  6
CONTINUOUS
 62
     7
 10
289.9524841308594
 20
-379.4818725585937
 11
301.9524841308594
 21
-346.9818420410156
  0
LINE
  8
0
  6
CONTINUOUS
 62
     7
 10
289.9525146484375
 20
-489.4818420410156
 11
301.9525146484375
 21
-521.9818725585937
  0
LINE
  8
0
  6
CONTINUOUS
 62
     7
 10
506.4525146484375
 20
-509.4818420410156
 11
539.4525146484375
 21
-509.4818420410156
  0
LINE
  8
0
  6
CONTINUOUS
 62
     7
 10
502.9525146484375
 20
-361.9818420410156
 11
502.9525146484375
 21
-506.9818420410156
  0
LINE
  8
0
  6
CONTINUOUS
 62
     7
 10
506.4525146484375
 20
-504.9331359863281
 11
539.4525146484375
 21
-504.9331359863281
  0
LINE
  8
0
  6
CONTINUOUS
 62
     7
 10
506.4525146484375
 20
-359.4818420410156
 11
539.4525146484375
 21
-359.4818420410156
  0
LINE
  8
0
  6
CONTINUOUS
 62
     7
 10
506.4525451660156
 20
-359.4818725585938
 11
502.9525451660156
 21
-363.6427612304688
  0
LINE
  8
0
  6
CONTINUOUS
 62
     7
 10
539.4525146484375
 20
-359.4818725585938
 11
542.9525146484375
 21
-363.6427612304688
  0
LINE
  8
0
  6
CONTINUOUS
 62
     7
 10
542.9525146484375
 20
-363.6427307128906
 11
542.9525146484375
 21
-505.3210144042969
  0
LINE
  8
0
  6
CONTINUOUS
 62
     7
 10
506.4525146484375
 20
-509.4818115234375
 11
502.9525451660156
 21
-505.3209838867187
  0
LINE
  8
0
  6
CONTINUOUS
 62
     7
 10
539.4525756835937
 20
-509.4818420410156
 11
542.9525146484375
 21
-505.3209838867187
  0
LINE
  8
0
  6
CONTINUOUS
 62
     7
 10
506.4525146484375
 20
-405.0471496582031
 11
539.4525146484375
 21
-405.0471496582031
  0
LINE
  8
0
  6
CONTINUOUS
 62
     7
 10
506.4525146484375
 20
-413.7371215820312
 11
539.4525146484375
 21
-413.7371215820312
  0
LINE
  8
0
  6
CONTINUOUS
 62
     7
 10
506.4525146484375
 20
-421.5320739746094
 11
539.4525146484375
 21
-421.5320739746094
  0
LINE
  8
0
  6
CONTINUOUS
 62
     7
 10
506.4525146484375
 20
-430.4819030761719
 11
539.4525146484375
 21
-430.4819030761719
  0
LINE
  8
0
  6
CONTINUOUS
 62
     7
 10
506.4525146484375
 20
-438.48193359375
 11
539.4525146484375
 21
-438.48193359375
  0
LINE
  8
0
  6
CONTINUOUS
 62
     7
 10
506.4525146484375
 20
-447.4317626953125
 11
539.4525146484375
 21
-447.4317626953125
  0
LINE
  8
0
  6
CONTINUOUS
 62
     7
 10
506.4525146484375
 20
-455.2267150878906
 11
539.4525146484375
 21
-455.2267150878906
  0
LINE
  8
0
  6
CONTINUOUS
 62
     7
 10
506.4525146484375
 20
-463.9166259765625
 11
539.4525146484375
 21
-463.9166259765625
  0
LINE
  8
0
  6
CONTINUOUS
 62
     7
 10
506.4525146484375
 20
-479.5050964355469
 11
539.4525146484375
 21
-479.5050964355469
  0
LINE
  8
0
  6
CONTINUOUS
 62
     7
 10
506.4525146484375
 20
-486.5272827148438
 11
539.4525146484375
 21
-486.5272827148438
  0
LINE
  8
0
  6
CONTINUOUS
 62
     7
 10
506.4525146484375
 20
-491.9832763671875
 11
539.4525146484375
 21
-491.9832763671875
  0
LINE
  8
0
  6
CONTINUOUS
 62
     7
 10
506.4525146484375
 20
-497.3412780761719
 11
539.4525146484375
 21
-497.3412780761719
  0
LINE
  8
0
  6
CONTINUOUS
 62
     7
 10
506.4525146484375
 20
-501.3412780761719
 11
539.4525146484375
 21
-501.3412780761719
  0
LINE
  8
0
  6
CONTINUOUS
 62
     3
 10
442.9525146484375
 20
-269.2374877929688
 11
442.9525146484375
 21
-330.0569152832031
  0
LINE
  8
0
  6
CONTINUOUS
 62
     3
 10
-261.8785095214844
 20
-434.4818420410156
 11
41.42267227172852
 21
-434.4818420410156
  0
LINE
  8
0
  6
CONTINUOUS
 62
     3
 10
-111.0474853515625
 20
-260.4818420410156
 11
-111.0474853515625
 21
-610.9984741210938
  0
LINE
  8
0
  6
CONTINUOUS
 62
     3
 10
-54.75592803955078
 20
-401.9818115234375
 11
-37.43541717529297
 21
-391.9818115234375
  0
LINE
  8
0
  6
CONTINUOUS
 62
     3
 10
-167.339111328125
 20
-401.9818115234375
 11
-184.6596069335938
 21
-391.9818115234375
  0
LINE
  8
0
  6
CONTINUOUS
 62
     3
 10
-167.3391723632813
 20
-466.9817504882812
 11
-184.6596832275391
 21
-476.9817504882812
  0
LINE
  8
0
  6
CONTINUOUS
 62
     3
 10
-54.75586700439453
 20
-466.9818115234375
 11
-37.43535995483398
 21
-476.9818115234375
  0
LINE
  8
0
  6
CONTINUOUS
 62
     3
 10
-223.5474853515625
 20
-558.4818725585938
 11
-223.5474853515625
 21
-614.4818725585938
  0
LINE
  8
0
  6
CONTINUOUS
 62
     3
 10
1.452517986297607
 20
-558.4818725585938
 11
1.452517986297607
 21
-614.4818725585938
  0
LINE
  8
0
  6
CONTINUOUS
 62
     7
 10
-31.04748153686523
 20
-469.9254455566406
 11
-31.04748153686523
 21
-510.6166687011719
  0
LINE
  8
0
  6
CONTINUOUS
 62
     7
 10
-164.2223510742187
 20
-514.4818725585938
 11
-146.4910888671875
 21
-514.4818725585938
  0
LINE
  8
0
  6
CONTINUOUS
 62
     7
 10
-248.5474853515625
 20
-456.9818420410156
 11
-248.5474853515625
 21
-599.4818725585937
  0
LINE
  8
0
  6
CONTINUOUS
 62
     7
 10
26.45251846313477
 20
-456.9818420410156
 11
26.45251846313477
 21
-599.4818725585937
  0
LINE
  8
0
  6
CONTINUOUS
 62
     7
 10
-248.5474853515625
 20
-599.4818725585937
 11
-178.5474853515625
 21
-599.4818725585937
  0
LINE
  8
0
  6
CONTINUOUS
 62
     7
 10
-248.5474853515625
 20
-573.4818725585937
 11
-178.5474853515625
 21
-573.4818725585937
  0
LINE
  8
0
  6
CONTINUOUS
 62
     7
 10
-43.54748153686523
 20
-573.4818725585937
 11
-43.54748153686523
 21
-599.4818725585937
  0
LINE
  8
0
  6
CONTINUOUS
 62
     7
 10
-178.5474853515625
 20
-573.4818725585937
 11
-178.5474853515625
 21
-599.4818725585937
  0
LINE
  8
0
  6
CONTINUOUS
 62
     7
 10
-43.54748153686523
 20
-573.4818725585937
 11
26.45251846313477
 21
-573.4818725585937
  0
LINE
  8
0
  6
CONTINUOUS
 62
     7
 10
-43.54748153686523
 20
-599.4818725585937
 11
26.45251846313477
 21
-599.4818725585937
  0
LINE
  8
0
  6
CONTINUOUS
 62
     7
 10
-173.5474853515625
 20
-596.4818725585938
 11
-48.54748153686523
 21
-596.4818725585938
  0
LINE
  8
0
  6
CONTINUOUS
 62
     7
 10
-173.5474853515625
 20
-579.4818725585938
 11
-136.0474853515625
 21
-579.4818725585938
  0
LINE
  8
0
  6
CONTINUOUS
 62
     7
 10
-86.0474853515625
 20
-579.4818725585938
 11
-48.54748153686523
 21
-579.4818725585938
  0
LINE
  8
0
  6
CONTINUOUS
 62
     7
 10
-178.5475158691406
 20
-573.4818115234375
 11
-174.1843109130859
 21
-523.6102905273438
  0
LINE
  8
0
  6
CONTINUOUS
 62
     7
 10
-196.5475311279297
 20
-573.4818115234375
 11
-191.0475158691406
 21
-510.6164855957031
  0
LINE
  8
0
  6
CONTINUOUS
 62
     7
 10
-43.54751968383789
 20
-573.4818725585937
 11
-47.91070938110352
 21
-523.6102905273438
  0
LINE
  8
0
  6
CONTINUOUS
 62
     7
 10
-25.54750633239746
 20
-573.4818115234375
 11
-31.0474910736084
 21
-510.6166381835937
  0
LINE
  8
0
  6
CONTINUOUS
 62
     7
 10
-75.6038818359375
 20
-514.4818725585938
 11
-57.87267684936523
 21
-514.4818725585938
  0
LINE
  8
0
  6
CONTINUOUS
 62
     7
 10
-191.0474853515625
 20
-469.9254455566406
 11
-191.0474853515625
 21
-510.6164855957031
  0
LINE
  8
0
  6
CONTINUOUS
 62
     3
 10
-23.27961540222168
 20
-470.837158203125
 11
-4.801913738250732
 21
-478.4908752441406
  0
LINE
  8
0
  6
CONTINUOUS
 62
     3
 10
-23.27898025512695
 20
-398.126953125
 11
-4.801336765289307
 21
-390.4732666015625
  0
LINE
  8
0
  6
CONTINUOUS
 62
     3
 10
-74.69267272949219
 20
-346.7133178710938
 11
-67.03897857666016
 21
-328.2356872558594
  0
LINE
  8
0
  6
CONTINUOUS
 62
     3
 10
-147.402587890625
 20
-346.7133483886719
 11
-155.0562896728516
 21
-328.2357177734375
  0
LINE
  8
0
  6
CONTINUOUS
 62
     3
 10
-198.8160858154297
 20
-398.1272277832031
 11
-217.2937927246094
 21
-390.4734802246094
  0
LINE
  8
0
  6
CONTINUOUS
 62
     3
 10
-198.8158569335938
 20
-470.8369140625
 11
-217.2935638427734
 21
-478.4906311035156
  0
LINE
  8
0
  6
CONTINUOUS
 62
     3
 10
-147.40234375
 20
-522.2501831054687
 11
-155.0560607910156
 21
-540.7279052734375
  0
LINE
  8
0
  6
CONTINUOUS
 62
     3
 10
-74.69306945800781
 20
-522.2501831054687
 11
-67.03936004638672
 21
-540.7279052734375
  0
LINE
  8
0
  6
CONTINUOUS
 62
     7
 10
-91.0474853515625
 20
-320.9441833496094
 11
-91.0474853515625
 21
-341.7119750976562
  0
LINE
  8
0
  6
CONTINUOUS
 62
     7
 10
-131.0474853515625
 20
-320.9441833496094
 11
-131.0474853515625
 21
-341.7119750976562
  0
LINE
  8
0
  6
DASHED
 62
     7
 10
-233.0474853515625
 20
-573.4818725585937
 11
-233.0474853515625
 21
-599.4818725585937
  0
LINE
  8
0
  6
DASHED
 62
     7
 10
-214.0474853515625
 20
-573.4818725585937
 11
-214.0474853515625
 21
-599.4818725585937
  0
LINE
  8
0
  6
DASHED
 62
     7
 10
10.95251846313477
 20
-573.4818725585937
 11
10.95251846313477
 21
-599.4818725585937
  0
LINE
  8
0
  6
DASHED
 62
     7
 10
-8.047481536865234
 20
-573.4818725585937
 11
-8.047481536865234
 21
-599.4818725585937
  0
LINE
  8
0
  6
CONTINUOUS
 62
     7
 10
-120.0474853515625
 20
-408.9818420410156
 11
-102.0474853515625
 21
-408.9818420410156
  0
LINE
  8
0
  6
CONTINUOUS
 62
     7
 10
-120.0474853515625
 20
-397.9818420410156
 11
-120.0474853515625
 21
-408.9818420410156
  0
LINE
  8
0
  6
CONTINUOUS
 62
     7
 10
-102.0474853515625
 20
-397.9818420410156
 11
-102.0474853515625
 21
-408.9818420410156
  0
LINE
  8
0
  6
CONTINUOUS
 62
     7
 10
-120.0474853515625
 20
-397.9818420410156
 11
-102.0474853515625
 21
-397.9818420410156
  0
LINE
  8
0
  6
CONTINUOUS
 62
     7
 10
-10.55749130249023
 20
-440.4316101074219
 11
-10.55749130249023
 21
-428.5320739746094
  0
LINE
  8
0
  6
CONTINUOUS
 62
     7
 10
-18.55749130249023
 20
-441.2177734375
 11
-18.55749130249023
 21
-427.7459106445313
  0
LINE
  8
0
  6
CONTINUOUS
 62
     7
 10
-18.55747222900391
 20
-441.2178039550781
 11
-23.79466247558594
 21
-441.0541381835938
  0
LINE
  8
0
  6
CONTINUOUS
 62
     7
 10
-18.5574779510498
 20
-427.7459106445313
 11
-23.79466819763184
 21
-427.9095764160156
  0
LINE
  8
0
  6
CONTINUOUS
 62
     7
 10
-10.55749130249023
 20
-440.4316101074219
 11
-18.55749130249023
 21
-440.4316101074219
  0
LINE
  8
0
  6
CONTINUOUS
 62
     7
 10
-10.55749130249023
 20
-428.5320739746094
 11
-18.55749130249023
 21
-428.5320739746094
  0
LINE
  8
0
  6
CONTINUOUS
 62
     3
 10
-10.55750560760498
 20
-428.5321350097656
 11
-18.5575122833252
 21
-434.4819030761719
  0
LINE
  8
0
  6
CONTINUOUS
 62
     7
 10
-18.55749130249023
 20
-434.4818420410156
 11
-10.55749130249023
 21
-434.4818420410156
  0
LINE
  8
0
  6
CONTINUOUS
 62
     3
 10
-10.55746650695801
 20
-434.4818725585937
 11
-18.55749702453613
 21
-428.5321044921875
  0
LINE
  8
0
  6
CONTINUOUS
 62
     3
 10
-18.55746459960938
 20
-434.4818725585937
 11
-10.55748271942139
 21
-440.4316101074219
  0
LINE
  8
0
  6
CONTINUOUS
 62
     3
 10
-10.55748271942139
 20
-434.4818115234375
 11
-18.55746459960938
 21
-440.4315490722656
  0
LINE
  8
0
  6
CONTINUOUS
 62
     7
 10
-102.1069107055664
 20
-310.9734497070313
 11
-101.0474700927734
 21
-316.9818420410156
  0
LINE
  8
0
  6
CONTINUOUS
 62
     7
 10
-107.0474624633789
 20
-309.2329406738281
 11
-103.060920715332
 21
-310.003662109375
  0
LINE
  8
0
  6
CONTINUOUS
 62
     7
 10
-107.0474853515625
 20
-279.4818420410156
 11
-107.0474853515625
 21
-314.5818481445312
  0
LINE
  8
0
  6
CONTINUOUS
 62
     7
 10
-119.9880447387695
 20
-310.9734802246094
 11
-121.0474472045898
 21
-316.9816589355469
  0
LINE
  8
0
  6
CONTINUOUS
 62
     7
 10
-115.0475463867188
 20
-309.2329711914063
 11
-119.0340957641602
 21
-310.0036926269531
  0
LINE
  8
0
  6
CONTINUOUS
 62
     7
 10
-115.0474853515625
 20
-279.4818420410156
 11
-115.0474853515625
 21
-314.5818481445312
  0
LINE
  8
0
  6
CONTINUOUS
 62
     7
 10
-74.01838684082031
 20
-309.9703674316406
 11
-89.74681854248047
 21
-306.3391723632812
  0
LINE
  8
0
  6
CONTINUOUS
 62
     7
 10
-75.61761474609375
 20
-318.837890625
 11
-92.1966552734375
 21
-315.0103149414062
  0
LINE
  8
0
  6
CONTINUOUS
 62
     7
 10
-75.61761474609375
 20
-318.8378601074219
 11
-76.49890899658203
 21
-322.1758117675781
  0
LINE
  8
0
  6
CONTINUOUS
 62
     7
 10
-92.19662475585938
 20
-315.0103454589844
 11
-92.86778259277344
 21
-318.3967895507812
  0
LINE
  8
0
  6
CONTINUOUS
 62
     7
 10
-74.01834106445312
 20
-309.9703674316406
 11
-76.04290008544922
 21
-318.7397155761719
  0
LINE
  8
0
  6
CONTINUOUS
 62
     7
 10
-89.74679565429688
 20
-306.3391723632812
 11
-91.77135467529297
 21
-315.1084899902344
  0
LINE
  8
0
  6
CONTINUOUS
 62
     7
 10
-121.0474853515625
 20
-316.9818420410156
 11
-121.0474853515625
 21
-317.4081420898437
  0
LINE
  8
0
  6
CONTINUOUS
 62
     7
 10
-101.0474853515625
 20
-316.9818420410156
 11
-101.0474853515625
 21
-317.4081420898437
  0
LINE
  8
0
  6
CONTINUOUS
 62
     3
 10
-91.77139282226563
 20
-315.1085205078125
 11
-81.88263702392578
 21
-308.1547546386719
  0
LINE
  8
0
  6
CONTINUOUS
 62
     3
 10
-89.74676513671875
 20
-306.3391418457031
 11
-83.90713500976563
 21
-316.924072265625
  0
LINE
  8
0
  6
CONTINUOUS
 62
     7
 10
-83.90715789794922
 20
-316.9241027832031
 11
-81.88259887695312
 21
-308.1547546386719
  0
LINE
  8
0
  6
CONTINUOUS
 62
     3
 10
-76.04289245605469
 20
-318.7396850585937
 11
-81.88258361816406
 21
-308.1547546386719
  0
LINE
  8
0
  6
CONTINUOUS
 62
     3
 10
-74.01836395263672
 20
-309.9703674316406
 11
-83.90717315673828
 21
-316.9241027832031
  0
LINE
  8
0
  6
CONTINUOUS
 62
     3
 10
-80.120361328125
 20
-300.5216979980469
 11
-85.17813110351562
 21
-322.4292907714844
  0
LINE
  8
0
  6
CONTINUOUS
 62
     7
 10
-122.0469665527344
 20
-317.4976806640625
 11
-122.7663269042969
 21
-319.9821472167969
  0
LINE
  8
0
  6
CONTINUOUS
 62
     7
 10
-148.2115173339844
 20
-323.0140991210937
 11
-148.0812530517578
 21
-324.5630187988281
  0
LINE
  8
0
  6
CONTINUOUS
 62
     7
 10
-138.5978393554687
 20
-320.2568664550781
 11
-137.6602172851563
 21
-322.0818481445313
  0
LINE
  8
0
  6
CONTINUOUS
 62
     3
 10
163.5154113769531
 20
-434.4818420410156
 11
618.2012939453125
 21
-434.4818420410156
  0
LINE
  8
0
  6
CONTINUOUS
 62
     7
 10
442.9525146484375
 20
-28.75794982910156
 11
450.8388366699219
 21
-36.62216186523438
  0
LINE
  8
0
  6
CONTINUOUS
 62
     7
 10
435.0661926269531
 20
-36.62212753295898
 11
442.9525451660156
 21
-28.75791358947754
  0
LINE
  8
0
  6
CONTINUOUS
 62
     7
 10
450.8388061523437
 20
-38.64673614501953
 11
450.8388061523437
 21
-36.62213897705078
  0
LINE
  8
0
  6
CONTINUOUS
 62
     7
 10
435.066162109375
 20
-38.64673614501953
 11
435.066162109375
 21
-36.62213897705078
  0
LINE
  8
0
  6
CONTINUOUS
 62
     7
 10
442.9525451660156
 20
-30.7824535369873
 11
435.0662231445313
 21
-38.64666748046875
  0
LINE
  8
0
  6
CONTINUOUS
 62
     7
 10
450.8388061523437
 20
-38.64674758911133
 11
442.9524841308594
 21
-30.78253173828125
  0
LINE
  8
0
  6
CONTINUOUS
 62
     7
 10
435.0661926269531
 20
-38.64675521850586
 11
442.9524536132812
 21
-46.51092529296875
  0
LINE
  8
0
  6
CONTINUOUS
 62
     7
 10
442.9525451660156
 20
-46.51086807250977
 11
450.8388671875
 21
-38.64667892456055
  0
LINE
  8
0
  6
CONTINUOUS
 62
     7
 10
442.9525146484375
 20
-30.78248023986816
 11
442.9525146484375
 21
-28.75794410705566
  0
LINE
  8
0
  6
CONTINUOUS
 62
     3
 10
435.0661926269531
 20
-38.64668655395508
 11
442.9525146484375
 21
-28.75790596008301
  0
LINE
  8
0
  6
CONTINUOUS
 62
     3
 10
442.9524841308594
 20
-30.7824592590332
 11
435.066162109375
 21
-36.62211608886719
  0
LINE
  8
0
  6
CONTINUOUS
 62
     3
 10
442.9525146484375
 20
-28.75791168212891
 11
450.8388671875
 21
-38.64671325683594
  0
LINE
  8
0
  6
CONTINUOUS
 62
     3
 10
450.8388671875
 20
-36.62214279174805
 11
442.9525451660156
 21
-30.7824878692627
  0
LINE
  8
0
  6
CONTINUOUS
 62
     7
 10
542.9525146484375
 20
-361.9818420410156
 11
546.0596313476562
 21
-361.9818420410156
  0
LINE
  8
0
  6
CONTINUOUS
 62
     7
 10
542.9525146484375
 20
-506.9818420410156
 11
542.9525146484375
 21
-361.9818420410156
  0
LINE
  8
0
  6
CONTINUOUS
 62
     7
 10
557.9525146484375
 20
-506.9818420410156
 11
557.9525146484375
 21
-361.9818420410156
  0
LINE
  8
0
  6
CONTINUOUS
 62
     7
 10
542.9525146484375
 20
-506.9818420410156
 11
557.9525146484375
 21
-506.9818420410156
  0
LINE
  8
0
  6
CONTINUOUS
 62
     7
 10
542.9525146484375
 20
-361.9818420410156
 11
557.9525146484375
 21
-361.9818420410156
  0
LINE
  8
0
  6
CONTINUOUS
 62
     7
 10
542.9525146484375
 20
-81.98184967041016
 11
542.9525146484375
 21
1.540609836578369
  0
LINE
  8
0
  6
CONTINUOUS
 62
     7
 10
557.9525146484375
 20
-81.98184967041016
 11
557.9525146484375
 21
-0.3111968338489532
  0
LINE
  8
0
  6
CONTINUOUS
 62
     7
 10
542.9525146484375
 20
-81.98184967041016
 11
557.9525146484375
 21
-81.98184967041016
  0
LINE
  8
0
  6
CONTINUOUS
 62
     7
 10
537.0617065429688
 20
-9.481851577758789
 11
598.4360961914063
 21
-9.481851577758789
  0
LINE
  8
0
  6
CONTINUOUS
 62
     7
 10
542.9525146484375
 20
63.01815032958984
 11
557.9525146484375
 21
63.01815032958984
  0
LINE
  8
0
  6
CONTINUOUS
 62
     7
 10
557.9525146484375
 20
-9.481851577758789
 11
557.9525146484375
 21
63.01815032958984
  0
LINE
  8
0
  6
CONTINUOUS
 62
     7
 10
542.9525146484375
 20
-9.481851577758789
 11
542.9525146484375
 21
63.01815032958984
  0
LINE
  8
0
  6
CONTINUOUS
 62
     7
 10
592.9525146484375
 20
-354.4818420410156
 11
592.9525146484375
 21
-514.4818725585938
  0
LINE
  8
0
  6
CONTINUOUS
 62
     7
 10
580.9525146484375
 20
-354.4818420410156
 11
592.9525146484375
 21
-354.4818420410156
  0
LINE
  8
0
  6
CONTINUOUS
 62
     7
 10
580.9525146484375
 20
-354.4818420410156
 11
580.9525146484375
 21
-514.4818725585938
  0
LINE
  8
0
  6
CONTINUOUS
 62
     7
 10
562.9525146484375
 20
-396.4818420410156
 11
575.9525146484375
 21
-396.4818420410156
  0
LINE
  8
0
  6
CONTINUOUS
 62
     7
 10
580.9525146484375
 20
-514.4818725585938
 11
592.9525146484375
 21
-514.4818725585938
  0
LINE
  8
0
  6
CONTINUOUS
 62
     7
 10
562.9525146484375
 20
-472.4818420410156
 11
575.9525146484375
 21
-472.4818420410156
  0
LINE
  8
0
  6
CONTINUOUS
 62
     7
 10
557.9525146484375
 20
-490.4818420410156
 11
580.9525146484375
 21
-490.4818420410156
  0
LINE
  8
0
  6
CONTINUOUS
 62
     7
 10
557.9525146484375
 20
-378.4818420410156
 11
580.9525146484375
 21
-378.4818420410156
  0
LINE
  8
0
  6
CONTINUOUS
 62
     7
 10
557.9525146484375
 20
-439.4818420410156
 11
580.9525146484375
 21
-439.4818420410156
  0
LINE
  8
0
  6
CONTINUOUS
 62
     7
 10
557.9525146484375
 20
-429.4818420410156
 11
580.9525146484375
 21
-429.4818420410156
  0
LINE
  8
0
  6
CONTINUOUS
 62
     7
 10
557.9525146484375
 20
-4.481851100921631
 11
580.9525146484375
 21
-4.481851100921631
  0
LINE
  8
0
  6
CONTINUOUS
 62
     7
 10
557.9525146484375
 20
-14.48185157775879
 11
580.9525146484375
 21
-14.48185157775879
  0
LINE
  8
0
  6
CONTINUOUS
 62
     7
 10
557.9525146484375
 20
46.51815032958984
 11
580.9525146484375
 21
46.51815032958984
  0
LINE
  8
0
  6
CONTINUOUS
 62
     7
 10
557.9525146484375
 20
-65.48184967041016
 11
580.9525146484375
 21
-65.48184967041016
  0
LINE
  8
0
  6
CONTINUOUS
 62
     7
 10
562.9525146484375
 20
-47.48184967041016
 11
575.9525146484375
 21
-47.48184967041016
  0
LINE
  8
0
  6
CONTINUOUS
 62
     7
 10
580.9525146484375
 20
-89.48184967041016
 11
592.9525146484375
 21
-89.48184967041016
  0
LINE
  8
0
  6
CONTINUOUS
 62
     7
 10
562.9525146484375
 20
28.51814842224121
 11
575.9525146484375
 21
28.51814842224121
  0
LINE
  8
0
  6
CONTINUOUS
 62
     7
 10
580.9525146484375
 20
70.51815032958984
 11
580.9525146484375
 21
-89.48184967041016
  0
LINE
  8
0
  6
CONTINUOUS
 62
     7
 10
580.9525146484375
 20
70.51815032958984
 11
592.9525146484375
 21
70.51815032958984
  0
LINE
  8
0
  6
CONTINUOUS
 62
     7
 10
592.9525146484375
 20
70.51815032958984
 11
592.9525146484375
 21
-89.48184967041016
  0
LINE
  8
0
  6
CONTINUOUS
 62
     7
 10
542.9525146484375
 20
1.54034686088562
 11
542.9525146484375
 21
-80.32096099853516
  0
LINE
  8
0
  6
CONTINUOUS
 62
     7
 10
416.6761169433594
 20
-295.9818420410156
 11
468.7533569335937
 21
-295.9818420410156
  0
ARC
  8
0
  6
CONTINUOUS
 62
     7
 10
455.9525146484375
 20
68.01811981201172
 40
5
 50
0
 51
89.99998201391097
  0
ARC
  8
0
  6
CONTINUOUS
 62
     7
 10
455.9525146484375
 20
-86.98184967041016
 40
5.000000000000004
 50
270.0000179860891
 51
0
  0
ARC
  8
0
  6
CONTINUOUS
 62
     7
 10
450.9525146484375
 20
-96.98184967041016
 40
5.000000000000004
 50
89.99998201391097
 51
179.9999640278213
  0
ARC
  8
0
  6
CONTINUOUS
 62
     7
 10
450.9525146484375
 20
78.01811981201172
 40
4.999999999999981
 50
179.9999776881996
 51
270.0000280040023
  0
ARC
  8
0
  6
CONTINUOUS
 62
     7
 10
442.9525146484375
 20
-9.481851577758789
 40
9.999999999999986
 50
23.57817672245736
 51
156.4218368242355
  0
ARC
  8
0
  6
CONTINUOUS
 62
     7
 10
426.4525146484375
 20
-9.481851577758789
 40
4
 50
89.99998201391097
 51
270.0000006832454
  0
ARC
  8
0
  6
CONTINUOUS
 62
     7
 10
459.4525146484375
 20
-9.481851577758789
 40
4
 50
270.0000179860891
 51
89.99998201391097
  0
ARC
  8
0
  6
CONTINUOUS
 62
     7
 10
442.9525146484375
 20
-9.481851577758789
 40
10.00000000000001
 50
203.5781631757645
 51
336.4218232775426
  0
ARC
  8
0
  6
CONTINUOUS
 62
     7
 10
360.9525146484375
 20
-9.481851577758789
 40
20.00000000000001
 50
120.000030660061
 51
239.9999520370951
  0
ARC
  8
0
  6
CONTINUOUS
 62
     7
 10
345.9525146484375
 20
16.49892234802246
 40
10
 50
299.9999300284562
 51
360
  0
ARC
  8
0
  6
CONTINUOUS
 62
     7
 10
345.9525146484375
 20
-35.46262359619141
 40
10
 50
0
 51
60.00006997154377
  0
ARC
  8
0
  6
CONTINUOUS
 62
     7
 10
518.9525146484375
 20
-100.4684219360352
 40
10
 50
0
 51
80.6398361338119
  0
ARC
  8
0
  6
CONTINUOUS
 62
     7
 10
518.9525146484375
 20
81.50478363037109
 40
9.999999999999989
 50
279.3602048473231
 51
0
  0
ARC
  8
0
  6
CONTINUOUS
 62
     7
 10
269.9525146484375
 20
-9.481851577758789
 40
9
 50
270.0000179860894
 51
89.99998201391061
  0
CIRCLE
  8
0
  6
CONTINUOUS
 62
     7
 10
323.9525146484375
 20
103.0180892944336
 40
9.5
  0
CIRCLE
  8
0
  6
CONTINUOUS
 62
     7
 10
503.9525146484375
 20
103.0180892944336
 40
9.5
  0
CIRCLE
  8
0
  6
CONTINUOUS
 62
     7
 10
323.9525146484375
 20
-121.9819107055664
 40
9.5
  0
CIRCLE
  8
0
  6
CONTINUOUS
 62
     7
 10
503.9525146484375
 20
-121.9819107055664
 40
9.5
  0
ARC
  8
0
  6
CONTINUOUS
 62
     7
 10
333.5158996582031
 20
88.01815032958984
 40
9.999999999999995
 50
270.0000179860893
 51
274.9999555151597
  0
ARC
  8
0
  6
CONTINUOUS
 62
     7
 10
333.5159912109375
 20
-106.9818496704102
 40
9.999999999999996
 50
85.00004448484029
 51
89.99998201391064
  0
ARC
  8
0
  6
CONTINUOUS
 62
     7
 10
345.9525146484375
 20
89.10622406005859
 40
9.999999999999996
 50
274.9999555151597
 51
0
  0
ARC
  8
0
  6
CONTINUOUS
 62
     7
 10
345.9525146484375
 20
-108.0699234008789
 40
10
 50
0
 51
85.00004448484029
  0
ARC
  8
0
  6
CONTINUOUS
 62
     7
 10
308.9525146484375
 20
118.0181503295898
 40
10.00000000000001
 50
90.00000250447815
 51
180.0000050089563
  0
ARC
  8
0
  6
CONTINUOUS
 62
     7
 10
308.9525146484375
 20
-136.9818572998047
 40
10
 50
179.999991348578
 51
270.0000006832453
  0
ARC
  8
0
  6
CONTINUOUS
 62
     7
 10
518.9525146484375
 20
118.0181503295898
 40
10
 50
0
 51
90.00000250447847
  0
ARC
  8
0
  6
CONTINUOUS
 62
     7
 10
518.9525146484375
 20
-136.9818572998047
 40
10.00000000000001
 50
269.9999974955215
 51
0
  0
ARC
  8
0
  6
CONTINUOUS
 62
     7
 10
467.9525146484375
 20
111.0181503295898
 40
5
 50
27.59400864308113
 51
90.00000250447847
  0
ARC
  8
0
  6
CONTINUOUS
 62
     7
 10
467.9525146484375
 20
-129.9818572998047
 40
5.000000000000004
 50
269.9999974955215
 51
348.3629448195065
  0
ARC
  8
0
  6
CONTINUOUS
 62
     7
 10
455.9525146484375
 20
-511.9818420410156
 40
5.000000000000019
 50
270.0000179860891
 51
0
  0
ARC
  8
0
  6
CONTINUOUS
 62
     7
 10
450.9525146484375
 20
-521.9818725585937
 40
5.000000000000019
 50
89.99998201391097
 51
179.9999640278219
  0
ARC
  8
0
  6
CONTINUOUS
 62
     7
 10
450.9525146484375
 20
-346.9818420410156
 40
4.999999999999981
 50
179.9999776881996
 51
269.9999733624889
  0
ARC
  8
0
  6
CONTINUOUS
 62
     7
 10
455.9525146484375
 20
-356.9818420410156
 40
5
 50
359.9999453584866
 51
89.99992737239761
  0
ARC
  8
0
  6
CONTINUOUS
 62
     7
 10
456.9525146484375
 20
-349.9818420410156
 40
1.999999999999981
 50
179.9999776882003
 51
270.0000280040013
  0
ARC
  8
0
  6
CONTINUOUS
 62
     7
 10
456.9525146484375
 20
-518.9818725585937
 40
1.999999999999985
 50
89.99998201391097
 51
179.9999640278219
  0
ARC
  8
0
  6
CONTINUOUS
 62
     7
 10
442.9525146484375
 20
-295.9818420410156
 40
20.50000000000001
 50
296.8635071615863
 51
242.013983578035
  0
ARC
  8
0
  6
CONTINUOUS
 62
     7
 10
442.9525146484375
 20
-295.9818420410156
 40
12.5
 50
0
 51
256.8639076639099
  0
ARC
  8
0
  6
CONTINUOUS
 62
     7
 10
442.9525146484375
 20
-295.9818420410156
 40
12.49999999999998
 50
283.1360905148572
 51
0
  0
ARC
  8
0
  6
CONTINUOUS
 62
     7
 10
483.3638916015625
 20
-553.4818725585937
 40
19.99999999999996
 50
215.0000016568316
 51
270.0000179860893
  0
ARC
  8
0
  6
CONTINUOUS
 62
     7
 10
345.9525146484375
 20
-563.4818725585937
 40
10.00000000000004
 50
270.0000179860893
 51
0
  0
ARC
  8
0
  6
CONTINUOUS
 62
     7
 10
267.1360473632813
 20
-534.9110107421875
 40
49.99999999999996
 50
309.5186524105152
 51
354.9999975841326
  0
ARC
  8
0
  6
CONTINUOUS
 62
     7
 10
435.9525146484375
 20
-416.0336608886719
 40
60
 50
179.999991348578
 51
215.0000116747444
  0
CIRCLE
  8
0
  6
CONTINUOUS
 62
     3
 10
343.9525146484375
 20
-434.4818420410156
 40
6.735937595367432
  0
CIRCLE
  8
0
  6
CONTINUOUS
 62
     3
 10
343.9525146484375
 20
-499.4818420410156
 40
6.735937595367432
  0
ARC
  8
0
  6
CONTINUOUS
 62
     7
 10
330.9525146484375
 20
-336.9818420410156
 40
10.00000000000001
 50
269.9999974955218
 51
0
  0
ARC
  8
0
  6
CONTINUOUS
 62
     7
 10
345.9525146484375
 20
-336.9818420410156
 40
10.00000000000001
 50
269.9999974955218
 51
0
  0
ARC
  8
0
  6
CONTINUOUS
 62
     7
 10
-111.0474853515625
 20
-434.4818420410156
 40
32.50000000000001
 50
106.0766490558549
 51
73.92333865025743
  0
ARC
  8
0
  6
CONTINUOUS
 62
     7
 10
-111.0474853515625
 20
-359.4818420410156
 40
13
 50
165.5410136304162
 51
14.45902871720947
  0
CIRCLE
  8
0
  6
CONTINUOUS
 62
     7
 10
-111.0474853515625
 20
-434.4818420410156
 40
87.5
  0
ARC
  8
0
  6
CONTINUOUS
 62
     3
 10
-111.0474853515625
 20
-434.4818420410156
 40
75.00000000000001
 50
22.3549017949391
 51
37.64509987471304
  0
ARC
  8
0
  6
CONTINUOUS
 62
     7
 10
-46.09557723999023
 20
-396.9818420410156
 40
13
 50
105.5411690551151
 51
314.4589041041522
  0
ARC
  8
0
  6
CONTINUOUS
 62
     3
 10
-111.0474853515625
 20
-434.4818420410156
 40
74.99999999999999
 50
82.35491029478037
 51
97.64511520474348
  0
ARC
  8
0
  6
CONTINUOUS
 62
     7
 10
-175.9993896484375
 20
-396.9818420410156
 40
12.99999999999999
 50
225.541059923669
 51
74.45884961421964
  0
ARC
  8
0
  6
CONTINUOUS
 62
     3
 10
-111.0474853515625
 20
-434.4818420410156
 40
75
 50
142.3549119644325
 51
157.6451100442064
  0
ARC
  8
0
  6
CONTINUOUS
 62
     7
 10
-175.9993896484375
 20
-471.9818420410156
 40
13.00000000000002
 50
285.5411367254021
 51
134.458940076331
  0
ARC
  8
0
  6
CONTINUOUS
 62
     3
 10
-111.0474853515625
 20
-434.4818420410156
 40
75
 50
202.3549172765502
 51
217.6451153563242
  0
ARC
  8
0
  6
CONTINUOUS
 62
     7
 10
-111.0474853515625
 20
-509.4818420410156
 40
13.00000000000002
 50
345.5409778856085
 51
194.458982727118
  0
ARC
  8
0
  6
CONTINUOUS
 62
     3
 10
-111.0474853515625
 20
-434.4818420410156
 40
75
 50
262.3549121160132
 51
277.6451101957871
  0
ARC
  8
0
  6
CONTINUOUS
 62
     7
 10
-46.09557723999023
 20
-471.9818420410156
 40
13.00000000000002
 50
45.54107517790924
 51
254.4588341326085
  0
ARC
  8
0
  6
CONTINUOUS
 62
     3
 10
-111.0474853515625
 20
-434.4818420410156
 40
75
 50
322.3549069554762
 51
337.6451050352501
  0
CIRCLE
  8
0
  6
CONTINUOUS
 62
     7
 10
-111.0474853515625
 20
-434.4818420410156
 40
55
  0
ARC
  8
0
  6
CONTINUOUS
 62
     7
 10
-173.5474853515625
 20
-601.4818725585938
 40
5.000000000000019
 50
89.99998201391064
 51
156.4218641449927
  0
ARC
  8
0
  6
CONTINUOUS
 62
     7
 10
-48.54748153686523
 20
-601.4818725585938
 40
5.000000000000022
 50
23.57815623189036
 51
89.99998201391064
  0
ARC
  8
0
  6
CONTINUOUS
 62
     7
 10
-173.5474853515625
 20
-574.4818725585937
 40
5.00000000000001
 50
179.9999776882003
 51
270.0000280040019
  0
ARC
  8
0
  6
CONTINUOUS
 62
     7
 10
-48.54748153686523
 20
-574.4818725585937
 40
5.000000000000019
 50
270.0000179860893
 51
0
  0
ARC
  8
0
  6
CONTINUOUS
 62
     7
 10
-86.0474853515625
 20
-574.4818725585937
 40
4.999999999999996
 50
179.9999776882003
 51
270.0000280040019
  0
ARC
  8
0
  6
CONTINUOUS
 62
     7
 10
-136.0474853515625
 20
-574.4818725585937
 40
5.000000000000019
 50
270.0000179860893
 51
0
  0
ARC
  8
0
  6
CONTINUOUS
 62
     7
 10
-57.87267684936523
 20
-524.4818725585937
 40
9.999999999999998
 50
4.999995585678207
 51
89.99998201391064
  0
ARC
  8
0
  6
CONTINUOUS
 62
     7
 10
-164.2223510742187
 20
-524.4818725585937
 40
10.00000000000004
 50
89.99998201391064
 51
174.9999923478053
  0
ARC
  8
0
  6
CONTINUOUS
 62
     7
 10
-111.0474853515625
 20
-456.9818420410156
 40
137.5
 50
0
 51
179.9999640278213
  0
ARC
  8
0
  6
CONTINUOUS
 62
     3
 10
-111.0474853515625
 20
-434.4818420410156
 40
105
 50
332.0411807080648
 51
342.9587804736557
  0
ARC
  8
0
  6
CONTINUOUS
 62
     3
 10
-111.0474853515625
 20
-434.4818420410156
 40
105
 50
17.04117683766195
 51
27.95878514098941
  0
ARC
  8
0
  6
CONTINUOUS
 62
     3
 10
-111.0474853515625
 20
-434.4818420410156
 40
105
 50
62.04117638235374
 51
72.9587829781339
  0
ARC
  8
0
  6
CONTINUOUS
 62
     3
 10
-111.0474853515625
 20
-434.4818420410156
 40
105
 50
107.0411742194982
 51
117.9587876454676
  0
ARC
  8
0
  6
CONTINUOUS
 62
     3
 10
-111.0474853515625
 20
-434.4818420410156
 40
105
 50
152.0411720566428
 51
162.9587786524229
  0
ARC
  8
0
  6
CONTINUOUS
 62
     3
 10
-111.0474853515625
 20
-434.4818420410156
 40
105
 50
197.0411940268204
 51
207.9587869622222
  0
ARC
  8
0
  6
CONTINUOUS
 62
     3
 10
-111.0474853515625
 20
-434.4818420410156
 40
105
 50
242.0411850337757
 51
252.9587847993667
  0
ARC
  8
0
  6
CONTINUOUS
 62
     3
 10
-111.0474853515625
 20
-434.4818420410156
 40
105.0000000000001
 50
287.0411828709202
 51
297.9587826365112
  0
ARC
  8
0
  6
CONTINUOUS
 62
     7
 10
-81.0474853515625
 20
-341.7119750976562
 40
10.00000000000001
 50
179.9999776881996
 51
252.0798792446929
  0
ARC
  8
0
  6
CONTINUOUS
 62
     7
 10
-141.0474853515625
 20
-341.7119750976562
 40
10.00000000000002
 50
287.9201052736958
 51
0
  0
ARC
  8
0
  6
CONTINUOUS
 62
     7
 10
-103.2886962890625
 20
-311.1818542480469
 40
1.200000047683725
 50
10.00000056286754
 51
79.05805311449654
  0
ARC
  8
0
  6
CONTINUOUS
 62
     7
 10
-111.0474853515625
 20
-279.4818420410156
 40
4
 50
0
 51
179.9999640278211
  0
ARC
  8
0
  6
CONTINUOUS
 62
     7
 10
-105.8474731445313
 20
-314.5818481445312
 40
1.200000047683722
 50
179.9999776881984
 51
270.0000280040022
  0
ARC
  8
0
  6
CONTINUOUS
 62
     7
 10
-116.2474975585938
 20
-314.5818481445312
 40
1.200000047683734
 50
269.9999633445759
 51
0
  0
ARC
  8
0
  6
CONTINUOUS
 62
     7
 10
-118.8062744140625
 20
-311.1818542480469
 40
1.200000047683728
 50
100.9419109133249
 51
169.9999660262759
  0
ARC
  8
0
  6
CONTINUOUS
 62
     7
 10
-111.0474853515625
 20
-434.4818420410156
 40
117.5
 50
60.31883490010829
 51
95.3717413810181
  0
ARC
  8
0
  6
CONTINUOUS
 62
     7
 10
-111.0474853515625
 20
-434.4818420410156
 40
117.5
 50
103.5611586864309
 51
108.4388699803038
  0
ARC
  8
0
  6
CONTINUOUS
 62
     7
 10
575.9525146484375
 20
-477.4818420410156
 40
5
 50
0
 51
90.00000250447782
  0
ARC
  8
0
  6
CONTINUOUS
 62
     7
 10
575.9525146484375
 20
-391.4818420410156
 40
5.000000000000004
 50
269.9999974955222
 51
0
  0
ARC
  8
0
  6
CONTINUOUS
 62
     7
 10
562.9525146484375
 20
-391.4818420410156
 40
4.999999999999943
 50
179.999991348578
 51
270.0000006832456
  0
ARC
  8
0
  6
CONTINUOUS
 62
     7
 10
562.9525146484375
 20
-477.4818420410156
 40
5.000000000000004
 50
90.00000250447782
 51
180.0000050089563
  0
ARC
  8
0
  6
CONTINUOUS
 62
     7
 10
562.9525146484375
 20
-52.48184967041016
 40
4.999999999999997
 50
90.00000250447782
 51
180.0000050089563
  0
ARC
  8
0
  6
CONTINUOUS
 62
     7
 10
562.9525146484375
 20
33.51815032958984
 40
4.999999999999943
 50
179.999991348578
 51
270.0000006832456
  0
ARC
  8
0
  6
CONTINUOUS
 62
     7
 10
575.9525146484375
 20
33.51815032958984
 40
5.000000000000001
 50
269.9999974955222
 51
0
  0
ARC
  8
0
  6
CONTINUOUS
 62
     7
 10
575.9525146484375
 20
-52.48184967041016
 40
5
 50
0
 51
90.00000250447782
  0
POLYLINE
  8
0
  6
CONTINUOUS
 62
     7
 66
     1
 10
0
 20
0
  0
VERTEX
  8
0
  6
CONTINUOUS
 62
     7
 10
434.8815071521171
 20
-316.318935688867
 42
0.5547852449201675
  0
VERTEX
  8
0
  6
CONTINUOUS
 62
     7
 10
434.6303814155226
 20
-317.3215010409759
 42
0.1035254123975292
  0
VERTEX
  8
0
  6
CONTINUOUS
 62
     7
 10
435.6870539001526
 20
-317.9197937216897
 42
0.03106237593181796
  0
VERTEX
  8
0
  6
CONTINUOUS
 62
     7
 10
436.8622924011447
 20
-318.2603866776003
 42
0.01736653360944271
  0
VERTEX
  8
0
  6
CONTINUOUS
 62
     7
 10
438.064504420177
 20
-318.4904690489652
 42
0.01227962950837436
  0
VERTEX
  8
0
  6
CONTINUOUS
 62
     7
 10
439.2783326296275
 20
-318.6501981629004
 42
0.009889494826088627
  0
VERTEX
  8
0
  6
CONTINUOUS
 62
     7
 10
440.49905587555
 20
-318.7565629643961
 42
0.008687601315228098
  0
VERTEX
  8
0
  6
CONTINUOUS
 62
     7
 10
441.7230372335982
 20
-318.8177797299975
 42
0.008173081189669544
  0
VERTEX
  8
0
  6
CONTINUOUS
 62
     7
 10
442.9484353996114
 20
-318.8378689801281
 42
0.008170536145917779
  0
VERTEX
  8
0
  6
CONTINUOUS
 62
     7
 10
444.1737023656687
 20
-318.8180513546932
 42
0.008682637543689082
  0
VERTEX
  8
0
  6
CONTINUOUS
 62
     7
 10
445.3977700491932
 20
-318.7571181813498
 42
0.009879235936010363
  0
VERTEX
  8
0
  6
CONTINUOUS
 62
     7
 10
446.6186298002343
 20
-318.6510666043321
 42
0.01227268305176376
  0
VERTEX
  8
0
  6
CONTINUOUS
 62
     7
 10
447.8338543524509
 20
-318.4915223691082
 42
0.01736331859281832
  0
VERTEX
  8
0
  6
CONTINUOUS
 62
     7
 10
449.038367076853
 20
-318.2613952719628
 42
0.03102276778212929
  0
VERTEX
  8
0
  6
CONTINUOUS
 62
     7
 10
450.2150299455751
 20
-317.920882982819
 42
0.1034613131385309
  0
VERTEX
  8
0
  6
CONTINUOUS
 62
     7
 10
451.2740925110658
 20
-317.322096289839
 42
0.5548958390613302
  0
VERTEX
  8
0
  6
CONTINUOUS
 62
     7
 10
451.0254350447337
 20
-316.3202236007621
 42
0
  0
SEQEND
  8
0
  0
POLYLINE
  8
0
  6
CONTINUOUS
 62
     7
 66
     1
 10
0
 20
0
  0
VERTEX
  8
0
  6
CONTINUOUS
 62
     7
 10
434.6309848333299
 20
-322.7230620715756
 42
0.2480516466255347
  0
VERTEX
  8
0
  6
CONTINUOUS
 62
     7
 10
435.3547289034688
 20
-323.4866242611659
 42
0.04463918233037083
  0
VERTEX
  8
0
  6
CONTINUOUS
 62
     7
 10
436.3856220212326
 20
-323.872824080559
 42
0.02127731874926265
  0
VERTEX
  8
0
  6
CONTINUOUS
 62
     7
 10
437.4581016770619
 20
-324.1289550925538
 42
0.0138612022667635
  0
VERTEX
  8
0
  6
CONTINUOUS
 62
     7
 10
438.5461513423572
 20
-324.311037091843
 42
0.01053517461392701
  0
VERTEX
  8
0
  6
CONTINUOUS
 62
     7
 10
439.6418386026584
 20
-324.4404852696123
 42
0.008818374795433409
  0
VERTEX
  8
0
  6
CONTINUOUS
 62
     7
 10
440.7420054056888
 20
-324.5277563210652
 42
0.007913254567038499
  0
VERTEX
  8
0
  6
CONTINUOUS
 62
     7
 10
441.8445838070185
 20
-324.5783445337204
 42
0.007515671351104136
  0
VERTEX
  8
0
  6
CONTINUOUS
 62
     7
 10
442.9482294620749
 20
-324.5950100651714
 42
0.007513368252539761
  0
VERTEX
  8
0
  6
CONTINUOUS
 62
     7
 10
444.051759198636
 20
-324.5786061850437
 42
0.007906197112093089
  0
VERTEX
  8
0
  6
CONTINUOUS
 62
     7
 10
445.154057232917
 20
-324.5283113068947
 42
0.008816439492190383
  0
VERTEX
  8
0
  6
CONTINUOUS
 62
     7
 10
446.2551733233609
 20
-324.4412668894817
 42
0.01052294317090274
  0
VERTEX
  8
0
  6
CONTINUOUS
 62
     7
 10
447.3513478855226
 20
-324.3120941336983
 42
0.01384195503699312
  0
VERTEX
  8
0
  6
CONTINUOUS
 62
     7
 10
448.4403458953511
 20
-324.1302566865054
 42
0.02126298710429587
  0
VERTEX
  8
0
  6
CONTINUOUS
 62
     7
 10
449.5151695336382
 20
-323.8740497947268
 42
0.04456797160790155
  0
VERTEX
  8
0
  6
CONTINUOUS
 62
     7
 10
450.5479564986052
 20
-323.4878067878606
 42
0.2481427691486794
  0
VERTEX
  8
0
  6
CONTINUOUS
 62
     7
 10
451.2740512395799
 20
-322.7230620715756
 42
0
  0
SEQEND
  8
0
  0
POLYLINE
  8
0
  6
CONTINUOUS
 62
     7
 66
     1
 10
0
 20
0
  0
VERTEX
  8
0
  6
CONTINUOUS
 62
     7
 10
451.2639521055272
 20
-34.85304576116351
 42
0.04847174459633608
  0
VERTEX
  8
0
  6
CONTINUOUS
 62
     7
 10
451.0177281847451
 20
-33.31753860760383
 42
0.04822466311253992
  0
VERTEX
  8
0
  6
CONTINUOUS
 62
     7
 10
450.4811612347335
 20
-31.8579651265631
 42
0.04784386673876389
  0
VERTEX
  8
0
  6
CONTINUOUS
 62
     7
 10
449.6757783429562
 20
-30.52739787522471
 42
0.04737580930105782
  0
VERTEX
  8
0
  6
CONTINUOUS
 62
     7
 10
448.6331820530659
 20
-29.37313045083529
 42
0.04690357525675076
  0
VERTEX
  8
0
  6
CONTINUOUS
 62
     7
 10
447.392546544932
 20
-28.43434654275604
 42
0.04648608483101568
  0
VERTEX
  8
0
  6
CONTINUOUS
 62
     7
 10
445.9989238169657
 20
-27.74188033880725
 42
0.04617084849599675
  0
VERTEX
  8
0
  6
CONTINUOUS
 62
     7
 10
444.5015220221568
 20
-27.31777035473867
 42
0.04597934888313588
  0
VERTEX
  8
0
  6
CONTINUOUS
 62
     7
 10
442.9525180364549
 20
-27.1750579211849
 42
0.04597362496070597
  0
VERTEX
  8
0
  6
CONTINUOUS
 62
     7
 10
441.4036973946187
 20
-27.31773583094777
 42
0.04614341608744162
  0
VERTEX
  8
0
  6
CONTINUOUS
 62
     7
 10
439.9071285558968
 20
-27.74148477152153
 42
0.04646182626289369
  0
VERTEX
  8
0
  6
CONTINUOUS
 62
     7
 10
438.5140747931453
 20
-28.43335466677089
 42
0.04689210879215203
  0
VERTEX
  8
0
  6
CONTINUOUS
 62
     7
 10
437.2734724950477
 20
-29.37162199571097
 42
0.04738569363461348
  0
VERTEX
  8
0
  6
CONTINUOUS
 62
     7
 10
436.2303417943292
 20
-30.52588856890723
 42
0.04786779629527504
  0
VERTEX
  8
0
  6
CONTINUOUS
 62
     7
 10
435.4242992558825
 20
-31.85698095971648
 42
0.048260912859881
  0
VERTEX
  8
0
  6
CONTINUOUS
 62
     7
 10
434.8872336363253
 20
-33.31760508777318
 42
0.04849630551287798
  0
VERTEX
  8
0
  6
CONTINUOUS
 62
     7
 10
434.6409714890857
 20
-34.85387823385525
 42
0
  0
SEQEND
  8
0
  0
POLYLINE
  8
0
  6
CONTINUOUS
 62
     7
 66
     1
 10
0
 20
0
  0
VERTEX
  8
0
  6
CONTINUOUS
 62
     7
 10
444.7422341270256
 20
-44.72618851742231
 42
0.08922772544191881
  0
VERTEX
  8
0
  6
CONTINUOUS
 62
     7
 10
447.5758484756354
 20
-43.58078197116829
 42
0.09150446541456424
  0
VERTEX
  8
0
  6
CONTINUOUS
 62
     7
 10
449.8237523123524
 20
-41.50998081412416
 42
0.0939630082841789
  0
VERTEX
  8
0
  6
CONTINUOUS
 62
     7
 10
451.1701334577112
 20
-38.767653986025
 42
0.09531374866402889
  0
VERTEX
  8
0
  6
CONTINUOUS
 62
     7
 10
451.4097790939484
 20
-35.72253121558921
 42
0.09472483127838424
  0
VERTEX
  8
0
  6
CONTINUOUS
 62
     7
 10
450.5044451620676
 20
-32.80510813432507
 42
0.09255039339364513
  0
VERTEX
  8
0
  6
CONTINUOUS
 62
     7
 10
448.5962654919
 20
-30.41927807774056
 42
0.09010467939876168
  0
VERTEX
  8
0
  6
CONTINUOUS
 62
     7
 10
445.9609956041874
 20
-28.8682558036897
 42
0.08842983426177292
  0
VERTEX
  8
0
  6
CONTINUOUS
 62
     7
 10
442.9525180364549
 20
-28.33265069462241
 42
0.08846547153100803
  0
VERTEX
  8
0
  6
CONTINUOUS
 62
     7
 10
439.9428702693427
 20
-28.86868393983777
 42
0.09004159966880995
  0
VERTEX
  8
0
  6
CONTINUOUS
 62
     7
 10
437.3094077778268
 20
-30.41870437971401
 42
0.09257754888261208
  0
VERTEX
  8
0
  6
CONTINUOUS
 62
     7
 10
435.4005266164429
 20
-32.80513963932535
 42
0.09475323273325549
  0
VERTEX
  8
0
  6
CONTINUOUS
 62
     7
 10
434.4950944998079
 20
-35.72344453160572
 42
0.09529139742082565
  0
VERTEX
  8
0
  6
CONTINUOUS
 62
     7
 10
434.7348880761855
 20
-38.76780668656486
 42
0.09395224167899206
  0
VERTEX
  8
0
  6
CONTINUOUS
 62
     7
 10
436.0811215465216
 20
-41.50981694995845
 42
0.09149366215389783
  0
VERTEX
  8
0
  6
CONTINUOUS
 62
     7
 10
438.3286910579171
 20
-43.5804804060222
 42
0.08926441766399515
  0
VERTEX
  8
0
  6
CONTINUOUS
 62
     7
 10
441.1635054226355
 20
-44.72633661813928
 42
0
  0
SEQEND
  8
0
  0
TEXT
  8
0
  6
CONTINUOUS
 62
     7
 10
-244.9760608673096
 20
-21.98185157775879
 40
25
 41
1.031321651030352
  1
ERK-NBD-400
  0
ENDSEC
  0
EOF
