  0
SECTION
  2
HEADER
  0
ENDSEC
  0
SECTION
  2
TABLES
  0
TABLE
  2
LTYPE
 70
    22
  0
LTYPE
  2
CONTINUOUS
 70
    64
  3
Solid line
 72
    65
 73
     0
 40
0.000000
  0
LTYPE
  2
DASHED
 70
    64
  3
__ __ __ __ __ __ __ __ __ __ __ __ __ __ __
 72
    65
 73
     2
 40
3.500000
 49
2.000000
 49
-1.500000
  0
LTYPE
  2
CENTER
 70
    64
  3
____ _ ____ _ ____ _ ____ _ ____ _ ____ _ ____
 72
    65
 73
     4
 40
17.500000
 49
13.000000
 49
-1.500000
 49
1.500000
 49
-1.500000
  0
LTYPE
  2
PHANTOM
 70
    64
  3
_____ _ _ _____ _ _ _____ _ _ _____ _ _ ____  
 72
    65
 73
     6
 40
15.500000
 49
8.000000
 49
-1.500000
 49
1.500000
 49
-1.500000
 49
1.500000
 49
-1.500000
  0
LTYPE
  2
DOT
 70
    64
  3
. . . . . . . . . . . . . . . . . . . . . . . .
 72
    65
 73
     2
 40
0.25
 49
0.0
 49
-0.25
  0
ENDTAB
  0
TABLE
  2
LAYER
 70
     1
  0
LAYER
  2
0
 70
     0
 62
     7
  6
CONTINUOUS
  0
ENDTAB
  0
TABLE
  2
STYLE
 70
     1
  0
STYLE
  2
STANDARD
 70
     0
 40
0.000000
 41
1.000000
 50
0.000000
 71
     0
 42
0.200000
  3
txt
  0
ENDTAB
  0
TABLE
  2
VIEW
 70
     0
  0
ENDTAB
  0
ENDSEC
  0
SECTION
  2
BLOCKS
  0
ENDSEC
  0
SECTION
  2
ENTITIES
  0
LINE
  8
0
  6
CONTINUOUS
 62
     3
 10
285
 20
-425
 11
740.1268920898438
 21
-425
  0
LINE
  8
0
  6
CONTINUOUS
 62
     7
 10
539
 20
-310
 11
539
 21
-499.7333679199219
  0
LINE
  8
0
  6
CONTINUOUS
 62
     7
 10
539
 20
-310
 11
545.5742797851563
 21
-310
  0
LINE
  8
0
  6
CONTINUOUS
 62
     7
 10
557
 20
-321.816650390625
 11
557
 21
-525.4400024414063
  0
LINE
  8
0
  6
CONTINUOUS
 62
     7
 10
604
 20
-352.5
 11
604
 21
-497.5
  0
LINE
  8
0
  6
CONTINUOUS
 62
     7
 10
604
 20
-497.5
 11
614
 21
-497.5
  0
LINE
  8
0
  6
CONTINUOUS
 62
     7
 10
604
 20
-352.5
 11
614
 21
-352.5
  0
LINE
  8
0
  6
CONTINUOUS
 62
     7
 10
572
 20
-347.5
 11
572
 21
-502.5
  0
LINE
  8
0
  6
CONTINUOUS
 62
     7
 10
562
 20
-507.5
 11
567
 21
-507.5
  0
LINE
  8
0
  6
CONTINUOUS
 62
     7
 10
566
 20
-310
 11
566
 21
-340.5
  0
LINE
  8
0
  6
CONTINUOUS
 62
     7
 10
562
 20
-342.5
 11
567
 21
-342.5
  0
LINE
  8
0
  6
CONTINUOUS
 62
     7
 10
566
 20
-538.2933349609375
 11
566
 21
-509.5
  0
LINE
  8
0
  6
CONTINUOUS
 62
     7
 10
571.9999389648437
 20
-364.2030334472656
 11
603.9999389648437
 21
-371.5271606445313
  0
LINE
  8
0
  6
CONTINUOUS
 62
     7
 10
572
 20
-390.947509765625
 11
604
 21
-390.947509765625
  0
LINE
  8
0
  6
CONTINUOUS
 62
     7
 10
572
 20
-485.7969970703125
 11
604
 21
-478.4728393554688
  0
LINE
  8
0
  6
CONTINUOUS
 62
     7
 10
572
 20
-459.052490234375
 11
604
 21
-459.052490234375
  0
LINE
  8
0
  6
CONTINUOUS
 62
     7
 10
545.928955078125
 20
-298.6729125976563
 11
545.928955078125
 21
-307.4422607421875
  0
LINE
  8
0
  6
CONTINUOUS
 62
     7
 10
562.071044921875
 20
-298.6729125976563
 11
562.071044921875
 21
-307.4422607421875
  0
LINE
  8
0
  6
CONTINUOUS
 62
     3
 10
545.928955078125
 20
-298.6729431152344
 11
554
 21
-309.2578430175781
  0
LINE
  8
0
  6
CONTINUOUS
 62
     3
 10
554
 20
-309.2578430175781
 11
562.071044921875
 21
-298.6728820800781
  0
LINE
  8
0
  6
CONTINUOUS
 62
     7
 10
545.4926147460937
 20
-307.4560241699219
 11
545.6787109375
 21
-313.2546997070312
  0
LINE
  8
0
  6
CONTINUOUS
 62
     7
 10
562.50732421875
 20
-307.4560852050781
 11
562.3212890625
 21
-313.2547302246094
  0
LINE
  8
0
  6
CONTINUOUS
 62
     7
 10
562.4257202148438
 20
-310
 11
566
 21
-310
  0
LINE
  8
0
  6
CONTINUOUS
 62
     7
 10
554
 20
-298.6729125976563
 11
554
 21
-309.2578430175781
  0
LINE
  8
0
  6
CONTINUOUS
 62
     7
 10
557
 20
-321.816650390625
 11
565.9999389648437
 21
-320.7745971679688
  0
LINE
  8
0
  6
CONTINUOUS
 62
     7
 10
545.928955078125
 20
-298.6729125976563
 11
562.071044921875
 21
-298.6729125976563
  0
LINE
  8
0
  6
CONTINUOUS
 62
     3
 10
554
 20
-298.6729431152344
 11
545.928955078125
 21
-307.4422912597656
  0
LINE
  8
0
  6
CONTINUOUS
 62
     3
 10
562.071044921875
 20
-307.4422607421875
 11
554
 21
-298.6728820800781
  0
LINE
  8
0
  6
CONTINUOUS
 62
     7
 10
491
 20
-307.5
 11
535
 21
-307.5
  0
LINE
  8
0
  6
CONTINUOUS
 62
     7
 10
487.0000305175781
 20
-311.5000305175781
 11
491.0000610351563
 21
-307.5000305175781
  0
LINE
  8
0
  6
CONTINUOUS
 62
     7
 10
535
 20
-307.5000305175781
 11
539
 21
-311.5000305175781
  0
LINE
  8
0
  6
CONTINUOUS
 62
     7
 10
491
 20
-350.0578002929687
 11
535
 21
-350.0578002929687
  0
LINE
  8
0
  6
CONTINUOUS
 62
     7
 10
491
 20
-363.7132568359375
 11
535
 21
-363.7132568359375
  0
LINE
  8
0
  6
CONTINUOUS
 62
     7
 10
491
 20
-372.4596557617187
 11
535
 21
-372.4596557617187
  0
LINE
  8
0
  6
CONTINUOUS
 62
     7
 10
491
 20
-387.8352966308594
 11
535
 21
-387.8352966308594
  0
LINE
  8
0
  6
CONTINUOUS
 62
     7
 10
491
 20
-397.447998046875
 11
535
 21
-397.447998046875
  0
LINE
  8
0
  6
CONTINUOUS
 62
     7
 10
491
 20
-414.00048828125
 11
535
 21
-414.00048828125
  0
LINE
  8
0
  6
CONTINUOUS
 62
     7
 10
494.7239379882813
 20
-436.0003051757812
 11
535
 21
-436.0003051757812
  0
LINE
  8
0
  6
CONTINUOUS
 62
     7
 10
505.9630126953125
 20
-452.5516662597656
 11
535
 21
-452.5516662597656
  0
LINE
  8
0
  6
CONTINUOUS
 62
     7
 10
512.693603515625
 20
-462.1639404296875
 11
535
 21
-462.1639404296875
  0
LINE
  8
0
  6
CONTINUOUS
 62
     7
 10
523.4603271484375
 20
-477.5404357910156
 11
535
 21
-477.5404357910156
  0
LINE
  8
0
  6
CONTINUOUS
 62
     7
 10
529.5843505859375
 20
-486.2864379882813
 11
535
 21
-486.2864379882813
  0
LINE
  8
0
  6
CONTINUOUS
 62
     3
 10
455
 20
-415
 11
455
 21
-435
  0
LINE
  8
0
  6
CONTINUOUS
 62
     3
 10
445
 20
-490
 11
465
 21
-490
  0
LINE
  8
0
  6
CONTINUOUS
 62
     3
 10
455
 20
-480
 11
455
 21
-500
  0
LINE
  8
0
  6
CONTINUOUS
 62
     7
 10
401
 20
-370.0000305175781
 11
401
 21
-480
  0
LINE
  8
0
  6
CONTINUOUS
 62
     7
 10
413
 20
-337.5
 11
413
 21
-512.5
  0
LINE
  8
0
  6
CONTINUOUS
 62
     7
 10
413
 20
-512.5
 11
429.5056762695313
 21
-512.5
  0
LINE
  8
0
  6
CONTINUOUS
 62
     7
 10
425
 20
-337.5
 11
425
 21
-512.5
  0
LINE
  8
0
  6
CONTINUOUS
 62
     7
 10
413
 20
-337.5
 11
457
 21
-337.5
  0
LINE
  8
0
  6
CONTINUOUS
 62
     7
 10
410
 20
-590
 11
640
 21
-590
  0
LINE
  8
0
  6
CONTINUOUS
 62
     7
 10
410
 20
-564
 11
457
 21
-564
  0
LINE
  8
0
  6
CONTINUOUS
 62
     7
 10
410
 20
-564
 11
410
 21
-590
  0
LINE
  8
0
  6
CONTINUOUS
 62
     7
 10
640
 20
-564
 11
640
 21
-590
  0
LINE
  8
0
  6
CONTINUOUS
 62
     3
 10
615
 20
-549
 11
615
 21
-605
  0
LINE
  8
0
  6
CONTINUOUS
 62
     7
 10
497.8508911132813
 20
-440.9664001464844
 11
578.0283203125
 21
-555.4715576171875
  0
LINE
  8
0
  6
CONTINUOUS
 62
     7
 10
428.0852966308594
 20
-528.7348022460938
 11
434.0599975585938
 21
-460.4436340332031
  0
LINE
  8
0
  6
CONTINUOUS
 62
     7
 10
452
 20
-310
 11
487
 21
-310
  0
LINE
  8
0
  6
CONTINUOUS
 62
     7
 10
467
 20
-310
 11
467
 21
-554
  0
LINE
  8
0
  6
CONTINUOUS
 62
     7
 10
487
 20
-310
 11
487
 21
-406.5518188476563
  0
LINE
  8
0
  6
CONTINUOUS
 62
     7
 10
452
 20
-310
 11
452
 21
-327.5
  0
LINE
  8
0
  6
CONTINUOUS
 62
     3
 10
435
 20
-549
 11
435
 21
-605
  0
LINE
  8
0
  6
CONTINUOUS
 62
     7
 10
300
 20
-388.5
 11
300
 21
-457.5
  0
LINE
  8
0
  6
CONTINUOUS
 62
     7
 10
300
 20
-392.5
 11
395
 21
-392.5
  0
LINE
  8
0
  6
CONTINUOUS
 62
     7
 10
300
 20
-457.5
 11
395
 21
-457.5
  0
LINE
  8
0
  6
CONTINUOUS
 62
     7
 10
395
 20
-387.5
 11
395
 21
-462.5
  0
LINE
  8
0
  6
CONTINUOUS
 62
     7
 10
395
 20
-387.5
 11
401
 21
-387.5
  0
LINE
  8
0
  6
CONTINUOUS
 62
     7
 10
395
 20
-462.5
 11
401
 21
-462.5
  0
LINE
  8
0
  6
DASHED
 62
     7
 10
425.5
 20
-564
 11
425.5
 21
-590
  0
LINE
  8
0
  6
DASHED
 62
     7
 10
444.5
 20
-564
 11
444.5
 21
-590
  0
LINE
  8
0
  6
DASHED
 62
     7
 10
624.5
 20
-564
 11
624.5
 21
-590
  0
LINE
  8
0
  6
DASHED
 62
     7
 10
605.5
 20
-564
 11
605.5
 21
-590
  0
LINE
  8
0
  6
CONTINUOUS
 62
     7
 10
300
 20
-388.5
 11
380
 21
-388.5
  0
LINE
  8
0
  6
CONTINUOUS
 62
     7
 10
380
 20
-388.5
 11
380
 21
-392.5
  0
LINE
  8
0
  6
CONTINUOUS
 62
     7
 10
594.411376953125
 20
-564
 11
640
 21
-564
  0
LINE
  8
0
  6
CONTINUOUS
 62
     7
 10
455
 20
-418.6360473632812
 11
448.6360473632813
 21
-425
  0
LINE
  8
0
  6
CONTINUOUS
 62
     7
 10
448.6360473632813
 20
-425
 11
455
 21
-431.3639526367188
  0
LINE
  8
0
  6
CONTINUOUS
 62
     7
 10
455
 20
-431.3639526367188
 11
461.3639526367187
 21
-425
  0
LINE
  8
0
  6
CONTINUOUS
 62
     7
 10
461.3639526367187
 20
-425
 11
455
 21
-418.6360473632812
  0
LINE
  8
0
  6
CONTINUOUS
 62
     7
 10
400.9999694824219
 20
-370.0000305175781
 11
412.9999694824219
 21
-337.5
  0
LINE
  8
0
  6
CONTINUOUS
 62
     7
 10
401
 20
-480
 11
413
 21
-512.5
  0
LINE
  8
0
  6
CONTINUOUS
 62
     7
 10
617.5
 20
-500
 11
650.5
 21
-500
  0
LINE
  8
0
  6
CONTINUOUS
 62
     7
 10
614
 20
-352.5
 11
614
 21
-497.5
  0
LINE
  8
0
  6
CONTINUOUS
 62
     7
 10
617.5
 20
-495.4512939453125
 11
650.5
 21
-495.4512939453125
  0
LINE
  8
0
  6
CONTINUOUS
 62
     7
 10
617.5
 20
-350
 11
650.5
 21
-350
  0
LINE
  8
0
  6
CONTINUOUS
 62
     7
 10
617.5
 20
-350.0000305175781
 11
614.0000610351563
 21
-354.1609191894531
  0
LINE
  8
0
  6
CONTINUOUS
 62
     7
 10
650.5
 20
-350
 11
654
 21
-354.160888671875
  0
LINE
  8
0
  6
CONTINUOUS
 62
     7
 10
654
 20
-352.5
 11
654
 21
-497.5
  0
LINE
  8
0
  6
CONTINUOUS
 62
     7
 10
617.5
 20
-499.9999694824219
 11
614.0000610351563
 21
-495.839111328125
  0
LINE
  8
0
  6
CONTINUOUS
 62
     7
 10
650.5000610351562
 20
-500
 11
654
 21
-495.839111328125
  0
LINE
  8
0
  6
CONTINUOUS
 62
     7
 10
617.5
 20
-395.5653076171875
 11
650.5
 21
-395.5653076171875
  0
LINE
  8
0
  6
CONTINUOUS
 62
     7
 10
617.5
 20
-404.2552795410156
 11
650.5
 21
-404.2552795410156
  0
LINE
  8
0
  6
CONTINUOUS
 62
     7
 10
617.5
 20
-412.0502319335938
 11
650.5
 21
-412.0502319335938
  0
LINE
  8
0
  6
CONTINUOUS
 62
     7
 10
617.5
 20
-421.0000610351562
 11
650.5
 21
-421.0000610351562
  0
LINE
  8
0
  6
CONTINUOUS
 62
     7
 10
617.5
 20
-429.0000915527344
 11
650.5
 21
-429.0000915527344
  0
LINE
  8
0
  6
CONTINUOUS
 62
     7
 10
617.5
 20
-437.9499206542969
 11
650.5
 21
-437.9499206542969
  0
LINE
  8
0
  6
CONTINUOUS
 62
     7
 10
617.5
 20
-445.744873046875
 11
650.5
 21
-445.744873046875
  0
LINE
  8
0
  6
CONTINUOUS
 62
     7
 10
617.5
 20
-454.4347839355469
 11
650.5
 21
-454.4347839355469
  0
LINE
  8
0
  6
CONTINUOUS
 62
     7
 10
617.5
 20
-470.0232543945312
 11
650.5
 21
-470.0232543945312
  0
LINE
  8
0
  6
CONTINUOUS
 62
     7
 10
617.5
 20
-477.0454406738281
 11
650.5
 21
-477.0454406738281
  0
LINE
  8
0
  6
CONTINUOUS
 62
     7
 10
617.5
 20
-482.5014343261719
 11
650.5
 21
-482.5014343261719
  0
LINE
  8
0
  6
CONTINUOUS
 62
     7
 10
617.5
 20
-487.8594360351563
 11
650.5
 21
-487.8594360351563
  0
LINE
  8
0
  6
CONTINUOUS
 62
     7
 10
617.5
 20
-491.8594360351563
 11
650.5
 21
-491.8594360351563
  0
LINE
  8
0
  6
CONTINUOUS
 62
     3
 10
554
 20
-259.3060302734375
 11
554
 21
-320.4281005859375
  0
LINE
  8
0
  6
CONTINUOUS
 62
     3
 10
-153.25
 20
-425
 11
150.8310241699219
 21
-425
  0
LINE
  8
0
  6
CONTINUOUS
 62
     3
 10
0
 20
-251
 11
0
 21
-601.5166015625
  0
LINE
  8
0
  6
CONTINUOUS
 62
     3
 10
56.29155731201172
 20
-392.4999694824219
 11
73.61206817626953
 21
-382.4999694824219
  0
LINE
  8
0
  6
CONTINUOUS
 62
     3
 10
-56.29162979125977
 20
-392.4999389648438
 11
-73.61212921142578
 21
-382.4999389648437
  0
LINE
  8
0
  6
CONTINUOUS
 62
     3
 10
-56.29169082641602
 20
-457.4999084472656
 11
-73.61219787597656
 21
-467.4999084472656
  0
LINE
  8
0
  6
CONTINUOUS
 62
     3
 10
56.2916145324707
 20
-457.4999694824219
 11
73.61212158203125
 21
-467.4999694824219
  0
LINE
  8
0
  6
CONTINUOUS
 62
     3
 10
-112.5
 20
-549
 11
-112.5
 21
-605
  0
LINE
  8
0
  6
CONTINUOUS
 62
     3
 10
112.5
 20
-549
 11
112.5
 21
-605
  0
LINE
  8
0
  6
CONTINUOUS
 62
     7
 10
80
 20
-460.443603515625
 11
80
 21
-501.1348266601562
  0
LINE
  8
0
  6
CONTINUOUS
 62
     7
 10
-53.17486572265625
 20
-505
 11
-35.443603515625
 21
-505
  0
LINE
  8
0
  6
CONTINUOUS
 62
     7
 10
-137.5
 20
-447.5
 11
-137.5
 21
-590
  0
LINE
  8
0
  6
CONTINUOUS
 62
     7
 10
137.5
 20
-447.5
 11
137.5
 21
-590
  0
LINE
  8
0
  6
CONTINUOUS
 62
     7
 10
-137.5
 20
-590
 11
-67.5
 21
-590
  0
LINE
  8
0
  6
CONTINUOUS
 62
     7
 10
-137.5
 20
-564
 11
-67.5
 21
-564
  0
LINE
  8
0
  6
CONTINUOUS
 62
     7
 10
67.5
 20
-564
 11
67.5
 21
-590
  0
LINE
  8
0
  6
CONTINUOUS
 62
     7
 10
-67.5
 20
-564
 11
-67.5
 21
-590
  0
LINE
  8
0
  6
CONTINUOUS
 62
     7
 10
67.5
 20
-564
 11
137.5
 21
-564
  0
LINE
  8
0
  6
CONTINUOUS
 62
     7
 10
67.5
 20
-590
 11
137.5
 21
-590
  0
LINE
  8
0
  6
CONTINUOUS
 62
     7
 10
-62.5
 20
-587
 11
62.5
 21
-587
  0
LINE
  8
0
  6
CONTINUOUS
 62
     7
 10
-62.5
 20
-570
 11
-25
 21
-570
  0
LINE
  8
0
  6
CONTINUOUS
 62
     7
 10
25
 20
-570
 11
62.5
 21
-570
  0
LINE
  8
0
  6
CONTINUOUS
 62
     7
 10
-67.50003051757812
 20
-564
 11
-63.1368293762207
 21
-514.12841796875
  0
LINE
  8
0
  6
CONTINUOUS
 62
     7
 10
-85.50004577636719
 20
-564
 11
-80.00003814697266
 21
-501.1346435546875
  0
LINE
  8
0
  6
CONTINUOUS
 62
     7
 10
67.49996185302734
 20
-564
 11
63.13677215576172
 21
-514.12841796875
  0
LINE
  8
0
  6
CONTINUOUS
 62
     7
 10
85.49997711181641
 20
-564
 11
79.99999237060547
 21
-501.1347961425781
  0
LINE
  8
0
  6
CONTINUOUS
 62
     7
 10
35.443603515625
 20
-505
 11
53.1748046875
 21
-505
  0
LINE
  8
0
  6
CONTINUOUS
 62
     7
 10
-80
 20
-460.443603515625
 11
-80
 21
-501.1346435546875
  0
LINE
  8
0
  6
CONTINUOUS
 62
     3
 10
87.76786804199219
 20
-461.3553161621094
 11
106.2455673217773
 21
-469.009033203125
  0
LINE
  8
0
  6
CONTINUOUS
 62
     3
 10
87.76850128173828
 20
-388.6451110839844
 11
106.2461471557617
 21
-380.9913940429687
  0
LINE
  8
0
  6
CONTINUOUS
 62
     3
 10
36.35480880737305
 20
-337.2314758300781
 11
44.00850296020508
 21
-318.7538146972656
  0
LINE
  8
0
  6
CONTINUOUS
 62
     3
 10
-36.3551139831543
 20
-337.2315063476563
 11
-44.00880432128906
 21
-318.7538452148437
  0
LINE
  8
0
  6
CONTINUOUS
 62
     3
 10
-87.76860809326172
 20
-388.6453552246094
 11
-106.2463150024414
 21
-380.9916381835938
  0
LINE
  8
0
  6
CONTINUOUS
 62
     3
 10
-87.76837158203125
 20
-461.3550720214844
 11
-106.2460784912109
 21
-469.0087585449219
  0
LINE
  8
0
  6
CONTINUOUS
 62
     3
 10
-36.35486221313477
 20
-512.7683715820312
 11
-44.00858306884766
 21
-531.2460327148437
  0
LINE
  8
0
  6
CONTINUOUS
 62
     3
 10
36.35441207885742
 20
-512.7683715820312
 11
44.00812149047852
 21
-531.2460327148437
  0
LINE
  8
0
  6
CONTINUOUS
 62
     7
 10
20
 20
-311.4623413085937
 11
20
 21
-332.2301330566406
  0
LINE
  8
0
  6
CONTINUOUS
 62
     7
 10
-20
 20
-311.4623413085937
 11
-20
 21
-332.2301330566406
  0
LINE
  8
0
  6
DASHED
 62
     7
 10
-122
 20
-564
 11
-122
 21
-590
  0
LINE
  8
0
  6
DASHED
 62
     7
 10
-103
 20
-564
 11
-103
 21
-590
  0
LINE
  8
0
  6
DASHED
 62
     7
 10
122
 20
-564
 11
122
 21
-590
  0
LINE
  8
0
  6
DASHED
 62
     7
 10
103
 20
-564
 11
103
 21
-590
  0
LINE
  8
0
  6
CONTINUOUS
 62
     7
 10
-9
 20
-399.5
 11
9
 21
-399.5
  0
LINE
  8
0
  6
CONTINUOUS
 62
     7
 10
-9
 20
-388.5
 11
-9
 21
-399.5
  0
LINE
  8
0
  6
CONTINUOUS
 62
     7
 10
9
 20
-388.5
 11
9
 21
-399.5
  0
LINE
  8
0
  6
CONTINUOUS
 62
     7
 10
-9
 20
-388.5
 11
9
 21
-388.5
  0
LINE
  8
0
  6
CONTINUOUS
 62
     7
 10
100.489990234375
 20
-430.9497680664063
 11
100.489990234375
 21
-419.0502319335937
  0
LINE
  8
0
  6
CONTINUOUS
 62
     7
 10
92.489990234375
 20
-431.7359313964844
 11
92.489990234375
 21
-418.2640686035156
  0
LINE
  8
0
  6
CONTINUOUS
 62
     7
 10
92.49000549316406
 20
-431.7359313964844
 11
87.25282287597656
 21
-431.572265625
  0
LINE
  8
0
  6
CONTINUOUS
 62
     7
 10
92.49000549316406
 20
-418.2640686035156
 11
87.25281524658203
 21
-418.427734375
  0
LINE
  8
0
  6
CONTINUOUS
 62
     7
 10
100.489990234375
 20
-430.9497680664063
 11
92.489990234375
 21
-430.9497680664063
  0
LINE
  8
0
  6
CONTINUOUS
 62
     7
 10
100.489990234375
 20
-419.0502319335937
 11
92.489990234375
 21
-419.0502319335937
  0
LINE
  8
0
  6
CONTINUOUS
 62
     3
 10
100.4899749755859
 20
-419.05029296875
 11
92.48996734619141
 21
-425.0000610351562
  0
LINE
  8
0
  6
CONTINUOUS
 62
     7
 10
92.489990234375
 20
-425
 11
100.489990234375
 21
-425
  0
LINE
  8
0
  6
CONTINUOUS
 62
     3
 10
100.4900131225586
 20
-425.0000305175781
 11
92.48998260498047
 21
-419.0502624511719
  0
LINE
  8
0
  6
CONTINUOUS
 62
     3
 10
92.49002075195313
 20
-425
 11
100.4899978637695
 21
-430.9497375488281
  0
LINE
  8
0
  6
CONTINUOUS
 62
     3
 10
100.4899978637695
 20
-424.9999694824219
 11
92.49002075195313
 21
-430.94970703125
  0
LINE
  8
0
  6
CONTINUOUS
 62
     7
 10
37.02909088134766
 20
-300.488525390625
 11
21.30066299438477
 21
-296.8573303222656
  0
LINE
  8
0
  6
CONTINUOUS
 62
     7
 10
35.42986679077148
 20
-309.3560485839844
 11
18.85082817077637
 21
-305.5284729003906
  0
LINE
  8
0
  6
CONTINUOUS
 62
     7
 10
35.42986679077148
 20
-309.3560180664063
 11
34.5485725402832
 21
-312.6939697265625
  0
LINE
  8
0
  6
CONTINUOUS
 62
     7
 10
18.85085868835449
 20
-305.5284729003906
 11
18.17970085144043
 21
-308.9149475097656
  0
LINE
  8
0
  6
CONTINUOUS
 62
     7
 10
37.02914428710938
 20
-300.488525390625
 11
35.00458526611328
 21
-309.2578430175781
  0
LINE
  8
0
  6
CONTINUOUS
 62
     7
 10
21.30068588256836
 20
-296.8573303222656
 11
19.27612686157227
 21
-305.6266479492188
  0
LINE
  8
0
  6
CONTINUOUS
 62
     7
 10
-10
 20
-307.5
 11
-10
 21
-307.9263000488281
  0
LINE
  8
0
  6
CONTINUOUS
 62
     7
 10
10
 20
-307.5
 11
10
 21
-307.9263000488281
  0
LINE
  8
0
  6
CONTINUOUS
 62
     3
 10
19.27609062194824
 20
-305.6266784667969
 11
29.16484832763672
 21
-298.6729125976563
  0
LINE
  8
0
  6
CONTINUOUS
 62
     3
 10
21.30071449279785
 20
-296.8572998046875
 11
27.14034843444824
 21
-307.4422302246094
  0
LINE
  8
0
  6
CONTINUOUS
 62
     7
 10
27.14032554626465
 20
-307.4422607421875
 11
29.16488456726074
 21
-298.6729125976563
  0
LINE
  8
0
  6
CONTINUOUS
 62
     3
 10
35.00458908081055
 20
-309.2578430175781
 11
29.1648998260498
 21
-298.6729125976563
  0
LINE
  8
0
  6
CONTINUOUS
 62
     3
 10
37.02912139892578
 20
-300.488525390625
 11
27.14031028747559
 21
-307.4422607421875
  0
LINE
  8
0
  6
CONTINUOUS
 62
     3
 10
30.92712020874023
 20
-291.0398254394531
 11
25.86935424804688
 21
-312.9474182128906
  0
LINE
  8
0
  6
CONTINUOUS
 62
     7
 10
-10.99948310852051
 20
-308.0158386230469
 11
-11.71884536743164
 21
-310.5003051757813
  0
LINE
  8
0
  6
CONTINUOUS
 62
     7
 10
-37.16403579711914
 20
-313.5322570800781
 11
-37.03377532958984
 21
-315.0811767578125
  0
LINE
  8
0
  6
CONTINUOUS
 62
     7
 10
-27.55035018920898
 20
-310.7750244140625
 11
-26.61274147033691
 21
-312.5999755859375
  0
LINE
  8
0
  6
CONTINUOUS
 62
     3
 10
285
 20
0
 11
742.52392578125
 21
0
  0
LINE
  8
0
  6
CONTINUOUS
 62
     7
 10
539
 20
114.9999694824219
 11
539
 21
4
  0
LINE
  8
0
  6
CONTINUOUS
 62
     7
 10
539
 20
114.9999694824219
 11
557
 21
114.9999694824219
  0
LINE
  8
0
  6
CONTINUOUS
 62
     7
 10
539
 20
-115
 11
557
 21
-115
  0
LINE
  8
0
  6
CONTINUOUS
 62
     7
 10
557
 20
114.9999694824219
 11
557
 21
12.43438720703125
  0
LINE
  8
0
  6
CONTINUOUS
 62
     7
 10
604
 20
72.49996948242187
 11
604
 21
-72.5
  0
LINE
  8
0
  6
CONTINUOUS
 62
     7
 10
604
 20
-72.5
 11
614
 21
-72.5
  0
LINE
  8
0
  6
CONTINUOUS
 62
     7
 10
604
 20
72.49996948242187
 11
614
 21
72.49996948242187
  0
LINE
  8
0
  6
CONTINUOUS
 62
     7
 10
572
 20
77.49996948242187
 11
572
 21
3.708099365234375
  0
LINE
  8
0
  6
CONTINUOUS
 62
     7
 10
562
 20
-82.5
 11
567
 21
-82.5
  0
LINE
  8
0
  6
CONTINUOUS
 62
     7
 10
562
 20
82.49996948242188
 11
567
 21
82.49996948242188
  0
LINE
  8
0
  6
CONTINUOUS
 62
     7
 10
566
 20
-48.60113525390625
 11
566
 21
-4
  0
LINE
  8
0
  6
CONTINUOUS
 62
     7
 10
557.0000610351563
 20
12.43437957763672
 11
566
 21
10.02284812927246
  0
LINE
  8
0
  6
CONTINUOUS
 62
     7
 10
557
 20
-51.01266860961914
 11
566
 21
-48.60112380981445
  0
LINE
  8
0
  6
CONTINUOUS
 62
     7
 10
557
 20
-51.01266479492187
 11
557
 21
-115
  0
LINE
  8
0
  6
CONTINUOUS
 62
     7
 10
572
 20
31.18218994140625
 11
604
 21
31.18218994140625
  0
LINE
  8
0
  6
CONTINUOUS
 62
     7
 10
572.0000610351563
 20
57.07564544677734
 11
604.0000610351563
 21
50.24576187133789
  0
LINE
  8
0
  6
CONTINUOUS
 62
     7
 10
572
 20
-31.18218994140625
 11
604
 21
-31.18218994140625
  0
LINE
  8
0
  6
CONTINUOUS
 62
     7
 10
572
 20
-57.07559967041016
 11
604.0000610351563
 21
-50.2457160949707
  0
LINE
  8
0
  6
CONTINUOUS
 62
     7
 10
537.5
 20
4
 11
570.5
 21
4
  0
LINE
  8
0
  6
CONTINUOUS
 62
     7
 10
537.5
 20
-4
 11
570.5
 21
-4
  0
LINE
  8
0
  6
CONTINUOUS
 62
     7
 10
566
 20
4
 11
566
 21
10.0228271484375
  0
LINE
  8
0
  6
CONTINUOUS
 62
     7
 10
572
 20
-3.708099365234375
 11
572
 21
-77.5
  0
LINE
  8
0
  6
CONTINUOUS
 62
     7
 10
539
 20
-4
 11
539
 21
-115
  0
LINE
  8
0
  6
CONTINUOUS
 62
     3
 10
554
 20
-41.39582061767578
 11
554
 21
-13.01672077178955
  0
LINE
  8
0
  6
CONTINUOUS
 62
     7
 10
491
 20
117.4999694824219
 11
535
 21
117.4999694824219
  0
LINE
  8
0
  6
CONTINUOUS
 62
     7
 10
491
 20
-117.5
 11
535
 21
-117.5
  0
LINE
  8
0
  6
CONTINUOUS
 62
     7
 10
491
 20
-111.4677429199219
 11
535
 21
-111.4677429199219
  0
LINE
  8
0
  6
CONTINUOUS
 62
     7
 10
487.0000305175781
 20
113.4999389648438
 11
491.0000305175781
 21
117.4999389648437
  0
LINE
  8
0
  6
CONTINUOUS
 62
     7
 10
534.9998168945313
 20
117.4999465942383
 11
538.9998168945312
 21
113.4999389648438
  0
LINE
  8
0
  6
CONTINUOUS
 62
     7
 10
539
 20
-113.5000686645508
 11
535
 21
-117.5000686645508
  0
LINE
  8
0
  6
CONTINUOUS
 62
     7
 10
491.0001220703125
 20
-117.499885559082
 11
487.0001220703125
 21
-113.4998474121094
  0
LINE
  8
0
  6
CONTINUOUS
 62
     7
 10
491
 20
111.4676208496094
 11
535
 21
111.4676208496094
  0
LINE
  8
0
  6
CONTINUOUS
 62
     7
 10
491
 20
105.0982360839844
 11
535
 21
105.0982360839844
  0
LINE
  8
0
  6
CONTINUOUS
 62
     7
 10
491
 20
100.2502136230469
 11
535
 21
100.2502136230469
  0
LINE
  8
0
  6
CONTINUOUS
 62
     7
 10
491
 20
90.49581909179687
 11
535
 21
90.49581909179687
  0
LINE
  8
0
  6
CONTINUOUS
 62
     7
 10
491
 20
74.94113159179688
 11
535
 21
74.94113159179688
  0
LINE
  8
0
  6
CONTINUOUS
 62
     7
 10
491
 20
61.28469848632813
 11
535
 21
61.28469848632813
  0
LINE
  8
0
  6
CONTINUOUS
 62
     7
 10
491
 20
52.53948974609375
 11
535
 21
52.53948974609375
  0
LINE
  8
0
  6
CONTINUOUS
 62
     7
 10
491
 20
37.16400146484375
 11
535
 21
37.16400146484375
  0
LINE
  8
0
  6
CONTINUOUS
 62
     7
 10
491
 20
27.5504150390625
 11
535
 21
27.5504150390625
  0
LINE
  8
0
  6
CONTINUOUS
 62
     7
 10
491
 20
10.99948120117188
 11
535
 21
10.99948120117188
  0
LINE
  8
0
  6
CONTINUOUS
 62
     7
 10
491
 20
-90.49783325195313
 11
535
 21
-90.49783325195313
  0
LINE
  8
0
  6
CONTINUOUS
 62
     7
 10
491
 20
-100.2507019042969
 11
535
 21
-100.2507019042969
  0
LINE
  8
0
  6
CONTINUOUS
 62
     7
 10
491
 20
-105.0988464355469
 11
535
 21
-105.0988464355469
  0
LINE
  8
0
  6
CONTINUOUS
 62
     7
 10
425
 20
87.5
 11
425
 21
-87.5
  0
LINE
  8
0
  6
CONTINUOUS
 62
     7
 10
413
 20
87.5
 11
444.5633850097656
 21
87.5
  0
LINE
  8
0
  6
CONTINUOUS
 62
     7
 10
413
 20
87.5
 11
413
 21
-87.5
  0
LINE
  8
0
  6
CONTINUOUS
 62
     7
 10
401
 20
55
 11
401
 21
-55
  0
LINE
  8
0
  6
CONTINUOUS
 62
     7
 10
413
 20
-87.5
 11
444.5634765625
 21
-87.5
  0
LINE
  8
0
  6
CONTINUOUS
 62
     7
 10
401
 20
55.00004196166992
 11
413
 21
87.50001525878906
  0
LINE
  8
0
  6
CONTINUOUS
 62
     7
 10
400.9999694824219
 20
-54.99995803833008
 11
412.9999694824219
 21
-87.49998474121094
  0
LINE
  8
0
  6
CONTINUOUS
 62
     7
 10
487
 20
125.5
 11
487
 21
-125.5
  0
LINE
  8
0
  6
CONTINUOUS
 62
     7
 10
467
 20
137.5
 11
467
 21
25.98077392578125
  0
LINE
  8
0
  6
CONTINUOUS
 62
     7
 10
420
 20
137.5
 11
630
 21
137.5
  0
LINE
  8
0
  6
CONTINUOUS
 62
     7
 10
420
 20
-137.5
 11
630
 21
-137.5
  0
LINE
  8
0
  6
CONTINUOUS
 62
     7
 10
467
 20
-25.98077392578125
 11
467
 21
-137.5
  0
LINE
  8
0
  6
CONTINUOUS
 62
     7
 10
410
 20
127.5
 11
410
 21
79.37493896484375
  0
LINE
  8
0
  6
CONTINUOUS
 62
     7
 10
410
 20
-79.375
 11
410
 21
-127.5
  0
LINE
  8
0
  6
CONTINUOUS
 62
     7
 10
640
 20
127.5
 11
640
 21
90.98663330078125
  0
LINE
  8
0
  6
CONTINUOUS
 62
     7
 10
640
 20
-90.986572265625
 11
640
 21
-127.5
  0
LINE
  8
0
  6
CONTINUOUS
 62
     7
 10
572
 20
71.29118347167969
 11
631.6264038085938
 21
81.11972045898437
  0
LINE
  8
0
  6
CONTINUOUS
 62
     7
 10
572
 20
-71.29117584228516
 11
631.6264038085938
 21
-81.11970520019531
  0
LINE
  8
0
  6
CONTINUOUS
 62
     3
 10
420
 20
112.4999389648438
 11
450
 21
112.4999389648438
  0
LINE
  8
0
  6
CONTINUOUS
 62
     3
 10
435
 20
127.4999389648437
 11
435
 21
97.49993896484375
  0
LINE
  8
0
  6
CONTINUOUS
 62
     3
 10
435
 20
-97.50006103515625
 11
435
 21
-127.5000610351562
  0
LINE
  8
0
  6
CONTINUOUS
 62
     3
 10
420
 20
-112.5000610351562
 11
450
 21
-112.5000610351562
  0
LINE
  8
0
  6
CONTINUOUS
 62
     3
 10
615
 20
-97.50006103515625
 11
615
 21
-127.5000610351562
  0
LINE
  8
0
  6
CONTINUOUS
 62
     3
 10
600
 20
-112.5000610351562
 11
630
 21
-112.5000610351562
  0
LINE
  8
0
  6
CONTINUOUS
 62
     3
 10
615
 20
127.4999389648437
 11
615
 21
97.49993896484375
  0
LINE
  8
0
  6
CONTINUOUS
 62
     3
 10
600
 20
112.4999389648438
 11
630
 21
112.4999389648438
  0
LINE
  8
0
  6
CONTINUOUS
 62
     7
 10
300
 20
32.5
 11
300
 21
-32.5
  0
LINE
  8
0
  6
CONTINUOUS
 62
     7
 10
395
 20
37.5
 11
395
 21
-37.5
  0
LINE
  8
0
  6
CONTINUOUS
 62
     7
 10
300
 20
-32.5
 11
395
 21
-32.5
  0
LINE
  8
0
  6
CONTINUOUS
 62
     7
 10
300
 20
32.5
 11
395
 21
32.5
  0
LINE
  8
0
  6
CONTINUOUS
 62
     7
 10
395
 20
37.5
 11
401
 21
37.5
  0
LINE
  8
0
  6
CONTINUOUS
 62
     7
 10
395
 20
-37.5
 11
401
 21
-37.5
  0
LINE
  8
0
  6
CONTINUOUS
 62
     7
 10
300
 20
-9
 11
381
 21
-9
  0
LINE
  8
0
  6
CONTINUOUS
 62
     7
 10
300
 20
9
 11
381
 21
9
  0
LINE
  8
0
  6
CONTINUOUS
 62
     3
 10
455
 20
-80.56817626953125
 11
455
 21
-107.5
  0
LINE
  8
0
  6
CONTINUOUS
 62
     7
 10
445.4349670410156
 20
87.53807830810547
 11
457.87158203125
 21
88.62614440917969
  0
LINE
  8
0
  6
CONTINUOUS
 62
     7
 10
445.4350280761719
 20
-87.53804016113281
 11
457.8715515136719
 21
-88.62609100341797
  0
LINE
  8
0
  6
CONTINUOUS
 62
     7
 10
380
 20
9
 11
380
 21
-9
  0
LINE
  8
0
  6
CONTINUOUS
 62
     7
 10
449.0502624511719
 20
-100.489990234375
 11
460.9497375488281
 21
-100.489990234375
  0
LINE
  8
0
  6
CONTINUOUS
 62
     7
 10
448.2640686035156
 20
-92.489990234375
 11
461.7359313964844
 21
-92.489990234375
  0
LINE
  8
0
  6
CONTINUOUS
 62
     7
 10
448.2640380859375
 20
-92.48996734619141
 11
448.4106750488281
 21
-87.79834747314453
  0
LINE
  8
0
  6
CONTINUOUS
 62
     7
 10
461.7359619140625
 20
-92.48998260498047
 11
461.6498718261719
 21
-89.73488616943359
  0
LINE
  8
0
  6
CONTINUOUS
 62
     7
 10
449.0502624511719
 20
-100.489990234375
 11
449.0502624511719
 21
-92.489990234375
  0
LINE
  8
0
  6
CONTINUOUS
 62
     7
 10
460.9497375488281
 20
-100.489990234375
 11
460.9497375488281
 21
-92.489990234375
  0
LINE
  8
0
  6
CONTINUOUS
 62
     7
 10
487
 20
-125.5
 11
579
 21
-125.5
  0
LINE
  8
0
  6
CONTINUOUS
 62
     7
 10
487
 20
125.5
 11
579
 21
125.5
  0
LINE
  8
0
  6
CONTINUOUS
 62
     3
 10
449.0502319335938
 20
-92.48995208740234
 11
454.9999694824219
 21
-100.4899444580078
  0
LINE
  8
0
  6
CONTINUOUS
 62
     7
 10
455
 20
-100.489990234375
 11
455
 21
-92.489990234375
  0
LINE
  8
0
  6
CONTINUOUS
 62
     3
 10
455
 20
-92.489990234375
 11
460.9497375488281
 21
-100.4899826049805
  0
LINE
  8
0
  6
CONTINUOUS
 62
     3
 10
460.9497375488281
 20
-92.48997497558594
 11
455.0000305175781
 21
-100.4899673461914
  0
LINE
  8
0
  6
CONTINUOUS
 62
     3
 10
455
 20
-92.48995971679687
 11
449.0502624511719
 21
-100.4899749755859
  0
LINE
  8
0
  6
CONTINUOUS
 62
     7
 10
614
 20
72.49996948242187
 11
614
 21
-72.5
  0
LINE
  8
0
  6
CONTINUOUS
 62
     7
 10
654
 20
72.50002288818359
 11
654
 21
20.85109329223633
  0
LINE
  8
0
  6
CONTINUOUS
 62
     7
 10
617.5
 20
75
 11
650.5
 21
75
  0
LINE
  8
0
  6
CONTINUOUS
 62
     7
 10
617.4999389648437
 20
75
 11
613.9999389648438
 21
70.83910369873047
  0
LINE
  8
0
  6
CONTINUOUS
 62
     7
 10
650.5
 20
74.99996185302734
 11
654.0000610351562
 21
70.83907318115234
  0
LINE
  8
0
  6
CONTINUOUS
 62
     7
 10
650.5
 20
-75.00001525878906
 11
654
 21
-70.83911895751953
  0
LINE
  8
0
  6
CONTINUOUS
 62
     7
 10
617.5
 20
-75
 11
650.5
 21
-75
  0
LINE
  8
0
  6
CONTINUOUS
 62
     7
 10
617.5
 20
-74.99998474121094
 11
614
 21
-70.839111328125
  0
LINE
  8
0
  6
CONTINUOUS
 62
     7
 10
617.5
 20
72.07391357421875
 11
650.5
 21
72.07391357421875
  0
LINE
  8
0
  6
CONTINUOUS
 62
     7
 10
617.5
 20
68.98251342773437
 11
650.5
 21
68.98251342773437
  0
LINE
  8
0
  6
CONTINUOUS
 62
     7
 10
617.5
 20
59.98248291015625
 11
650.5
 21
59.98248291015625
  0
LINE
  8
0
  6
CONTINUOUS
 62
     7
 10
617.5
 20
54.0025634765625
 11
650.5
 21
54.0025634765625
  0
LINE
  8
0
  6
CONTINUOUS
 62
     7
 10
617.5
 20
40.91079711914063
 11
650.5
 21
40.91079711914063
  0
LINE
  8
0
  6
CONTINUOUS
 62
     7
 10
617.5
 20
48.15170288085938
 11
650.5
 21
48.15170288085938
  0
LINE
  8
0
  6
CONTINUOUS
 62
     7
 10
617.5
 20
33.98257446289063
 11
650.5
 21
33.98257446289063
  0
LINE
  8
0
  6
CONTINUOUS
 62
     7
 10
617.5
 20
25.72195434570313
 11
650.5
 21
25.72195434570313
  0
LINE
  8
0
  6
CONTINUOUS
 62
     7
 10
617.5
 20
18.07150268554688
 11
650.5
 21
18.07150268554688
  0
LINE
  8
0
  6
CONTINUOUS
 62
     7
 10
617.5
 20
9.00006103515625
 11
650.5
 21
9.00006103515625
  0
LINE
  8
0
  6
CONTINUOUS
 62
     7
 10
617.5
 20
-68.98260498046875
 11
650.5
 21
-68.98260498046875
  0
LINE
  8
0
  6
CONTINUOUS
 62
     7
 10
617.5
 20
-72.07395935058594
 11
650.5
 21
-72.07395935058594
  0
LINE
  8
0
  6
CONTINUOUS
 62
     3
 10
540.6239013671875
 20
-25.86935424804688
 11
564.8161010742187
 21
-25.86935424804688
  0
LINE
  8
0
  6
CONTINUOUS
 62
     7
 10
8.940571784973145
 20
-301.4916076660156
 11
10.00001239776611
 21
-307.4999694824219
  0
LINE
  8
0
  6
CONTINUOUS
 62
     7
 10
4.000018119812012
 20
-299.7510986328125
 11
7.986564636230469
 21
-300.5218200683594
  0
LINE
  8
0
  6
CONTINUOUS
 62
     7
 10
4
 20
-270
 11
4
 21
-305.1000061035156
  0
LINE
  8
0
  6
CONTINUOUS
 62
     7
 10
-8.940560340881348
 20
-301.4916381835938
 11
-9.999964714050293
 21
-307.4998168945312
  0
LINE
  8
0
  6
CONTINUOUS
 62
     7
 10
-4.000066757202148
 20
-299.7511291503906
 11
-7.986617088317871
 21
-300.5218505859375
  0
LINE
  8
0
  6
CONTINUOUS
 62
     7
 10
-4
 20
-270
 11
-4
 21
-305.1000061035156
  0
LINE
  8
0
  6
CONTINUOUS
 62
     7
 10
654
 20
0
 11
654
 21
-72.49997711181641
  0
LINE
  8
0
  6
CONTINUOUS
 62
     7
 10
554
 20
-19.27609825134277
 11
561.8862915039063
 21
-27.14031219482422
  0
LINE
  8
0
  6
CONTINUOUS
 62
     7
 10
546.1137084960938
 20
-27.14027786254883
 11
554
 21
-19.27606391906738
  0
LINE
  8
0
  6
CONTINUOUS
 62
     7
 10
561.8862915039063
 20
-29.16488647460938
 11
561.8862915039063
 21
-27.14028930664062
  0
LINE
  8
0
  6
CONTINUOUS
 62
     7
 10
546.1136474609375
 20
-29.16488647460938
 11
546.1136474609375
 21
-27.14028930664062
  0
LINE
  8
0
  6
CONTINUOUS
 62
     7
 10
554.0000610351563
 20
-21.30060386657715
 11
546.1137084960938
 21
-29.16481781005859
  0
LINE
  8
0
  6
CONTINUOUS
 62
     7
 10
561.8862915039063
 20
-29.16489410400391
 11
553.9999389648438
 21
-21.30068016052246
  0
LINE
  8
0
  6
CONTINUOUS
 62
     7
 10
546.1136474609375
 20
-29.16490364074707
 11
553.9999389648438
 21
-37.02907562255859
  0
LINE
  8
0
  6
CONTINUOUS
 62
     7
 10
554
 20
-37.02901840209961
 11
561.8863525390625
 21
-29.16482543945312
  0
LINE
  8
0
  6
CONTINUOUS
 62
     7
 10
554
 20
-21.30062866210937
 11
554
 21
-19.27609252929688
  0
LINE
  8
0
  6
CONTINUOUS
 62
     3
 10
546.1136474609375
 20
-29.16483306884766
 11
554
 21
-19.27605628967285
  0
LINE
  8
0
  6
CONTINUOUS
 62
     3
 10
554
 20
-21.30060768127441
 11
546.1136474609375
 21
-27.14026641845703
  0
LINE
  8
0
  6
CONTINUOUS
 62
     3
 10
554
 20
-19.27606010437012
 11
561.8863525390625
 21
-29.16486167907715
  0
LINE
  8
0
  6
CONTINUOUS
 62
     3
 10
561.8863525390625
 20
-27.14029312133789
 11
554
 21
-21.30063629150391
  0
LINE
  8
0
  6
CONTINUOUS
 62
     7
 10
647.4603881835937
 20
-425
 11
677.2039184570313
 21
-425
  0
LINE
  8
0
  6
CONTINUOUS
 62
     7
 10
654
 20
-497.5
 11
654
 21
-352.5
  0
LINE
  8
0
  6
CONTINUOUS
 62
     7
 10
669
 20
-497.5
 11
669
 21
-352.5
  0
LINE
  8
0
  6
CONTINUOUS
 62
     7
 10
654
 20
-497.5
 11
669
 21
-497.5
  0
LINE
  8
0
  6
CONTINUOUS
 62
     7
 10
654
 20
-352.5
 11
669
 21
-352.5
  0
LINE
  8
0
  6
CONTINUOUS
 62
     7
 10
654
 20
-72.5
 11
654
 21
0
  0
LINE
  8
0
  6
CONTINUOUS
 62
     7
 10
669
 20
-72.5
 11
669
 21
0
  0
LINE
  8
0
  6
CONTINUOUS
 62
     7
 10
654
 20
-72.5
 11
669
 21
-72.5
  0
LINE
  8
0
  6
CONTINUOUS
 62
     7
 10
648.1091918945313
 20
0
 11
709.4835815429688
 21
0
  0
LINE
  8
0
  6
CONTINUOUS
 62
     7
 10
654
 20
72.5
 11
669
 21
72.5
  0
LINE
  8
0
  6
CONTINUOUS
 62
     7
 10
669
 20
0
 11
669
 21
72.5
  0
LINE
  8
0
  6
CONTINUOUS
 62
     7
 10
654
 20
0
 11
654
 21
72.5
  0
LINE
  8
0
  6
CONTINUOUS
 62
     7
 10
669
 20
-430
 11
709
 21
-430
  0
LINE
  8
0
  6
CONTINUOUS
 62
     7
 10
669
 20
-420
 11
709
 21
-420
  0
LINE
  8
0
  6
CONTINUOUS
 62
     7
 10
669
 20
-369
 11
709
 21
-369
  0
LINE
  8
0
  6
CONTINUOUS
 62
     7
 10
669
 20
-481
 11
709
 21
-481
  0
LINE
  8
0
  6
CONTINUOUS
 62
     7
 10
674
 20
-466
 11
704
 21
-466
  0
LINE
  8
0
  6
CONTINUOUS
 62
     7
 10
674
 20
-384
 11
704
 21
-384
  0
LINE
  8
0
  6
CONTINUOUS
 62
     7
 10
709
 20
-325
 11
709
 21
-525
  0
LINE
  8
0
  6
CONTINUOUS
 62
     7
 10
709
 20
-325
 11
724
 21
-325
  0
LINE
  8
0
  6
CONTINUOUS
 62
     7
 10
709
 20
-525
 11
724
 21
-525
  0
LINE
  8
0
  6
CONTINUOUS
 62
     7
 10
724
 20
-325
 11
724
 21
-525
  0
LINE
  8
0
  6
CONTINUOUS
 62
     7
 10
669
 20
5
 11
709
 21
5
  0
LINE
  8
0
  6
CONTINUOUS
 62
     7
 10
669
 20
-5
 11
709
 21
-5
  0
LINE
  8
0
  6
CONTINUOUS
 62
     7
 10
669
 20
56
 11
709
 21
56
  0
LINE
  8
0
  6
CONTINUOUS
 62
     7
 10
669
 20
-56
 11
709
 21
-56
  0
LINE
  8
0
  6
CONTINUOUS
 62
     7
 10
674
 20
-41
 11
704
 21
-41
  0
LINE
  8
0
  6
CONTINUOUS
 62
     7
 10
674
 20
41
 11
704
 21
41
  0
LINE
  8
0
  6
CONTINUOUS
 62
     7
 10
709
 20
100
 11
709
 21
-100
  0
LINE
  8
0
  6
CONTINUOUS
 62
     7
 10
709
 20
-100
 11
724
 21
-100
  0
LINE
  8
0
  6
CONTINUOUS
 62
     7
 10
724
 20
100
 11
724
 21
-100
  0
LINE
  8
0
  6
CONTINUOUS
 62
     7
 10
709
 20
100
 11
724
 21
100
  0
LINE
  8
0
  6
CONTINUOUS
 62
     7
 10
654
 20
11.02219772338867
 11
654
 21
0
  0
LINE
  8
0
  6
CONTINUOUS
 62
     7
 10
526.210205078125
 20
-286.5
 11
582.1600952148437
 21
-286.5
  0
ARC
  8
0
  6
CONTINUOUS
 62
     7
 10
567
 20
-502.5
 40
5.000000000000019
 50
270.0000179860897
 51
0
  0
ARC
  8
0
  6
CONTINUOUS
 62
     7
 10
562
 20
-512.5
 40
5.000000000000019
 50
89.99998201391031
 51
179.9999640278219
  0
ARC
  8
0
  6
CONTINUOUS
 62
     7
 10
562
 20
-337.5
 40
5.000000000000038
 50
179.9999776881996
 51
269.9999733624889
  0
ARC
  8
0
  6
CONTINUOUS
 62
     7
 10
567
 20
-347.5
 40
5
 50
359.9999453584866
 51
89.99992737239695
  0
ARC
  8
0
  6
CONTINUOUS
 62
     7
 10
568
 20
-340.5
 40
2.000000000000038
 50
179.9999776882003
 51
270.0000280040029
  0
ARC
  8
0
  6
CONTINUOUS
 62
     7
 10
568
 20
-509.5
 40
1.999999999999985
 50
89.99998201391097
 51
179.9999640278219
  0
ARC
  8
0
  6
CONTINUOUS
 62
     7
 10
554
 20
-286.5
 40
20.50000000000003
 50
296.8635071615864
 51
242.0139835780352
  0
ARC
  8
0
  6
CONTINUOUS
 62
     7
 10
554
 20
-286.5
 40
12.5
 50
0
 51
256.8639076639099
  0
ARC
  8
0
  6
CONTINUOUS
 62
     7
 10
554
 20
-286.5
 40
12.49999999999998
 50
283.1360905148572
 51
0
  0
ARC
  8
0
  6
CONTINUOUS
 62
     7
 10
594.411376953125
 20
-544
 40
19.99999999999996
 50
215.0000016568316
 51
270.0000179860893
  0
ARC
  8
0
  6
CONTINUOUS
 62
     7
 10
457
 20
-554
 40
10.00000000000004
 50
270.0000179860893
 51
0
  0
ARC
  8
0
  6
CONTINUOUS
 62
     7
 10
378.1835327148437
 20
-525.4291381835938
 40
49.99999999999996
 50
309.5186524105152
 51
354.9999975841326
  0
ARC
  8
0
  6
CONTINUOUS
 62
     7
 10
547
 20
-406.5518188476563
 40
60
 50
179.999991348578
 51
215.0000116747444
  0
CIRCLE
  8
0
  6
CONTINUOUS
 62
     3
 10
455
 20
-425
 40
6.735937595367432
  0
CIRCLE
  8
0
  6
CONTINUOUS
 62
     3
 10
455
 20
-490
 40
6.735937595367432
  0
ARC
  8
0
  6
CONTINUOUS
 62
     7
 10
442
 20
-327.5
 40
10.00000000000001
 50
269.9999974955218
 51
0
  0
ARC
  8
0
  6
CONTINUOUS
 62
     7
 10
457
 20
-327.5
 40
10.00000000000001
 50
269.9999974955218
 51
0
  0
ARC
  8
0
  6
CONTINUOUS
 62
     7
 10
0
 20
-425
 40
32.50000000000001
 50
106.0766490558549
 51
73.92333865025743
  0
ARC
  8
0
  6
CONTINUOUS
 62
     7
 10
0
 20
-350
 40
13.00000000000001
 50
165.5410136304162
 51
14.45902871720947
  0
CIRCLE
  8
0
  6
CONTINUOUS
 62
     7
 10
0
 20
-425
 40
87.5
  0
ARC
  8
0
  6
CONTINUOUS
 62
     3
 10
0
 20
-425
 40
75.00000000000001
 50
22.3549017949391
 51
37.64509987471304
  0
ARC
  8
0
  6
CONTINUOUS
 62
     7
 10
64.951904296875
 20
-387.5
 40
13
 50
105.5411690551151
 51
314.4589041041523
  0
ARC
  8
0
  6
CONTINUOUS
 62
     3
 10
0
 20
-425
 40
74.99999999999999
 50
82.35491029478037
 51
97.64511520474348
  0
ARC
  8
0
  6
CONTINUOUS
 62
     7
 10
-64.951904296875
 20
-387.5
 40
12.99999999999999
 50
225.541059923669
 51
74.45884961421962
  0
ARC
  8
0
  6
CONTINUOUS
 62
     3
 10
0
 20
-425
 40
75
 50
142.3549119644325
 51
157.6451100442064
  0
ARC
  8
0
  6
CONTINUOUS
 62
     7
 10
-64.951904296875
 20
-462.5
 40
13.00000000000002
 50
285.541136725402
 51
134.458940076331
  0
ARC
  8
0
  6
CONTINUOUS
 62
     3
 10
0
 20
-425
 40
75
 50
202.3549172765502
 51
217.6451153563242
  0
ARC
  8
0
  6
CONTINUOUS
 62
     7
 10
0
 20
-500
 40
13
 50
345.5409778856087
 51
194.458982727118
  0
ARC
  8
0
  6
CONTINUOUS
 62
     3
 10
0
 20
-425
 40
75
 50
262.3549121160132
 51
277.6451101957871
  0
ARC
  8
0
  6
CONTINUOUS
 62
     7
 10
64.951904296875
 20
-462.5
 40
13.00000000000002
 50
45.54107517790922
 51
254.4588341326085
  0
ARC
  8
0
  6
CONTINUOUS
 62
     3
 10
0
 20
-425
 40
75
 50
322.3549069554762
 51
337.6451050352501
  0
CIRCLE
  8
0
  6
CONTINUOUS
 62
     7
 10
0
 20
-425
 40
55
  0
ARC
  8
0
  6
CONTINUOUS
 62
     7
 10
-62.5
 20
-592
 40
5.000000000000019
 50
89.99998201391064
 51
156.4218641449927
  0
ARC
  8
0
  6
CONTINUOUS
 62
     7
 10
62.5
 20
-592
 40
5.000000000000016
 50
23.57815623189039
 51
89.99998201391064
  0
ARC
  8
0
  6
CONTINUOUS
 62
     7
 10
-62.5
 20
-565
 40
4.999999999999996
 50
179.9999776882003
 51
270.000028004002
  0
ARC
  8
0
  6
CONTINUOUS
 62
     7
 10
62.5
 20
-565
 40
5.000000000000019
 50
270.0000179860893
 51
0
  0
ARC
  8
0
  6
CONTINUOUS
 62
     7
 10
25
 20
-565
 40
4.999999999999999
 50
179.9999776882003
 51
270.000028004002
  0
ARC
  8
0
  6
CONTINUOUS
 62
     7
 10
-25
 20
-565
 40
5.000000000000019
 50
270.0000179860893
 51
0
  0
ARC
  8
0
  6
CONTINUOUS
 62
     7
 10
53.1748046875
 20
-515
 40
9.999999999999998
 50
4.999995585678207
 51
89.99998201391064
  0
ARC
  8
0
  6
CONTINUOUS
 62
     7
 10
-53.17486572265625
 20
-515
 40
9.99999999999998
 50
89.99998201391064
 51
174.9999923478053
  0
ARC
  8
0
  6
CONTINUOUS
 62
     7
 10
0
 20
-447.5
 40
137.5
 50
0
 51
179.9999640278213
  0
ARC
  8
0
  6
CONTINUOUS
 62
     3
 10
0
 20
-425
 40
105
 50
332.0411807080648
 51
342.9587804736557
  0
ARC
  8
0
  6
CONTINUOUS
 62
     3
 10
0
 20
-425
 40
105
 50
17.04117683766195
 51
27.95878514098941
  0
ARC
  8
0
  6
CONTINUOUS
 62
     3
 10
0
 20
-425
 40
105
 50
62.04117638235374
 51
72.9587829781339
  0
ARC
  8
0
  6
CONTINUOUS
 62
     3
 10
0
 20
-425
 40
105
 50
107.0411742194982
 51
117.9587876454676
  0
ARC
  8
0
  6
CONTINUOUS
 62
     3
 10
0
 20
-425
 40
105
 50
152.0411720566428
 51
162.9587786524229
  0
ARC
  8
0
  6
CONTINUOUS
 62
     3
 10
0
 20
-425
 40
105
 50
197.0411940268204
 51
207.9587869622222
  0
ARC
  8
0
  6
CONTINUOUS
 62
     3
 10
0
 20
-425
 40
105
 50
242.0411850337757
 51
252.9587847993667
  0
ARC
  8
0
  6
CONTINUOUS
 62
     3
 10
0
 20
-425
 40
105.0000000000001
 50
287.0411828709202
 51
297.9587826365112
  0
ARC
  8
0
  6
CONTINUOUS
 62
     7
 10
30
 20
-332.2301330566406
 40
10
 50
179.9999776881996
 51
252.079879244693
  0
ARC
  8
0
  6
CONTINUOUS
 62
     7
 10
-30
 20
-332.2301330566406
 40
10.00000000000002
 50
287.9201052736958
 51
0
  0
ARC
  8
0
  6
CONTINUOUS
 62
     7
 10
0
 20
-425
 40
117.5
 50
60.31883490010829
 51
95.3717413810181
  0
ARC
  8
0
  6
CONTINUOUS
 62
     7
 10
0
 20
-425
 40
117.5
 50
103.5611586864309
 51
108.4388699803038
  0
ARC
  8
0
  6
CONTINUOUS
 62
     7
 10
567
 20
77.49996948242187
 40
5
 50
0
 51
89.99998201391031
  0
ARC
  8
0
  6
CONTINUOUS
 62
     7
 10
567
 20
-77.5
 40
5.000000000000004
 50
270.0000179860897
 51
0
  0
ARC
  8
0
  6
CONTINUOUS
 62
     7
 10
562
 20
-87.5
 40
5.000000000000004
 50
89.99998201391031
 51
179.9999640278213
  0
ARC
  8
0
  6
CONTINUOUS
 62
     7
 10
562
 20
87.49996948242188
 40
5.000000000000038
 50
179.9999776881996
 51
270.0000280040023
  0
ARC
  8
0
  6
CONTINUOUS
 62
     7
 10
554
 20
0
 40
9.999999999999986
 50
23.57817672245736
 51
156.4218368242355
  0
ARC
  8
0
  6
CONTINUOUS
 62
     7
 10
537.5
 20
0
 40
4
 50
89.99998201391097
 51
270.0000006832446
  0
ARC
  8
0
  6
CONTINUOUS
 62
     7
 10
570.5
 20
0
 40
4
 50
270.0000179860891
 51
89.99998201391097
  0
ARC
  8
0
  6
CONTINUOUS
 62
     7
 10
554
 20
0
 40
10.00000000000001
 50
203.5781631757645
 51
336.4218232775426
  0
ARC
  8
0
  6
CONTINUOUS
 62
     7
 10
472
 20
0
 40
20.00000000000001
 50
120.000030660061
 51
239.9999520370951
  0
ARC
  8
0
  6
CONTINUOUS
 62
     7
 10
457
 20
25.98077392578125
 40
10
 50
299.9999300284562
 51
360
  0
ARC
  8
0
  6
CONTINUOUS
 62
     7
 10
457
 20
-25.98077392578125
 40
10
 50
0
 51
60.00006997154377
  0
ARC
  8
0
  6
CONTINUOUS
 62
     7
 10
630
 20
-90.986572265625
 40
10
 50
0
 51
80.6398361338119
  0
ARC
  8
0
  6
CONTINUOUS
 62
     7
 10
630
 20
90.98663330078125
 40
9.999999999999989
 50
279.3602048473231
 51
0
  0
ARC
  8
0
  6
CONTINUOUS
 62
     7
 10
381
 20
0
 40
9
 50
270.0000179860894
 51
89.99998201391061
  0
CIRCLE
  8
0
  6
CONTINUOUS
 62
     7
 10
435
 20
112.4999389648438
 40
9.5
  0
CIRCLE
  8
0
  6
CONTINUOUS
 62
     7
 10
615
 20
112.4999389648438
 40
9.5
  0
CIRCLE
  8
0
  6
CONTINUOUS
 62
     7
 10
435
 20
-112.5000610351562
 40
9.5
  0
CIRCLE
  8
0
  6
CONTINUOUS
 62
     7
 10
615
 20
-112.5000610351562
 40
9.5
  0
ARC
  8
0
  6
CONTINUOUS
 62
     7
 10
444.5633850097656
 20
97.5
 40
9.999999999999995
 50
270.0000179860893
 51
274.9999555151597
  0
ARC
  8
0
  6
CONTINUOUS
 62
     7
 10
444.5634765625
 20
-97.5
 40
9.999999999999996
 50
85.00004448484029
 51
89.99998201391064
  0
ARC
  8
0
  6
CONTINUOUS
 62
     7
 10
457
 20
98.58807373046875
 40
9.999999999999996
 50
274.9999555151597
 51
0
  0
ARC
  8
0
  6
CONTINUOUS
 62
     7
 10
457
 20
-98.58807373046875
 40
10
 50
0
 51
85.00004448484029
  0
ARC
  8
0
  6
CONTINUOUS
 62
     7
 10
420
 20
127.5
 40
10.00000000000001
 50
90.00000250447815
 51
180.0000050089563
  0
ARC
  8
0
  6
CONTINUOUS
 62
     7
 10
420
 20
-127.5
 40
10
 50
179.999991348578
 51
270.0000006832453
  0
ARC
  8
0
  6
CONTINUOUS
 62
     7
 10
630
 20
127.5
 40
10
 50
0
 51
90.00000250447847
  0
ARC
  8
0
  6
CONTINUOUS
 62
     7
 10
630
 20
-127.5
 40
10.00000000000001
 50
269.9999974955215
 51
0
  0
ARC
  8
0
  6
CONTINUOUS
 62
     7
 10
579
 20
120.5
 40
5
 50
27.59400864308113
 51
90.00000250447782
  0
ARC
  8
0
  6
CONTINUOUS
 62
     7
 10
579
 20
-120.5
 40
5.000000000000004
 50
269.9999974955222
 51
348.3629448195065
  0
ARC
  8
0
  6
CONTINUOUS
 62
     7
 10
7.7587890625
 20
-301.7000122070313
 40
1.20000004768372
 50
10.00000056286759
 51
79.05805311449633
  0
ARC
  8
0
  6
CONTINUOUS
 62
     7
 10
0
 20
-270
 40
4
 50
0
 51
179.9999640278211
  0
ARC
  8
0
  6
CONTINUOUS
 62
     7
 10
5.20001220703125
 20
-305.1000061035156
 40
1.200000047683716
 50
179.9999776881984
 51
270.000028004002
  0
ARC
  8
0
  6
CONTINUOUS
 62
     7
 10
-5.20001220703125
 20
-305.1000061035156
 40
1.200000047683734
 50
269.999963344576
 51
0
  0
ARC
  8
0
  6
CONTINUOUS
 62
     7
 10
-7.7587890625
 20
-301.7000122070313
 40
1.200000047683729
 50
100.9419109133251
 51
169.9999660262759
  0
ARC
  8
0
  6
CONTINUOUS
 62
     7
 10
674
 20
-379
 40
4.999999999999943
 50
179.999991348578
 51
270.0000006832456
  0
ARC
  8
0
  6
CONTINUOUS
 62
     7
 10
704
 20
-379
 40
5.000000000000004
 50
269.9999974955222
 51
0
  0
ARC
  8
0
  6
CONTINUOUS
 62
     7
 10
674
 20
-471
 40
5.000000000000004
 50
90.00000250447782
 51
180.0000050089563
  0
ARC
  8
0
  6
CONTINUOUS
 62
     7
 10
704
 20
-471
 40
5
 50
0
 51
90.00000250447782
  0
ARC
  8
0
  6
CONTINUOUS
 62
     7
 10
674
 20
46
 40
4.999999999999943
 50
179.999991348578
 51
270.0000006832456
  0
ARC
  8
0
  6
CONTINUOUS
 62
     7
 10
704
 20
46
 40
4.999999999999997
 50
269.9999974955222
 51
0
  0
ARC
  8
0
  6
CONTINUOUS
 62
     7
 10
674
 20
-46
 40
4.999999999999997
 50
90.00000250447782
 51
180.0000050089563
  0
ARC
  8
0
  6
CONTINUOUS
 62
     7
 10
704
 20
-46
 40
5
 50
0
 51
90.00000250447782
  0
POLYLINE
  8
0
  6
CONTINUOUS
 62
     7
 66
     1
 10
0
 20
0
  0
VERTEX
  8
0
  6
CONTINUOUS
 62
     7
 10
545.9289891156623
 20
-306.8370845547915
 42
0.5547852449201456
  0
VERTEX
  8
0
  6
CONTINUOUS
 62
     7
 10
545.6778633790677
 20
-307.8396499069004
 42
0.1035254123974805
  0
VERTEX
  8
0
  6
CONTINUOUS
 62
     7
 10
546.7345358636976
 20
-308.4379425876141
 42
0.03106237593173194
  0
VERTEX
  8
0
  6
CONTINUOUS
 62
     7
 10
547.9097743646898
 20
-308.7785355435248
 42
0.01736653360937963
  0
VERTEX
  8
0
  6
CONTINUOUS
 62
     7
 10
549.1119863837221
 20
-309.0086179148896
 42
0.01227962950836214
  0
VERTEX
  8
0
  6
CONTINUOUS
 62
     7
 10
550.3258145931726
 20
-309.1683470288248
 42
0.009889494826034665
  0
VERTEX
  8
0
  6
CONTINUOUS
 62
     7
 10
551.5465378390951
 20
-309.2747118303206
 42
0.008687601315095083
  0
VERTEX
  8
0
  6
CONTINUOUS
 62
     7
 10
552.7705191971434
 20
-309.335928595922
 42
0.008173081189668878
  0
VERTEX
  8
0
  6
CONTINUOUS
 62
     7
 10
553.9959173631563
 20
-309.3560178460525
 42
0.008170536145919779
  0
VERTEX
  8
0
  6
CONTINUOUS
 62
     7
 10
555.2211843292138
 20
-309.3362002206177
 42
0.008682637543685973
  0
VERTEX
  8
0
  6
CONTINUOUS
 62
     7
 10
556.4452520127384
 20
-309.2752670472742
 42
0.00987923593611429
  0
VERTEX
  8
0
  6
CONTINUOUS
 62
     7
 10
557.6661117637793
 20
-309.1692154702565
 42
0.01227268305185504
  0
VERTEX
  8
0
  6
CONTINUOUS
 62
     7
 10
558.881336315996
 20
-309.0096712350326
 42
0.0173633185928985
  0
VERTEX
  8
0
  6
CONTINUOUS
 62
     7
 10
560.0858490403981
 20
-308.7795441378873
 42
0.03102276778198038
  0
VERTEX
  8
0
  6
CONTINUOUS
 62
     7
 10
561.2625119091202
 20
-308.4390318487436
 42
0.1034613131384059
  0
VERTEX
  8
0
  6
CONTINUOUS
 62
     7
 10
562.3215744746108
 20
-307.8402451557634
 42
0.5548958390614356
  0
VERTEX
  8
0
  6
CONTINUOUS
 62
     7
 10
562.0729170082789
 20
-306.8383724666866
 42
0
  0
SEQEND
  8
0
  0
POLYLINE
  8
0
  6
CONTINUOUS
 62
     7
 66
     1
 10
0
 20
0
  0
VERTEX
  8
0
  6
CONTINUOUS
 62
     7
 10
545.678466796875
 20
-313.2412109375
 42
0.2480516466254239
  0
VERTEX
  8
0
  6
CONTINUOUS
 62
     7
 10
546.4022108670139
 20
-314.0047731270904
 42
0.04463918233035882
  0
VERTEX
  8
0
  6
CONTINUOUS
 62
     7
 10
547.4331039847776
 20
-314.3909729464834
 42
0.02127731874934929
  0
VERTEX
  8
0
  6
CONTINUOUS
 62
     7
 10
548.505583640607
 20
-314.6471039584782
 42
0.01386120226674352
  0
VERTEX
  8
0
  6
CONTINUOUS
 62
     7
 10
549.5936333059024
 20
-314.8291859577674
 42
0.01053517461410312
  0
VERTEX
  8
0
  6
CONTINUOUS
 62
     7
 10
550.6893205662035
 20
-314.9586341355367
 42
0.008818374795480931
  0
VERTEX
  8
0
  6
CONTINUOUS
 62
     7
 10
551.7894873692339
 20
-315.0459051869897
 42
0.007913254566889497
  0
VERTEX
  8
0
  6
CONTINUOUS
 62
     7
 10
552.8920657705636
 20
-315.0964933996448
 42
0.007515671351104136
  0
VERTEX
  8
0
  6
CONTINUOUS
 62
     7
 10
553.99571142562
 20
-315.1131589310958
 42
0.00751336825253643
  0
VERTEX
  8
0
  6
CONTINUOUS
 62
     7
 10
555.0992411621812
 20
-315.0967550509682
 42
0.007906197112092644
  0
VERTEX
  8
0
  6
CONTINUOUS
 62
     7
 10
556.2015391964621
 20
-315.0464601728191
 42
0.008816439492236572
  0
VERTEX
  8
0
  6
CONTINUOUS
 62
     7
 10
557.302655286906
 20
-314.9594157554061
 42
0.01052294317087832
  0
VERTEX
  8
0
  6
CONTINUOUS
 62
     7
 10
558.3988298490679
 20
-314.8302429996228
 42
0.01384195503710328
  0
VERTEX
  8
0
  6
CONTINUOUS
 62
     7
 10
559.4878278588963
 20
-314.6484055524298
 42
0.02126298710421257
  0
VERTEX
  8
0
  6
CONTINUOUS
 62
     7
 10
560.5626514971834
 20
-314.3921986606513
 42
0.04456797160786596
  0
VERTEX
  8
0
  6
CONTINUOUS
 62
     7
 10
561.5954384621502
 20
-314.0059556537851
 42
0.2481427691487275
  0
VERTEX
  8
0
  6
CONTINUOUS
 62
     7
 10
562.321533203125
 20
-313.2412109375
 42
0
  0
SEQEND
  8
0
  0
POLYLINE
  8
0
  6
CONTINUOUS
 62
     7
 66
     1
 10
0
 20
0
  0
VERTEX
  8
0
  6
CONTINUOUS
 62
     7
 10
562.3114340690722
 20
-25.37119462708798
 42
0.04847174459637084
  0
VERTEX
  8
0
  6
CONTINUOUS
 62
     7
 10
562.0652101482902
 20
-23.8356874735283
 42
0.04822466311260521
  0
VERTEX
  8
0
  6
CONTINUOUS
 62
     7
 10
561.5286431982786
 20
-22.37611399248757
 42
0.04784386673882784
  0
VERTEX
  8
0
  6
CONTINUOUS
 62
     7
 10
560.7232603065013
 20
-21.04554674114918
 42
0.0473758093010026
  0
VERTEX
  8
0
  6
CONTINUOUS
 62
     7
 10
559.680664016611
 20
-19.89127931675976
 42
0.04690357525679274
  0
VERTEX
  8
0
  6
CONTINUOUS
 62
     7
 10
558.4400285084771
 20
-18.95249540868052
 42
0.0464860848310939
  0
VERTEX
  8
0
  6
CONTINUOUS
 62
     7
 10
557.0464057805108
 20
-18.26002920473172
 42
0.04617084849598618
  0
VERTEX
  8
0
  6
CONTINUOUS
 62
     7
 10
555.5490039857019
 20
-17.83591922066315
 42
0.04597934888313154
  0
VERTEX
  8
0
  6
CONTINUOUS
 62
     7
 10
554
 20
-17.69320678710938
 42
0.04597362496071526
  0
VERTEX
  8
0
  6
CONTINUOUS
 62
     7
 10
552.4511793581639
 20
-17.83588469687225
 42
0.04614341608744523
  0
VERTEX
  8
0
  6
CONTINUOUS
 62
     7
 10
550.9546105194419
 20
-18.259633637446
 42
0.04646182626287767
  0
VERTEX
  8
0
  6
CONTINUOUS
 62
     7
 10
549.5615567566904
 20
-18.95150353269536
 42
0.04689210879203932
  0
VERTEX
  8
0
  6
CONTINUOUS
 62
     7
 10
548.3209544585927
 20
-19.88977086163544
 42
0.04738569363458844
  0
VERTEX
  8
0
  6
CONTINUOUS
 62
     7
 10
547.2778237578743
 20
-21.0440374348317
 42
0.04786779629524233
  0
VERTEX
  8
0
  6
CONTINUOUS
 62
     7
 10
546.4717812194277
 20
-22.37512982564096
 42
0.04826091285994522
  0
VERTEX
  8
0
  6
CONTINUOUS
 62
     7
 10
545.9347155998705
 20
-23.83575395369766
 42
0.04849630551298414
  0
VERTEX
  8
0
  6
CONTINUOUS
 62
     7
 10
545.6884534526309
 20
-25.37202709977973
 42
0
  0
SEQEND
  8
0
  0
POLYLINE
  8
0
  6
CONTINUOUS
 62
     7
 66
     1
 10
0
 20
0
  0
VERTEX
  8
0
  6
CONTINUOUS
 62
     7
 10
555.7897160905708
 20
-35.24433738334675
 42
0.08922772544192575
  0
VERTEX
  8
0
  6
CONTINUOUS
 62
     7
 10
558.6233304391807
 20
-34.09893083709271
 42
0.0915044654145902
  0
VERTEX
  8
0
  6
CONTINUOUS
 62
     7
 10
560.8712342758976
 20
-32.02812968004854
 42
0.09396300828419368
  0
VERTEX
  8
0
  6
CONTINUOUS
 62
     7
 10
562.2176154212564
 20
-29.28580285194937
 42
0.09531374866402935
  0
VERTEX
  8
0
  6
CONTINUOUS
 62
     7
 10
562.4572610574935
 20
-26.24068008151358
 42
0.09472483127837036
  0
VERTEX
  8
0
  6
CONTINUOUS
 62
     7
 10
561.5519271256127
 20
-23.32325700024946
 42
0.09255039339364401
  0
VERTEX
  8
0
  6
CONTINUOUS
 62
     7
 10
559.643747455445
 20
-20.93742694366497
 42
0.09010467939878079
  0
VERTEX
  8
0
  6
CONTINUOUS
 62
     7
 10
557.0084775677324
 20
-19.38640466961413
 42
0.08842983426177006
  0
VERTEX
  8
0
  6
CONTINUOUS
 62
     7
 10
554
 20
-18.85079956054688
 42
0.08846547153102224
  0
VERTEX
  8
0
  6
CONTINUOUS
 62
     7
 10
550.9903522328879
 20
-19.38683280576225
 42
0.09004159966881041
  0
VERTEX
  8
0
  6
CONTINUOUS
 62
     7
 10
548.3568897413719
 20
-20.93685324563849
 42
0.09257754888261376
  0
VERTEX
  8
0
  6
CONTINUOUS
 62
     7
 10
546.448008579988
 20
-23.32328850524983
 42
0.09475323273327443
  0
VERTEX
  8
0
  6
CONTINUOUS
 62
     7
 10
545.542576463353
 20
-26.2415933975302
 42
0.09529139742078623
  0
VERTEX
  8
0
  6
CONTINUOUS
 62
     7
 10
545.7823700397306
 20
-29.28595555248934
 42
0.0939522416789897
  0
VERTEX
  8
0
  6
CONTINUOUS
 62
     7
 10
547.1286035100667
 20
-32.02796581588293
 42
0.09149366215385921
  0
VERTEX
  8
0
  6
CONTINUOUS
 62
     7
 10
549.3761730214623
 20
-34.09862927194668
 42
0.08926441766397029
  0
VERTEX
  8
0
  6
CONTINUOUS
 62
     7
 10
552.2109873861806
 20
-35.24448548406375
 42
0
  0
SEQEND
  8
0
  0
TEXT
  8
0
  6
CONTINUOUS
 62
     7
 10
-146.4285755157471
 20
-12.5
 40
25
 41
1.059583662023496
  1
ERK-NBD-1500
  0
ENDSEC
  0
EOF
