  0
SECTION
  2
HEADER
  0
ENDSEC
  0
SECTION
  2
TABLES
  0
TABLE
  2
LTYPE
 70
    22
  0
LTYPE
  2
CONTINUOUS
 70
    64
  3
Solid line
 72
    65
 73
     0
 40
0.000000
  0
LTYPE
  2
DASHED
 70
    64
  3
__ __ __ __ __ __ __ __ __ __ __ __ __ __ __
 72
    65
 73
     2
 40
3.500000
 49
2.000000
 49
-1.500000
  0
LTYPE
  2
CENTER
 70
    64
  3
____ _ ____ _ ____ _ ____ _ ____ _ ____ _ ____
 72
    65
 73
     4
 40
17.500000
 49
13.000000
 49
-1.500000
 49
1.500000
 49
-1.500000
  0
LTYPE
  2
PHANTOM
 70
    64
  3
_____ _ _ _____ _ _ _____ _ _ _____ _ _ ____  
 72
    65
 73
     6
 40
15.500000
 49
8.000000
 49
-1.500000
 49
1.500000
 49
-1.500000
 49
1.500000
 49
-1.500000
  0
LTYPE
  2
DOT
 70
    64
  3
. . . . . . . . . . . . . . . . . . . . . . . .
 72
    65
 73
     2
 40
0.25
 49
0.0
 49
-0.25
  0
ENDTAB
  0
TABLE
  2
LAYER
 70
     1
  0
LAYER
  2
0
 70
     0
 62
     7
  6
CONTINUOUS
  0
ENDTAB
  0
TABLE
  2
STYLE
 70
     1
  0
STYLE
  2
STANDARD
 70
     0
 40
0.000000
 41
1.000000
 50
0.000000
 71
     0
 42
0.200000
  3
txt
  0
ENDTAB
  0
TABLE
  2
VIEW
 70
     0
  0
ENDTAB
  0
ENDSEC
  0
SECTION
  2
BLOCKS
  0
ENDSEC
  0
SECTION
  2
ENTITIES
  0
LINE
  8
0
  6
CONTINUOUS
 62
     3
 10
226.1586456298828
 20
-459.2781677246094
 11
659.4863891601563
 21
-459.2781677246094
  0
LINE
  8
0
  6
CONTINUOUS
 62
     7
 10
485.1586608886719
 20
-344.2781677246094
 11
485.1586608886719
 21
-534.0115356445313
  0
LINE
  8
0
  6
CONTINUOUS
 62
     7
 10
485.1586608886719
 20
-344.2781677246094
 11
491.7329406738281
 21
-344.2781677246094
  0
LINE
  8
0
  6
CONTINUOUS
 62
     7
 10
503.1586608886719
 20
-356.0948181152344
 11
503.1586608886719
 21
-559.7182006835938
  0
LINE
  8
0
  6
CONTINUOUS
 62
     7
 10
560.1586303710938
 20
-385.7781677246094
 11
560.1586303710938
 21
-532.7781982421875
  0
LINE
  8
0
  6
CONTINUOUS
 62
     7
 10
550.1586303710938
 20
-386.7781677246094
 11
550.1586303710938
 21
-531.7781982421875
  0
LINE
  8
0
  6
CONTINUOUS
 62
     7
 10
550.1586303710938
 20
-531.7781982421875
 11
560.1586303710938
 21
-531.7781982421875
  0
LINE
  8
0
  6
CONTINUOUS
 62
     7
 10
550.1586303710938
 20
-386.7781677246094
 11
560.1586303710938
 21
-386.7781677246094
  0
LINE
  8
0
  6
CONTINUOUS
 62
     7
 10
518.1586303710937
 20
-381.7781677246094
 11
518.1586303710937
 21
-536.7781982421875
  0
LINE
  8
0
  6
CONTINUOUS
 62
     7
 10
508.1586608886719
 20
-541.7781982421875
 11
513.1586303710938
 21
-541.7781982421875
  0
LINE
  8
0
  6
CONTINUOUS
 62
     7
 10
512.1586303710938
 20
-344.2781677246094
 11
512.1586303710938
 21
-374.7781677246094
  0
LINE
  8
0
  6
CONTINUOUS
 62
     7
 10
508.1586608886719
 20
-376.7781677246094
 11
513.1586303710938
 21
-376.7781677246094
  0
LINE
  8
0
  6
CONTINUOUS
 62
     7
 10
512.1586303710938
 20
-572.571533203125
 11
512.1586303710938
 21
-543.7781982421875
  0
LINE
  8
0
  6
CONTINUOUS
 62
     7
 10
518.1585693359375
 20
-398.481201171875
 11
550.1585693359375
 21
-405.8053283691406
  0
LINE
  8
0
  6
CONTINUOUS
 62
     7
 10
518.1586303710937
 20
-425.2256774902344
 11
550.1586303710938
 21
-425.2256774902344
  0
LINE
  8
0
  6
CONTINUOUS
 62
     7
 10
518.1586303710937
 20
-520.0751342773437
 11
550.1586303710938
 21
-512.7510375976563
  0
LINE
  8
0
  6
CONTINUOUS
 62
     7
 10
518.1586303710937
 20
-493.3306579589844
 11
550.1586303710938
 21
-493.3306579589844
  0
LINE
  8
0
  6
CONTINUOUS
 62
     7
 10
492.0876159667969
 20
-332.9510803222656
 11
492.0876159667969
 21
-341.7204284667969
  0
LINE
  8
0
  6
CONTINUOUS
 62
     7
 10
508.2297058105469
 20
-332.9510803222656
 11
508.2297058105469
 21
-341.7204284667969
  0
LINE
  8
0
  6
CONTINUOUS
 62
     3
 10
492.0875854492188
 20
-332.9511108398438
 11
500.1586303710938
 21
-343.5360107421875
  0
LINE
  8
0
  6
CONTINUOUS
 62
     3
 10
500.1586608886719
 20
-343.5360107421875
 11
508.2297058105469
 21
-332.9510803222656
  0
LINE
  8
0
  6
CONTINUOUS
 62
     7
 10
491.6513061523437
 20
-341.7342224121094
 11
491.8373413085938
 21
-347.5328674316406
  0
LINE
  8
0
  6
CONTINUOUS
 62
     7
 10
508.6659545898437
 20
-341.7342529296875
 11
508.4799194335938
 21
-347.5328979492187
  0
LINE
  8
0
  6
CONTINUOUS
 62
     7
 10
508.5843811035156
 20
-344.2781677246094
 11
512.1586303710938
 21
-344.2781677246094
  0
LINE
  8
0
  6
CONTINUOUS
 62
     7
 10
500.1586608886719
 20
-332.9510803222656
 11
500.1586608886719
 21
-343.5360107421875
  0
LINE
  8
0
  6
CONTINUOUS
 62
     7
 10
503.1586303710937
 20
-356.0948486328125
 11
512.1586303710938
 21
-355.0527648925781
  0
LINE
  8
0
  6
CONTINUOUS
 62
     7
 10
492.0876159667969
 20
-332.9510803222656
 11
508.2297058105469
 21
-332.9510803222656
  0
LINE
  8
0
  6
CONTINUOUS
 62
     3
 10
500.1586608886719
 20
-332.9511108398438
 11
492.0876159667969
 21
-341.720458984375
  0
LINE
  8
0
  6
CONTINUOUS
 62
     3
 10
508.2296752929688
 20
-341.7204284667969
 11
500.1586303710938
 21
-332.9510803222656
  0
LINE
  8
0
  6
CONTINUOUS
 62
     7
 10
560.1586303710938
 20
-385.7781677246094
 11
582.6586303710937
 21
-385.7781677246094
  0
LINE
  8
0
  6
CONTINUOUS
 62
     7
 10
560.1586303710938
 20
-532.7781982421875
 11
582.6586303710937
 21
-532.7781982421875
  0
LINE
  8
0
  6
CONTINUOUS
 62
     7
 10
582.6586303710937
 20
-385.7781677246094
 11
582.6586303710937
 21
-532.7781982421875
  0
LINE
  8
0
  6
CONTINUOUS
 62
     7
 10
437.1586608886719
 20
-341.7781677246094
 11
481.1586608886719
 21
-341.7781677246094
  0
LINE
  8
0
  6
CONTINUOUS
 62
     7
 10
433.15869140625
 20
-345.7781982421875
 11
437.15869140625
 21
-341.7781982421875
  0
LINE
  8
0
  6
CONTINUOUS
 62
     7
 10
481.1586608886719
 20
-341.7781982421875
 11
485.1586608886719
 21
-345.7781982421875
  0
LINE
  8
0
  6
CONTINUOUS
 62
     7
 10
437.1586608886719
 20
-384.3359680175781
 11
481.1586608886719
 21
-384.3359680175781
  0
LINE
  8
0
  6
CONTINUOUS
 62
     7
 10
437.1586608886719
 20
-397.9914245605469
 11
481.1586608886719
 21
-397.9914245605469
  0
LINE
  8
0
  6
CONTINUOUS
 62
     7
 10
437.1586608886719
 20
-406.7378234863281
 11
481.1586608886719
 21
-406.7378234863281
  0
LINE
  8
0
  6
CONTINUOUS
 62
     7
 10
437.1586608886719
 20
-422.1134643554688
 11
481.1586608886719
 21
-422.1134643554688
  0
LINE
  8
0
  6
CONTINUOUS
 62
     7
 10
437.1586608886719
 20
-431.7261657714844
 11
481.1586608886719
 21
-431.7261657714844
  0
LINE
  8
0
  6
CONTINUOUS
 62
     7
 10
437.1586608886719
 20
-448.2786560058594
 11
481.1586608886719
 21
-448.2786560058594
  0
LINE
  8
0
  6
CONTINUOUS
 62
     7
 10
440.8825988769531
 20
-470.2784729003906
 11
481.1586608886719
 21
-470.2784729003906
  0
LINE
  8
0
  6
CONTINUOUS
 62
     7
 10
452.1216735839844
 20
-486.829833984375
 11
481.1586608886719
 21
-486.829833984375
  0
LINE
  8
0
  6
CONTINUOUS
 62
     7
 10
458.8522644042969
 20
-496.4421081542969
 11
481.1586608886719
 21
-496.4421081542969
  0
LINE
  8
0
  6
CONTINUOUS
 62
     7
 10
469.6189880371094
 20
-511.818603515625
 11
481.1586608886719
 21
-511.818603515625
  0
LINE
  8
0
  6
CONTINUOUS
 62
     7
 10
475.7430114746094
 20
-520.5646362304688
 11
481.1586608886719
 21
-520.5646362304688
  0
LINE
  8
0
  6
CONTINUOUS
 62
     3
 10
401.1586608886719
 20
-449.2781677246094
 11
401.1586608886719
 21
-469.2781677246094
  0
LINE
  8
0
  6
CONTINUOUS
 62
     3
 10
391.1586608886719
 20
-524.2781982421875
 11
411.1586608886719
 21
-524.2781982421875
  0
LINE
  8
0
  6
CONTINUOUS
 62
     3
 10
401.1586608886719
 20
-514.2781982421875
 11
401.1586608886719
 21
-534.2781982421875
  0
LINE
  8
0
  6
CONTINUOUS
 62
     7
 10
347.1586608886719
 20
-404.2781982421875
 11
347.1586608886719
 21
-514.2781982421875
  0
LINE
  8
0
  6
CONTINUOUS
 62
     7
 10
359.1586608886719
 20
-371.7781677246094
 11
359.1586608886719
 21
-546.7781982421875
  0
LINE
  8
0
  6
CONTINUOUS
 62
     7
 10
359.1586608886719
 20
-546.7781982421875
 11
375.6643371582031
 21
-546.7781982421875
  0
LINE
  8
0
  6
CONTINUOUS
 62
     7
 10
371.1586608886719
 20
-371.7781677246094
 11
371.1586608886719
 21
-546.7781982421875
  0
LINE
  8
0
  6
CONTINUOUS
 62
     7
 10
359.1586608886719
 20
-371.7781677246094
 11
403.1586608886719
 21
-371.7781677246094
  0
LINE
  8
0
  6
CONTINUOUS
 62
     7
 10
356.1586608886719
 20
-624.2781982421875
 11
586.1586303710938
 21
-624.2781982421875
  0
LINE
  8
0
  6
CONTINUOUS
 62
     7
 10
356.1586608886719
 20
-598.2781982421875
 11
403.1586608886719
 21
-598.2781982421875
  0
LINE
  8
0
  6
CONTINUOUS
 62
     7
 10
356.1586608886719
 20
-598.2781982421875
 11
356.1586608886719
 21
-624.2781982421875
  0
LINE
  8
0
  6
CONTINUOUS
 62
     7
 10
586.1586303710938
 20
-598.2781982421875
 11
586.1586303710938
 21
-624.2781982421875
  0
LINE
  8
0
  6
CONTINUOUS
 62
     3
 10
561.1586303710937
 20
-583.2781982421875
 11
561.1586303710937
 21
-639.2781982421875
  0
LINE
  8
0
  6
CONTINUOUS
 62
     7
 10
444.0095520019531
 20
-475.2445678710938
 11
524.1869506835937
 21
-589.749755859375
  0
LINE
  8
0
  6
CONTINUOUS
 62
     7
 10
374.2439575195312
 20
-563.012939453125
 11
380.2186584472656
 21
-494.7218017578125
  0
LINE
  8
0
  6
CONTINUOUS
 62
     7
 10
398.1586608886719
 20
-344.2781677246094
 11
433.1586608886719
 21
-344.2781677246094
  0
LINE
  8
0
  6
CONTINUOUS
 62
     7
 10
413.1586608886719
 20
-344.2781677246094
 11
413.1586608886719
 21
-588.2781982421875
  0
LINE
  8
0
  6
CONTINUOUS
 62
     7
 10
433.1586608886719
 20
-344.2781677246094
 11
433.1586608886719
 21
-440.8299865722656
  0
LINE
  8
0
  6
CONTINUOUS
 62
     7
 10
398.1586608886719
 20
-344.2781677246094
 11
398.1586608886719
 21
-361.7781677246094
  0
LINE
  8
0
  6
CONTINUOUS
 62
     3
 10
381.1586608886719
 20
-583.2781982421875
 11
381.1586608886719
 21
-639.2781982421875
  0
LINE
  8
0
  6
CONTINUOUS
 62
     7
 10
246.1586456298828
 20
-422.7781677246094
 11
246.1586456298828
 21
-491.7781677246094
  0
LINE
  8
0
  6
CONTINUOUS
 62
     7
 10
246.1586456298828
 20
-426.7781677246094
 11
341.1586608886719
 21
-426.7781677246094
  0
LINE
  8
0
  6
CONTINUOUS
 62
     7
 10
246.1586456298828
 20
-491.7781677246094
 11
341.1586608886719
 21
-491.7781677246094
  0
LINE
  8
0
  6
CONTINUOUS
 62
     7
 10
341.1586608886719
 20
-421.7781677246094
 11
341.1586608886719
 21
-496.7781677246094
  0
LINE
  8
0
  6
CONTINUOUS
 62
     7
 10
341.1586608886719
 20
-421.7781677246094
 11
347.1586608886719
 21
-421.7781677246094
  0
LINE
  8
0
  6
CONTINUOUS
 62
     7
 10
341.1586608886719
 20
-496.7781677246094
 11
347.1586608886719
 21
-496.7781677246094
  0
LINE
  8
0
  6
DASHED
 62
     7
 10
371.6586608886719
 20
-598.2781982421875
 11
371.6586608886719
 21
-624.2781982421875
  0
LINE
  8
0
  6
DASHED
 62
     7
 10
390.6586608886719
 20
-598.2781982421875
 11
390.6586608886719
 21
-624.2781982421875
  0
LINE
  8
0
  6
DASHED
 62
     7
 10
570.6586303710938
 20
-598.2781982421875
 11
570.6586303710938
 21
-624.2781982421875
  0
LINE
  8
0
  6
DASHED
 62
     7
 10
551.6586303710938
 20
-598.2781982421875
 11
551.6586303710938
 21
-624.2781982421875
  0
LINE
  8
0
  6
CONTINUOUS
 62
     7
 10
246.1586456298828
 20
-422.7781677246094
 11
326.1586608886719
 21
-422.7781677246094
  0
LINE
  8
0
  6
CONTINUOUS
 62
     7
 10
326.1586608886719
 20
-422.7781677246094
 11
326.1586608886719
 21
-426.7781677246094
  0
LINE
  8
0
  6
CONTINUOUS
 62
     7
 10
540.5700073242187
 20
-598.2781982421875
 11
586.1586303710938
 21
-598.2781982421875
  0
LINE
  8
0
  6
CONTINUOUS
 62
     7
 10
401.1586608886719
 20
-452.9142150878906
 11
394.794677734375
 21
-459.2781677246094
  0
LINE
  8
0
  6
CONTINUOUS
 62
     7
 10
394.794677734375
 20
-459.2781677246094
 11
401.1586608886719
 21
-465.6421203613281
  0
LINE
  8
0
  6
CONTINUOUS
 62
     7
 10
401.1586608886719
 20
-465.6421508789063
 11
407.5226135253906
 21
-459.2781677246094
  0
LINE
  8
0
  6
CONTINUOUS
 62
     7
 10
407.5226135253906
 20
-459.2781982421875
 11
401.1586303710937
 21
-452.9142150878906
  0
LINE
  8
0
  6
CONTINUOUS
 62
     7
 10
347.1586303710937
 20
-404.2781982421875
 11
359.1586303710938
 21
-371.7781677246094
  0
LINE
  8
0
  6
CONTINUOUS
 62
     7
 10
347.1586303710937
 20
-514.2781982421875
 11
359.1586608886719
 21
-546.7781982421875
  0
LINE
  8
0
  6
CONTINUOUS
 62
     3
 10
500.1586608886719
 20
-294.3849182128906
 11
500.1586608886719
 21
-354.357177734375
  0
LINE
  8
0
  6
CONTINUOUS
 62
     3
 10
228.6586456298828
 20
-34.27817535400391
 11
662.552734375
 21
-34.27817535400391
  0
LINE
  8
0
  6
CONTINUOUS
 62
     7
 10
485.1586608886719
 20
80.72179412841797
 11
485.1586608886719
 21
-30.27817535400391
  0
LINE
  8
0
  6
CONTINUOUS
 62
     7
 10
485.1586608886719
 20
80.72179412841797
 11
503.1586608886719
 21
80.72179412841797
  0
LINE
  8
0
  6
CONTINUOUS
 62
     7
 10
485.1586608886719
 20
-149.2781829833984
 11
503.1586608886719
 21
-149.2781829833984
  0
LINE
  8
0
  6
CONTINUOUS
 62
     7
 10
503.1586608886719
 20
80.72179412841797
 11
503.1586608886719
 21
-21.84378814697266
  0
LINE
  8
0
  6
CONTINUOUS
 62
     7
 10
560.1586303710938
 20
39.22179412841797
 11
560.1586303710938
 21
-107.7781753540039
  0
LINE
  8
0
  6
CONTINUOUS
 62
     7
 10
550.1586303710938
 20
38.22179412841797
 11
550.1586303710938
 21
-106.7781753540039
  0
LINE
  8
0
  6
CONTINUOUS
 62
     7
 10
550.1586303710938
 20
-106.7781753540039
 11
560.1586303710938
 21
-106.7781753540039
  0
LINE
  8
0
  6
CONTINUOUS
 62
     7
 10
550.1586303710938
 20
38.22179412841797
 11
560.1586303710938
 21
38.22179412841797
  0
LINE
  8
0
  6
CONTINUOUS
 62
     7
 10
518.1586303710937
 20
43.22179412841797
 11
518.1586303710937
 21
-30.57007598876953
  0
LINE
  8
0
  6
CONTINUOUS
 62
     7
 10
508.1586608886719
 20
-116.7781753540039
 11
513.1586303710938
 21
-116.7781753540039
  0
LINE
  8
0
  6
CONTINUOUS
 62
     7
 10
508.1586608886719
 20
48.22179412841797
 11
513.1586303710938
 21
48.22179412841797
  0
LINE
  8
0
  6
CONTINUOUS
 62
     7
 10
512.1586303710938
 20
-82.87931060791016
 11
512.1586303710938
 21
-38.27817535400391
  0
LINE
  8
0
  6
CONTINUOUS
 62
     7
 10
503.1587219238281
 20
-21.84379577636719
 11
512.15869140625
 21
-24.25532722473145
  0
LINE
  8
0
  6
CONTINUOUS
 62
     7
 10
503.1586303710937
 20
-85.29084777832031
 11
512.1586303710938
 21
-82.87929534912109
  0
LINE
  8
0
  6
CONTINUOUS
 62
     7
 10
503.1586608886719
 20
-85.29084014892578
 11
503.1586608886719
 21
-149.2781829833984
  0
LINE
  8
0
  6
CONTINUOUS
 62
     7
 10
518.1586303710937
 20
-3.095985889434814
 11
550.1586303710938
 21
-3.095985889434814
  0
LINE
  8
0
  6
CONTINUOUS
 62
     7
 10
518.15869140625
 20
22.7974681854248
 11
550.15869140625
 21
15.96758460998535
  0
LINE
  8
0
  6
CONTINUOUS
 62
     7
 10
518.1586303710937
 20
-65.46036529541016
 11
550.1586303710938
 21
-65.46036529541016
  0
LINE
  8
0
  6
CONTINUOUS
 62
     7
 10
518.15869140625
 20
-91.35377502441406
 11
550.15869140625
 21
-84.52388763427734
  0
LINE
  8
0
  6
CONTINUOUS
 62
     7
 10
483.6586608886719
 20
-30.27817535400391
 11
516.6586303710937
 21
-30.27817535400391
  0
LINE
  8
0
  6
CONTINUOUS
 62
     7
 10
483.6586608886719
 20
-38.27817535400391
 11
516.6586303710937
 21
-38.27817535400391
  0
LINE
  8
0
  6
CONTINUOUS
 62
     7
 10
512.1586303710938
 20
-30.27817535400391
 11
512.1586303710938
 21
-24.25534820556641
  0
LINE
  8
0
  6
CONTINUOUS
 62
     7
 10
518.1586303710937
 20
-37.98627471923828
 11
518.1586303710937
 21
-111.7781753540039
  0
LINE
  8
0
  6
CONTINUOUS
 62
     7
 10
485.1586608886719
 20
-38.27817535400391
 11
485.1586608886719
 21
-149.2781829833984
  0
LINE
  8
0
  6
CONTINUOUS
 62
     3
 10
500.1586608886719
 20
-75.91285705566406
 11
500.1586608886719
 21
-48.27505493164063
  0
LINE
  8
0
  6
CONTINUOUS
 62
     7
 10
560.1586303710938
 20
39.22179412841797
 11
582.6586303710937
 21
39.22179412841797
  0
LINE
  8
0
  6
CONTINUOUS
 62
     7
 10
560.1586303710938
 20
-107.7781753540039
 11
582.6586303710937
 21
-107.7781753540039
  0
LINE
  8
0
  6
CONTINUOUS
 62
     7
 10
582.6586303710937
 20
39.22179412841797
 11
582.6586303710937
 21
-34.27817535400391
  0
LINE
  8
0
  6
CONTINUOUS
 62
     7
 10
437.1586608886719
 20
83.22179412841797
 11
481.1586608886719
 21
83.22179412841797
  0
LINE
  8
0
  6
CONTINUOUS
 62
     7
 10
437.1586608886719
 20
-151.7781829833984
 11
481.1586608886719
 21
-151.7781829833984
  0
LINE
  8
0
  6
CONTINUOUS
 62
     7
 10
437.1586608886719
 20
-145.7459259033203
 11
481.1586608886719
 21
-145.7459259033203
  0
LINE
  8
0
  6
CONTINUOUS
 62
     7
 10
433.15869140625
 20
79.22176361083984
 11
437.15869140625
 21
83.22176361083984
  0
LINE
  8
0
  6
CONTINUOUS
 62
     7
 10
481.158447265625
 20
83.22177124023437
 11
485.158447265625
 21
79.22176361083984
  0
LINE
  8
0
  6
CONTINUOUS
 62
     7
 10
485.15869140625
 20
-147.7782440185547
 11
481.15869140625
 21
-151.7782440185547
  0
LINE
  8
0
  6
CONTINUOUS
 62
     7
 10
437.1587829589844
 20
-151.7780609130859
 11
433.1587829589844
 21
-147.7780151367187
  0
LINE
  8
0
  6
CONTINUOUS
 62
     7
 10
437.1586608886719
 20
77.18944549560547
 11
481.1586608886719
 21
77.18944549560547
  0
LINE
  8
0
  6
CONTINUOUS
 62
     7
 10
437.1586608886719
 20
70.82006072998047
 11
481.1586608886719
 21
70.82006072998047
  0
LINE
  8
0
  6
CONTINUOUS
 62
     7
 10
437.1586608886719
 20
65.97203826904297
 11
481.1586608886719
 21
65.97203826904297
  0
LINE
  8
0
  6
CONTINUOUS
 62
     7
 10
437.1586608886719
 20
56.21764373779297
 11
481.1586608886719
 21
56.21764373779297
  0
LINE
  8
0
  6
CONTINUOUS
 62
     7
 10
437.1586608886719
 20
40.66295623779297
 11
481.1586608886719
 21
40.66295623779297
  0
LINE
  8
0
  6
CONTINUOUS
 62
     7
 10
437.1586608886719
 20
27.00652313232422
 11
481.1586608886719
 21
27.00652313232422
  0
LINE
  8
0
  6
CONTINUOUS
 62
     7
 10
437.1586608886719
 20
18.26131439208984
 11
481.1586608886719
 21
18.26131439208984
  0
LINE
  8
0
  6
CONTINUOUS
 62
     7
 10
437.1586608886719
 20
2.885825634002686
 11
481.1586608886719
 21
2.885825634002686
  0
LINE
  8
0
  6
CONTINUOUS
 62
     7
 10
437.1586608886719
 20
-6.727760791778564
 11
481.1586608886719
 21
-6.727760791778564
  0
LINE
  8
0
  6
CONTINUOUS
 62
     7
 10
437.1586608886719
 20
-23.27869415283203
 11
481.1586608886719
 21
-23.27869415283203
  0
LINE
  8
0
  6
CONTINUOUS
 62
     7
 10
437.1586608886719
 20
-124.776008605957
 11
481.1586608886719
 21
-124.776008605957
  0
LINE
  8
0
  6
CONTINUOUS
 62
     7
 10
437.1586608886719
 20
-134.5288848876953
 11
481.1586608886719
 21
-134.5288848876953
  0
LINE
  8
0
  6
CONTINUOUS
 62
     7
 10
437.1586608886719
 20
-139.3770294189453
 11
481.1586608886719
 21
-139.3770294189453
  0
LINE
  8
0
  6
CONTINUOUS
 62
     7
 10
371.1586608886719
 20
53.22182464599609
 11
371.1586608886719
 21
-121.7781753540039
  0
LINE
  8
0
  6
CONTINUOUS
 62
     7
 10
359.1586608886719
 20
53.22182464599609
 11
390.7220458984375
 21
53.22182464599609
  0
LINE
  8
0
  6
CONTINUOUS
 62
     7
 10
359.1586608886719
 20
53.22182464599609
 11
359.1586608886719
 21
-121.7781753540039
  0
LINE
  8
0
  6
CONTINUOUS
 62
     7
 10
347.1586608886719
 20
20.72182464599609
 11
347.1586608886719
 21
-89.27817535400391
  0
LINE
  8
0
  6
CONTINUOUS
 62
     7
 10
359.1586608886719
 20
-121.7781753540039
 11
390.7221374511719
 21
-121.7781753540039
  0
LINE
  8
0
  6
CONTINUOUS
 62
     7
 10
347.1586608886719
 20
20.72186660766602
 11
359.1586303710938
 21
53.22183609008789
  0
LINE
  8
0
  6
CONTINUOUS
 62
     7
 10
347.1586303710937
 20
-89.27812957763672
 11
359.1586303710938
 21
-121.7781600952148
  0
LINE
  8
0
  6
CONTINUOUS
 62
     7
 10
433.1586608886719
 20
91.22182464599609
 11
433.1586608886719
 21
-159.7781829833984
  0
LINE
  8
0
  6
CONTINUOUS
 62
     7
 10
413.1586608886719
 20
103.2218246459961
 11
413.1586608886719
 21
-8.297402381896973
  0
LINE
  8
0
  6
CONTINUOUS
 62
     7
 10
366.1586608886719
 20
103.2218246459961
 11
576.1586303710938
 21
103.2218246459961
  0
LINE
  8
0
  6
CONTINUOUS
 62
     7
 10
366.1586608886719
 20
-171.7781829833984
 11
576.1586303710938
 21
-171.7781829833984
  0
LINE
  8
0
  6
CONTINUOUS
 62
     7
 10
413.1586608886719
 20
-60.25894927978516
 11
413.1586608886719
 21
-171.7781829833984
  0
LINE
  8
0
  6
CONTINUOUS
 62
     7
 10
356.1586608886719
 20
93.22182464599609
 11
356.1586608886719
 21
45.09676361083984
  0
LINE
  8
0
  6
CONTINUOUS
 62
     7
 10
356.1586608886719
 20
-113.6531753540039
 11
356.1586608886719
 21
-161.7781829833984
  0
LINE
  8
0
  6
CONTINUOUS
 62
     7
 10
586.1586303710938
 20
93.22182464599609
 11
586.1586303710938
 21
56.70845794677734
  0
LINE
  8
0
  6
CONTINUOUS
 62
     7
 10
586.1586303710938
 20
-125.2647476196289
 11
586.1586303710938
 21
-161.7781829833984
  0
LINE
  8
0
  6
CONTINUOUS
 62
     7
 10
518.1586303710937
 20
37.01301193237305
 11
577.7850952148438
 21
46.8415412902832
  0
LINE
  8
0
  6
CONTINUOUS
 62
     7
 10
518.1586303710937
 20
-105.5693511962891
 11
577.7850952148438
 21
-115.3978805541992
  0
LINE
  8
0
  6
CONTINUOUS
 62
     3
 10
366.1586608886719
 20
78.22176361083984
 11
396.1586608886719
 21
78.22176361083984
  0
LINE
  8
0
  6
CONTINUOUS
 62
     3
 10
381.1586608886719
 20
93.22176361083984
 11
381.1586608886719
 21
63.22176361083984
  0
LINE
  8
0
  6
CONTINUOUS
 62
     3
 10
381.1586608886719
 20
-131.7782440185547
 11
381.1586608886719
 21
-161.7782440185547
  0
LINE
  8
0
  6
CONTINUOUS
 62
     3
 10
366.1586608886719
 20
-146.7782440185547
 11
396.1586608886719
 21
-146.7782440185547
  0
LINE
  8
0
  6
CONTINUOUS
 62
     3
 10
561.1586303710937
 20
-131.7782440185547
 11
561.1586303710937
 21
-161.7782440185547
  0
LINE
  8
0
  6
CONTINUOUS
 62
     3
 10
546.1586303710937
 20
-146.7782440185547
 11
576.1586303710938
 21
-146.7782440185547
  0
LINE
  8
0
  6
CONTINUOUS
 62
     3
 10
561.1586303710937
 20
93.22176361083984
 11
561.1586303710937
 21
63.22176361083984
  0
LINE
  8
0
  6
CONTINUOUS
 62
     3
 10
546.1586303710937
 20
78.22176361083984
 11
576.1586303710938
 21
78.22176361083984
  0
LINE
  8
0
  6
CONTINUOUS
 62
     7
 10
246.1586456298828
 20
-1.778175950050354
 11
246.1586456298828
 21
-66.77817535400391
  0
LINE
  8
0
  6
CONTINUOUS
 62
     7
 10
341.1586608886719
 20
3.221824169158936
 11
341.1586608886719
 21
-71.77817535400391
  0
LINE
  8
0
  6
CONTINUOUS
 62
     7
 10
246.1586456298828
 20
-66.77817535400391
 11
341.1586608886719
 21
-66.77817535400391
  0
LINE
  8
0
  6
CONTINUOUS
 62
     7
 10
246.1586456298828
 20
-1.778175950050354
 11
341.1586608886719
 21
-1.778175950050354
  0
LINE
  8
0
  6
CONTINUOUS
 62
     7
 10
341.1586608886719
 20
3.221824169158936
 11
347.1586608886719
 21
3.221824169158936
  0
LINE
  8
0
  6
CONTINUOUS
 62
     7
 10
341.1586608886719
 20
-71.77817535400391
 11
347.1586608886719
 21
-71.77817535400391
  0
LINE
  8
0
  6
CONTINUOUS
 62
     7
 10
246.1586456298828
 20
-43.27817535400391
 11
327.1586608886719
 21
-43.27817535400391
  0
LINE
  8
0
  6
CONTINUOUS
 62
     7
 10
246.1586456298828
 20
-25.27817535400391
 11
327.1586608886719
 21
-25.27817535400391
  0
LINE
  8
0
  6
CONTINUOUS
 62
     3
 10
401.1586608886719
 20
-114.8463516235352
 11
401.1586608886719
 21
-141.7781829833984
  0
LINE
  8
0
  6
CONTINUOUS
 62
     7
 10
391.5935974121094
 20
53.25990295410156
 11
404.0302429199219
 21
54.34796524047852
  0
LINE
  8
0
  6
CONTINUOUS
 62
     7
 10
391.5936584472656
 20
-121.8162155151367
 11
404.0302124023438
 21
-122.9042663574219
  0
LINE
  8
0
  6
CONTINUOUS
 62
     7
 10
326.1586608886719
 20
-25.27817535400391
 11
326.1586608886719
 21
-43.27817535400391
  0
LINE
  8
0
  6
CONTINUOUS
 62
     7
 10
395.2089233398438
 20
-134.7681732177734
 11
407.1083984375
 21
-134.7681732177734
  0
LINE
  8
0
  6
CONTINUOUS
 62
     7
 10
394.4227294921875
 20
-126.7681655883789
 11
407.8945922851563
 21
-126.7681655883789
  0
LINE
  8
0
  6
CONTINUOUS
 62
     7
 10
394.4226989746094
 20
-126.7681427001953
 11
394.5693054199219
 21
-122.0765228271484
  0
LINE
  8
0
  6
CONTINUOUS
 62
     7
 10
407.8946228027344
 20
-126.7681579589844
 11
407.8085021972656
 21
-124.0130615234375
  0
LINE
  8
0
  6
CONTINUOUS
 62
     7
 10
395.2089233398438
 20
-134.7681732177734
 11
395.2089233398438
 21
-126.7681655883789
  0
LINE
  8
0
  6
CONTINUOUS
 62
     7
 10
407.1083984375
 20
-134.7681732177734
 11
407.1083984375
 21
-126.7681655883789
  0
LINE
  8
0
  6
CONTINUOUS
 62
     7
 10
433.1586608886719
 20
-159.7781829833984
 11
525.1586303710937
 21
-159.7781829833984
  0
LINE
  8
0
  6
CONTINUOUS
 62
     7
 10
433.1586608886719
 20
91.22182464599609
 11
525.1586303710937
 21
91.22182464599609
  0
LINE
  8
0
  6
CONTINUOUS
 62
     3
 10
395.2088928222656
 20
-126.7681274414062
 11
401.1586303710937
 21
-134.7681121826172
  0
LINE
  8
0
  6
CONTINUOUS
 62
     7
 10
401.1586608886719
 20
-134.7681732177734
 11
401.1586608886719
 21
-126.7681655883789
  0
LINE
  8
0
  6
CONTINUOUS
 62
     3
 10
401.1586608886719
 20
-126.7681655883789
 11
407.1083679199219
 21
-134.7681579589844
  0
LINE
  8
0
  6
CONTINUOUS
 62
     3
 10
407.1083984375
 20
-126.7681503295898
 11
401.1586608886719
 21
-134.7681427001953
  0
LINE
  8
0
  6
CONTINUOUS
 62
     3
 10
401.1586608886719
 20
-126.7681350708008
 11
395.2088928222656
 21
-134.7681427001953
  0
LINE
  8
0
  6
CONTINUOUS
 62
     3
 10
488.6535339355469
 20
-60.14752960205078
 11
510.9747619628906
 21
-60.14752960205078
  0
LINE
  8
0
  6
CONTINUOUS
 62
     3
 10
-204.6723785400391
 20
-459.2781677246094
 11
96.98967742919922
 21
-459.2781677246094
  0
LINE
  8
0
  6
CONTINUOUS
 62
     3
 10
-53.84135055541992
 20
-285.2781677246094
 11
-53.84135055541992
 21
-635.7947998046875
  0
LINE
  8
0
  6
CONTINUOUS
 62
     3
 10
2.45020604133606
 20
-426.7781372070312
 11
19.77071571350098
 21
-416.7781372070312
  0
LINE
  8
0
  6
CONTINUOUS
 62
     3
 10
-110.1329803466797
 20
-426.7781372070312
 11
-127.4534759521484
 21
-416.7781372070312
  0
LINE
  8
0
  6
CONTINUOUS
 62
     3
 10
-110.1330413818359
 20
-491.778076171875
 11
-127.4535446166992
 21
-501.778076171875
  0
LINE
  8
0
  6
CONTINUOUS
 62
     3
 10
2.450266122817993
 20
-491.7781372070312
 11
19.77077293395996
 21
-501.7781372070312
  0
LINE
  8
0
  6
CONTINUOUS
 62
     3
 10
-166.3413543701172
 20
-583.2781982421875
 11
-166.3413543701172
 21
-639.2781982421875
  0
LINE
  8
0
  6
CONTINUOUS
 62
     3
 10
58.65864944458008
 20
-583.2781982421875
 11
58.65864944458008
 21
-639.2781982421875
  0
LINE
  8
0
  6
CONTINUOUS
 62
     7
 10
26.15865135192871
 20
-494.7217712402344
 11
26.15865135192871
 21
-535.4130249023438
  0
LINE
  8
0
  6
CONTINUOUS
 62
     7
 10
-107.0162124633789
 20
-539.2781982421875
 11
-89.28495025634766
 21
-539.2781982421875
  0
LINE
  8
0
  6
CONTINUOUS
 62
     7
 10
-191.3413543701172
 20
-481.7781677246094
 11
-191.3413543701172
 21
-624.2781982421875
  0
LINE
  8
0
  6
CONTINUOUS
 62
     7
 10
83.65865325927734
 20
-481.7781677246094
 11
83.65865325927734
 21
-624.2781982421875
  0
LINE
  8
0
  6
CONTINUOUS
 62
     7
 10
-191.3413543701172
 20
-624.2781982421875
 11
-121.3413467407227
 21
-624.2781982421875
  0
LINE
  8
0
  6
CONTINUOUS
 62
     7
 10
-191.3413543701172
 20
-598.2781982421875
 11
-121.3413467407227
 21
-598.2781982421875
  0
LINE
  8
0
  6
CONTINUOUS
 62
     7
 10
13.65865039825439
 20
-598.2781982421875
 11
13.65865039825439
 21
-624.2781982421875
  0
LINE
  8
0
  6
CONTINUOUS
 62
     7
 10
-121.3413467407227
 20
-598.2781982421875
 11
-121.3413467407227
 21
-624.2781982421875
  0
LINE
  8
0
  6
CONTINUOUS
 62
     7
 10
13.65865039825439
 20
-598.2781982421875
 11
83.65865325927734
 21
-598.2781982421875
  0
LINE
  8
0
  6
CONTINUOUS
 62
     7
 10
13.65865039825439
 20
-624.2781982421875
 11
83.65865325927734
 21
-624.2781982421875
  0
LINE
  8
0
  6
CONTINUOUS
 62
     7
 10
-116.3413467407227
 20
-621.2781982421875
 11
8.658650398254395
 21
-621.2781982421875
  0
LINE
  8
0
  6
CONTINUOUS
 62
     7
 10
-116.3413467407227
 20
-604.2781982421875
 11
-78.84134674072266
 21
-604.2781982421875
  0
LINE
  8
0
  6
CONTINUOUS
 62
     7
 10
-28.84134864807129
 20
-604.2781982421875
 11
8.658650398254395
 21
-604.2781982421875
  0
LINE
  8
0
  6
CONTINUOUS
 62
     7
 10
-121.3413772583008
 20
-598.2781372070313
 11
-116.9781799316406
 21
-548.4066162109375
  0
LINE
  8
0
  6
CONTINUOUS
 62
     7
 10
-139.3414001464844
 20
-598.2781372070313
 11
-133.8413848876953
 21
-535.412841796875
  0
LINE
  8
0
  6
CONTINUOUS
 62
     7
 10
13.65861415863037
 20
-598.2781982421875
 11
9.295421600341797
 21
-548.4066162109375
  0
LINE
  8
0
  6
CONTINUOUS
 62
     7
 10
31.65862655639648
 20
-598.2781372070313
 11
26.15864181518555
 21
-535.4129638671875
  0
LINE
  8
0
  6
CONTINUOUS
 62
     7
 10
-18.39774513244629
 20
-539.2781982421875
 11
-0.6665448546409607
 21
-539.2781982421875
  0
LINE
  8
0
  6
CONTINUOUS
 62
     7
 10
-133.8413543701172
 20
-494.7217712402344
 11
-133.8413543701172
 21
-535.412841796875
  0
LINE
  8
0
  6
CONTINUOUS
 62
     3
 10
33.92651748657227
 20
-495.6334838867188
 11
52.40421676635742
 21
-503.2872009277344
  0
LINE
  8
0
  6
CONTINUOUS
 62
     3
 10
33.92715072631836
 20
-422.9232788085938
 11
52.4047966003418
 21
-415.2695922851563
  0
LINE
  8
0
  6
CONTINUOUS
 62
     3
 10
-17.48653984069824
 20
-371.5096435546875
 11
-9.832846641540527
 21
-353.0320129394531
  0
LINE
  8
0
  6
CONTINUOUS
 62
     3
 10
-90.19646453857422
 20
-371.5096740722656
 11
-97.85015106201172
 21
-353.0320434570312
  0
LINE
  8
0
  6
CONTINUOUS
 62
     3
 10
-141.6099548339844
 20
-422.9235534667969
 11
-160.0876617431641
 21
-415.2698059082031
  0
LINE
  8
0
  6
CONTINUOUS
 62
     3
 10
-141.6097259521484
 20
-495.6332397460937
 11
-160.0874328613281
 21
-503.2869567871094
  0
LINE
  8
0
  6
CONTINUOUS
 62
     3
 10
-90.19621276855469
 20
-547.0465087890625
 11
-97.84992980957031
 21
-565.5242309570313
  0
LINE
  8
0
  6
CONTINUOUS
 62
     3
 10
-17.48693656921387
 20
-547.0465087890625
 11
-9.833227157592773
 21
-565.5242309570313
  0
LINE
  8
0
  6
CONTINUOUS
 62
     7
 10
-33.84135055541992
 20
-345.7405090332031
 11
-33.84135055541992
 21
-366.50830078125
  0
LINE
  8
0
  6
CONTINUOUS
 62
     7
 10
-73.84134674072266
 20
-345.7405090332031
 11
-73.84134674072266
 21
-366.50830078125
  0
LINE
  8
0
  6
DASHED
 62
     7
 10
-175.8413543701172
 20
-598.2781982421875
 11
-175.8413543701172
 21
-624.2781982421875
  0
LINE
  8
0
  6
DASHED
 62
     7
 10
-156.8413543701172
 20
-598.2781982421875
 11
-156.8413543701172
 21
-624.2781982421875
  0
LINE
  8
0
  6
DASHED
 62
     7
 10
68.15865325927734
 20
-598.2781982421875
 11
68.15865325927734
 21
-624.2781982421875
  0
LINE
  8
0
  6
DASHED
 62
     7
 10
49.15864944458008
 20
-598.2781982421875
 11
49.15864944458008
 21
-624.2781982421875
  0
LINE
  8
0
  6
CONTINUOUS
 62
     7
 10
-62.84135055541992
 20
-433.7781677246094
 11
-44.84135055541992
 21
-433.7781677246094
  0
LINE
  8
0
  6
CONTINUOUS
 62
     7
 10
-62.84135055541992
 20
-422.7781677246094
 11
-62.84135055541992
 21
-433.7781677246094
  0
LINE
  8
0
  6
CONTINUOUS
 62
     7
 10
-44.84135055541992
 20
-422.7781677246094
 11
-44.84135055541992
 21
-433.7781677246094
  0
LINE
  8
0
  6
CONTINUOUS
 62
     7
 10
-62.84135055541992
 20
-422.7781677246094
 11
-44.84135055541992
 21
-422.7781677246094
  0
LINE
  8
0
  6
CONTINUOUS
 62
     7
 10
46.64863967895508
 20
-465.2279357910156
 11
46.64863967895508
 21
-453.3283996582031
  0
LINE
  8
0
  6
CONTINUOUS
 62
     7
 10
38.64863967895508
 20
-466.0140991210938
 11
38.64863967895508
 21
-452.542236328125
  0
LINE
  8
0
  6
CONTINUOUS
 62
     7
 10
38.64865875244141
 20
-466.0141296386719
 11
33.41146850585938
 21
-465.8504638671875
  0
LINE
  8
0
  6
CONTINUOUS
 62
     7
 10
38.64865493774414
 20
-452.542236328125
 11
33.41146469116211
 21
-452.7059020996094
  0
LINE
  8
0
  6
CONTINUOUS
 62
     7
 10
46.64863967895508
 20
-465.2279357910156
 11
38.64863967895508
 21
-465.2279357910156
  0
LINE
  8
0
  6
CONTINUOUS
 62
     7
 10
46.64863967895508
 20
-453.3283996582031
 11
38.64863967895508
 21
-453.3283996582031
  0
LINE
  8
0
  6
CONTINUOUS
 62
     3
 10
46.64862823486328
 20
-453.3284606933594
 11
38.64862060546875
 21
-459.2782287597656
  0
LINE
  8
0
  6
CONTINUOUS
 62
     7
 10
38.64863967895508
 20
-459.2781677246094
 11
46.64863967895508
 21
-459.2781677246094
  0
LINE
  8
0
  6
CONTINUOUS
 62
     3
 10
46.64866638183594
 20
-459.2781982421875
 11
38.64863586425781
 21
-453.3284301757812
  0
LINE
  8
0
  6
CONTINUOUS
 62
     3
 10
38.6486701965332
 20
-459.2781982421875
 11
46.64865112304687
 21
-465.2279357910156
  0
LINE
  8
0
  6
CONTINUOUS
 62
     3
 10
46.64865112304687
 20
-459.2781372070313
 11
38.6486701965332
 21
-465.2278747558594
  0
LINE
  8
0
  6
CONTINUOUS
 62
     7
 10
-44.90077590942383
 20
-335.769775390625
 11
-43.84133529663086
 21
-341.7781677246094
  0
LINE
  8
0
  6
CONTINUOUS
 62
     7
 10
-49.84133148193359
 20
-334.0292663574219
 11
-45.85478591918945
 21
-334.7999877929687
  0
LINE
  8
0
  6
CONTINUOUS
 62
     7
 10
-49.84135055541992
 20
-304.2781677246094
 11
-49.84135055541992
 21
-339.378173828125
  0
LINE
  8
0
  6
CONTINUOUS
 62
     7
 10
-62.78190994262695
 20
-335.7698059082031
 11
-63.84131240844727
 21
-341.7779846191406
  0
LINE
  8
0
  6
CONTINUOUS
 62
     7
 10
-57.84141540527344
 20
-334.029296875
 11
-61.82796478271484
 21
-334.8000183105469
  0
LINE
  8
0
  6
CONTINUOUS
 62
     7
 10
-57.84135055541992
 20
-304.2781677246094
 11
-57.84135055541992
 21
-339.378173828125
  0
LINE
  8
0
  6
CONTINUOUS
 62
     7
 10
-16.81225776672363
 20
-334.7666931152344
 11
-32.54068756103516
 21
-331.135498046875
  0
LINE
  8
0
  6
CONTINUOUS
 62
     7
 10
-18.4114818572998
 20
-343.6342163085938
 11
-34.99052047729492
 21
-339.806640625
  0
LINE
  8
0
  6
CONTINUOUS
 62
     7
 10
-18.4114818572998
 20
-343.6341857910156
 11
-19.29277801513672
 21
-346.9721374511719
  0
LINE
  8
0
  6
CONTINUOUS
 62
     7
 10
-34.9904899597168
 20
-339.8066711425781
 11
-35.66164779663086
 21
-343.193115234375
  0
LINE
  8
0
  6
CONTINUOUS
 62
     7
 10
-16.81220626831055
 20
-334.7666931152344
 11
-18.83676528930664
 21
-343.5360412597656
  0
LINE
  8
0
  6
CONTINUOUS
 62
     7
 10
-32.54066467285156
 20
-331.135498046875
 11
-34.56522369384766
 21
-339.9048156738281
  0
LINE
  8
0
  6
CONTINUOUS
 62
     7
 10
-63.84135055541992
 20
-341.7781677246094
 11
-63.84135055541992
 21
-342.2044677734375
  0
LINE
  8
0
  6
CONTINUOUS
 62
     7
 10
-43.84135055541992
 20
-341.7781677246094
 11
-43.84135055541992
 21
-342.2044677734375
  0
LINE
  8
0
  6
CONTINUOUS
 62
     3
 10
-34.56525802612305
 20
-339.9048461914063
 11
-24.6765022277832
 21
-332.9510803222656
  0
LINE
  8
0
  6
CONTINUOUS
 62
     3
 10
-32.54063415527344
 20
-331.1354675292969
 11
-26.70100021362305
 21
-341.7203979492187
  0
LINE
  8
0
  6
CONTINUOUS
 62
     7
 10
-26.70102500915527
 20
-341.7204284667969
 11
-24.67646408081055
 21
-332.9510803222656
  0
LINE
  8
0
  6
CONTINUOUS
 62
     3
 10
-18.83676147460938
 20
-343.5360107421875
 11
-24.67645072937012
 21
-332.9510803222656
  0
LINE
  8
0
  6
CONTINUOUS
 62
     3
 10
-16.81222915649414
 20
-334.7666931152344
 11
-26.70104026794434
 21
-341.7204284667969
  0
LINE
  8
0
  6
CONTINUOUS
 62
     3
 10
-22.91422843933105
 20
-325.3180236816406
 11
-27.97199630737305
 21
-347.2256164550781
  0
LINE
  8
0
  6
CONTINUOUS
 62
     7
 10
-64.84083557128906
 20
-342.2940063476562
 11
-65.56019592285156
 21
-344.7784729003906
  0
LINE
  8
0
  6
CONTINUOUS
 62
     7
 10
-91.00538635253906
 20
-347.8104248046875
 11
-90.87512969970703
 21
-349.3593444824219
  0
LINE
  8
0
  6
CONTINUOUS
 62
     7
 10
-81.39170074462891
 20
-345.0531921386719
 11
-80.45409393310547
 21
-346.8781433105469
  0
LINE
  8
0
  6
CONTINUOUS
 62
     7
 10
500.1586303710938
 20
-53.55427551269531
 11
508.0449829101563
 21
-61.41848754882812
  0
LINE
  8
0
  6
CONTINUOUS
 62
     7
 10
492.2723388671875
 20
-61.41845321655273
 11
500.1586608886719
 21
-53.55423736572266
  0
LINE
  8
0
  6
CONTINUOUS
 62
     7
 10
508.0449523925781
 20
-63.44306182861328
 11
508.0449523925781
 21
-61.41846466064453
  0
LINE
  8
0
  6
CONTINUOUS
 62
     7
 10
492.2723083496094
 20
-63.44306182861328
 11
492.2723083496094
 21
-61.41846466064453
  0
LINE
  8
0
  6
CONTINUOUS
 62
     7
 10
500.15869140625
 20
-55.57877731323242
 11
492.2723693847656
 21
-63.4429931640625
  0
LINE
  8
0
  6
CONTINUOUS
 62
     7
 10
508.0449523925781
 20
-63.44306945800781
 11
500.1585998535156
 21
-55.578857421875
  0
LINE
  8
0
  6
CONTINUOUS
 62
     7
 10
492.2723083496094
 20
-63.44308090209961
 11
500.1585998535156
 21
-71.3072509765625
  0
LINE
  8
0
  6
CONTINUOUS
 62
     7
 10
500.15869140625
 20
-71.30719757080078
 11
508.0449829101563
 21
-63.44300079345703
  0
LINE
  8
0
  6
CONTINUOUS
 62
     7
 10
500.1586608886719
 20
-55.57880401611328
 11
500.1586608886719
 21
-53.55426788330078
  0
LINE
  8
0
  6
CONTINUOUS
 62
     3
 10
492.2723083496094
 20
-63.44300842285156
 11
500.1586608886719
 21
-53.55422973632813
  0
LINE
  8
0
  6
CONTINUOUS
 62
     3
 10
500.1586303710938
 20
-55.57878494262695
 11
492.2722778320313
 21
-61.41844177246094
  0
LINE
  8
0
  6
CONTINUOUS
 62
     3
 10
500.1586303710938
 20
-53.55423736572266
 11
508.0449829101563
 21
-63.44303894042969
  0
LINE
  8
0
  6
CONTINUOUS
 62
     3
 10
508.0450134277344
 20
-61.4184684753418
 11
500.1586608886719
 21
-55.57881164550781
  0
LINE
  8
0
  6
CONTINUOUS
 62
     7
 10
576.1190185546875
 20
-459.2781677246094
 11
605.862548828125
 21
-459.2781677246094
  0
LINE
  8
0
  6
CONTINUOUS
 62
     7
 10
582.6586303710937
 20
-386.7781677246094
 11
585.7657470703125
 21
-386.7781677246094
  0
LINE
  8
0
  6
CONTINUOUS
 62
     7
 10
582.6586303710937
 20
-531.7781982421875
 11
582.6586303710937
 21
-386.7781677246094
  0
LINE
  8
0
  6
CONTINUOUS
 62
     7
 10
597.6586303710938
 20
-531.7781982421875
 11
597.6586303710938
 21
-386.7781677246094
  0
LINE
  8
0
  6
CONTINUOUS
 62
     7
 10
582.6586303710937
 20
-531.7781982421875
 11
597.6586303710938
 21
-531.7781982421875
  0
LINE
  8
0
  6
CONTINUOUS
 62
     7
 10
582.6586303710937
 20
-386.7781677246094
 11
597.6586303710938
 21
-386.7781677246094
  0
LINE
  8
0
  6
CONTINUOUS
 62
     7
 10
582.6586303710937
 20
-106.7781753540039
 11
582.6586303710937
 21
-23.25571441650391
  0
LINE
  8
0
  6
CONTINUOUS
 62
     7
 10
597.6586303710938
 20
-106.7781753540039
 11
597.6586303710938
 21
-25.10752105712891
  0
LINE
  8
0
  6
CONTINUOUS
 62
     7
 10
582.6586303710937
 20
-106.7781753540039
 11
597.6586303710938
 21
-106.7781753540039
  0
LINE
  8
0
  6
CONTINUOUS
 62
     7
 10
576.767822265625
 20
-34.27817535400391
 11
638.1422119140625
 21
-34.27817535400391
  0
LINE
  8
0
  6
CONTINUOUS
 62
     7
 10
582.6586303710937
 20
38.22182464599609
 11
597.6586303710938
 21
38.22182464599609
  0
LINE
  8
0
  6
CONTINUOUS
 62
     7
 10
597.6586303710938
 20
-34.27817535400391
 11
597.6586303710938
 21
38.22182464599609
  0
LINE
  8
0
  6
CONTINUOUS
 62
     7
 10
642.6586303710937
 20
-359.2781677246094
 11
642.6586303710937
 21
-559.2781982421875
  0
LINE
  8
0
  6
CONTINUOUS
 62
     7
 10
627.6586303710938
 20
-359.2781677246094
 11
627.6586303710938
 21
-559.2781982421875
  0
LINE
  8
0
  6
CONTINUOUS
 62
     7
 10
602.6586303710937
 20
-421.2781677246094
 11
622.6586303710938
 21
-421.2781677246094
  0
LINE
  8
0
  6
CONTINUOUS
 62
     7
 10
602.6586303710937
 20
-497.2781677246094
 11
622.6586303710938
 21
-497.2781677246094
  0
LINE
  8
0
  6
CONTINUOUS
 62
     7
 10
597.6586303710938
 20
-515.2781982421875
 11
627.6586303710938
 21
-515.2781982421875
  0
LINE
  8
0
  6
CONTINUOUS
 62
     7
 10
597.6586303710938
 20
-403.2781677246094
 11
627.6586303710938
 21
-403.2781677246094
  0
LINE
  8
0
  6
CONTINUOUS
 62
     7
 10
627.6586303710938
 20
-559.2781982421875
 11
642.6586303710937
 21
-559.2781982421875
  0
LINE
  8
0
  6
CONTINUOUS
 62
     7
 10
627.6586303710938
 20
-359.2781677246094
 11
642.6586303710937
 21
-359.2781677246094
  0
LINE
  8
0
  6
CONTINUOUS
 62
     7
 10
597.6586303710938
 20
-464.2781677246094
 11
627.6586303710938
 21
-464.2781677246094
  0
LINE
  8
0
  6
CONTINUOUS
 62
     7
 10
597.6586303710938
 20
-454.2781677246094
 11
627.6586303710938
 21
-454.2781677246094
  0
LINE
  8
0
  6
CONTINUOUS
 62
     7
 10
597.6586303710938
 20
-29.27817535400391
 11
627.6586303710938
 21
-29.27817535400391
  0
LINE
  8
0
  6
CONTINUOUS
 62
     7
 10
597.6586303710938
 20
-39.27817535400391
 11
627.6586303710938
 21
-39.27817535400391
  0
LINE
  8
0
  6
CONTINUOUS
 62
     7
 10
627.6586303710938
 20
65.72182464599609
 11
642.6586303710937
 21
65.72182464599609
  0
LINE
  8
0
  6
CONTINUOUS
 62
     7
 10
627.6586303710938
 20
-134.2781829833984
 11
642.6586303710937
 21
-134.2781829833984
  0
LINE
  8
0
  6
CONTINUOUS
 62
     7
 10
597.6586303710938
 20
21.72182464599609
 11
627.6586303710938
 21
21.72182464599609
  0
LINE
  8
0
  6
CONTINUOUS
 62
     7
 10
597.6586303710938
 20
-90.27817535400391
 11
627.6586303710938
 21
-90.27817535400391
  0
LINE
  8
0
  6
CONTINUOUS
 62
     7
 10
602.6586303710937
 20
-72.27817535400391
 11
622.6586303710938
 21
-72.27817535400391
  0
LINE
  8
0
  6
CONTINUOUS
 62
     7
 10
602.6586303710937
 20
3.721824169158936
 11
622.6586303710938
 21
3.721824169158936
  0
LINE
  8
0
  6
CONTINUOUS
 62
     7
 10
627.6586303710938
 20
65.72182464599609
 11
627.6586303710938
 21
-134.2781829833984
  0
LINE
  8
0
  6
CONTINUOUS
 62
     7
 10
642.6586303710937
 20
65.72182464599609
 11
642.6586303710937
 21
-134.2781829833984
  0
LINE
  8
0
  6
CONTINUOUS
 62
     7
 10
578.5160522460938
 20
-34.27817535400391
 11
646.6796264648437
 21
-34.27817535400391
  0
LINE
  8
0
  6
CONTINUOUS
 62
     7
 10
582.6586303710937
 20
-11.26230144500732
 11
582.6586303710937
 21
38.22182464599609
  0
LINE
  8
0
  6
CONTINUOUS
 62
     7
 10
582.6586303710937
 20
-23.25597763061523
 11
582.6586303710937
 21
-107.7781753540039
  0
LINE
  8
0
  6
CONTINUOUS
 62
     7
 10
471.5301208496094
 20
-320.7781677246094
 11
525.069091796875
 21
-320.7781677246094
  0
ARC
  8
0
  6
CONTINUOUS
 62
     7
 10
513.1586303710938
 20
-536.7781982421875
 40
5.000000000000019
 50
270.0000179860897
 51
0
  0
ARC
  8
0
  6
CONTINUOUS
 62
     7
 10
508.1586608886719
 20
-546.7781982421875
 40
5.000000000000019
 50
89.99998201391097
 51
179.9999640278219
  0
ARC
  8
0
  6
CONTINUOUS
 62
     7
 10
508.1586608886719
 20
-371.7781677246094
 40
4.999999999999981
 50
179.9999776881996
 51
269.9999733624889
  0
ARC
  8
0
  6
CONTINUOUS
 62
     7
 10
513.1586303710938
 20
-381.7781677246094
 40
5
 50
359.9999453584866
 51
89.99992737239695
  0
ARC
  8
0
  6
CONTINUOUS
 62
     7
 10
514.1586303710938
 20
-374.7781677246094
 40
2.000000000000038
 50
179.9999776882003
 51
270.0000280040029
  0
ARC
  8
0
  6
CONTINUOUS
 62
     7
 10
514.1586303710938
 20
-543.7781982421875
 40
1.999999999999985
 50
89.99998201391097
 51
179.9999640278219
  0
ARC
  8
0
  6
CONTINUOUS
 62
     7
 10
500.1586608886719
 20
-320.7781677246094
 40
20.50000000000001
 50
296.8635071615863
 51
242.013983578035
  0
ARC
  8
0
  6
CONTINUOUS
 62
     7
 10
500.1586608886719
 20
-320.7781677246094
 40
12.5
 50
0
 51
256.8639076639099
  0
ARC
  8
0
  6
CONTINUOUS
 62
     7
 10
500.1586608886719
 20
-320.7781677246094
 40
12.49999999999998
 50
283.1360905148572
 51
0
  0
ARC
  8
0
  6
CONTINUOUS
 62
     7
 10
540.5700073242187
 20
-578.2781982421875
 40
19.99999999999996
 50
215.0000016568316
 51
270.0000179860893
  0
ARC
  8
0
  6
CONTINUOUS
 62
     7
 10
403.1586608886719
 20
-588.2781982421875
 40
10.00000000000004
 50
270.0000179860893
 51
0
  0
ARC
  8
0
  6
CONTINUOUS
 62
     7
 10
324.3421936035156
 20
-559.7073364257813
 40
49.99999999999996
 50
309.5186524105152
 51
354.9999975841326
  0
ARC
  8
0
  6
CONTINUOUS
 62
     7
 10
493.1586608886719
 20
-440.8299865722656
 40
60
 50
179.999991348578
 51
215.0000116747444
  0
CIRCLE
  8
0
  6
CONTINUOUS
 62
     3
 10
401.1586608886719
 20
-459.2781677246094
 40
6.735937595367432
  0
CIRCLE
  8
0
  6
CONTINUOUS
 62
     3
 10
401.1586608886719
 20
-524.2781982421875
 40
6.735937595367432
  0
ARC
  8
0
  6
CONTINUOUS
 62
     7
 10
388.1586608886719
 20
-361.7781677246094
 40
10.00000000000001
 50
269.9999974955218
 51
0
  0
ARC
  8
0
  6
CONTINUOUS
 62
     7
 10
403.1586608886719
 20
-361.7781677246094
 40
10.00000000000001
 50
269.9999974955218
 51
0
  0
ARC
  8
0
  6
CONTINUOUS
 62
     7
 10
513.1586303710938
 20
43.22179412841797
 40
5
 50
0
 51
89.99998201391031
  0
ARC
  8
0
  6
CONTINUOUS
 62
     7
 10
513.1586303710938
 20
-111.7781753540039
 40
5.000000000000004
 50
270.0000179860897
 51
0
  0
ARC
  8
0
  6
CONTINUOUS
 62
     7
 10
508.1586608886719
 20
-121.7781753540039
 40
5.000000000000004
 50
89.99998201391097
 51
179.9999640278213
  0
ARC
  8
0
  6
CONTINUOUS
 62
     7
 10
508.1586608886719
 20
53.22179412841797
 40
4.999999999999981
 50
179.9999776881996
 51
270.0000280040023
  0
ARC
  8
0
  6
CONTINUOUS
 62
     7
 10
500.1586608886719
 20
-34.27817535400391
 40
9.999999999999986
 50
23.57817672245736
 51
156.4218368242355
  0
ARC
  8
0
  6
CONTINUOUS
 62
     7
 10
483.6586608886719
 20
-34.27817535400391
 40
4.000000000000002
 50
89.99998201391097
 51
270.0000006832454
  0
ARC
  8
0
  6
CONTINUOUS
 62
     7
 10
516.6586303710937
 20
-34.27817535400391
 40
3.999999999999998
 50
270.0000179860891
 51
89.99998201391097
  0
ARC
  8
0
  6
CONTINUOUS
 62
     7
 10
500.1586608886719
 20
-34.27817535400391
 40
10.00000000000001
 50
203.5781631757645
 51
336.4218232775426
  0
ARC
  8
0
  6
CONTINUOUS
 62
     7
 10
366.1586608886719
 20
-116.7781753540039
 40
10.00000000000001
 50
166.349516782849
 51
179.9999640278213
  0
ARC
  8
0
  6
CONTINUOUS
 62
     7
 10
366.1586608886719
 20
48.22182464599609
 40
10.00000000000002
 50
179.9999776881997
 51
193.6504795746853
  0
ARC
  8
0
  6
CONTINUOUS
 62
     7
 10
418.1586608886719
 20
-34.27817535400391
 40
20.00000000000001
 50
120.000030660061
 51
239.9999520370951
  0
ARC
  8
0
  6
CONTINUOUS
 62
     7
 10
403.1586608886719
 20
-8.297402381896973
 40
10
 50
299.9999300284562
 51
360
  0
ARC
  8
0
  6
CONTINUOUS
 62
     7
 10
403.1586608886719
 20
-60.25894927978516
 40
10
 50
0
 51
60.00006997154377
  0
ARC
  8
0
  6
CONTINUOUS
 62
     7
 10
576.1586303710938
 20
-125.2647476196289
 40
10
 50
0
 51
80.6398361338119
  0
ARC
  8
0
  6
CONTINUOUS
 62
     7
 10
576.1586303710938
 20
56.70845794677734
 40
9.999999999999996
 50
279.360204847323
 51
0
  0
ARC
  8
0
  6
CONTINUOUS
 62
     7
 10
327.1586608886719
 20
-34.27817535400391
 40
9.000000000000004
 50
270.0000179860894
 51
89.99998201391061
  0
CIRCLE
  8
0
  6
CONTINUOUS
 62
     7
 10
381.1586608886719
 20
78.22176361083984
 40
9.5
  0
CIRCLE
  8
0
  6
CONTINUOUS
 62
     7
 10
561.1586303710937
 20
78.22176361083984
 40
9.5
  0
CIRCLE
  8
0
  6
CONTINUOUS
 62
     7
 10
381.1586608886719
 20
-146.7782440185547
 40
9.5
  0
CIRCLE
  8
0
  6
CONTINUOUS
 62
     7
 10
561.1586303710937
 20
-146.7782440185547
 40
9.5
  0
ARC
  8
0
  6
CONTINUOUS
 62
     7
 10
390.7220458984375
 20
63.22182464599609
 40
10
 50
270.0000179860893
 51
274.9999555151597
  0
ARC
  8
0
  6
CONTINUOUS
 62
     7
 10
390.7221374511719
 20
-131.7781829833984
 40
9.999999999999996
 50
85.00004448484029
 51
89.99998201391064
  0
ARC
  8
0
  6
CONTINUOUS
 62
     7
 10
403.1586608886719
 20
64.30989837646484
 40
10
 50
274.9999555151597
 51
0
  0
ARC
  8
0
  6
CONTINUOUS
 62
     7
 10
403.1586608886719
 20
-132.8662567138672
 40
10
 50
0
 51
85.00004448484029
  0
ARC
  8
0
  6
CONTINUOUS
 62
     7
 10
366.1586608886719
 20
93.22182464599609
 40
9.999999999999995
 50
90.00000250447815
 51
180.0000050089563
  0
ARC
  8
0
  6
CONTINUOUS
 62
     7
 10
366.1586608886719
 20
-161.7781829833984
 40
10
 50
179.999991348578
 51
270.0000006832453
  0
ARC
  8
0
  6
CONTINUOUS
 62
     7
 10
576.1586303710938
 20
93.22182464599609
 40
10
 50
0
 51
90.00000250447847
  0
ARC
  8
0
  6
CONTINUOUS
 62
     7
 10
576.1586303710938
 20
-161.7781829833984
 40
10.00000000000001
 50
269.9999974955215
 51
0
  0
ARC
  8
0
  6
CONTINUOUS
 62
     7
 10
525.1586303710937
 20
86.22182464599609
 40
5
 50
27.59400864308113
 51
90.00000250447782
  0
ARC
  8
0
  6
CONTINUOUS
 62
     7
 10
525.1586303710937
 20
-154.7781829833984
 40
5.000000000000004
 50
269.9999974955222
 51
348.3629448195065
  0
ARC
  8
0
  6
CONTINUOUS
 62
     7
 10
-53.84135055541992
 20
-459.2781677246094
 40
32.50000000000001
 50
106.0766490558549
 51
73.92333865025743
  0
ARC
  8
0
  6
CONTINUOUS
 62
     7
 10
-53.84135055541992
 20
-384.2781677246094
 40
13
 50
165.5410136304162
 51
14.45902871720947
  0
CIRCLE
  8
0
  6
CONTINUOUS
 62
     7
 10
-53.84135055541992
 20
-459.2781677246094
 40
87.5
  0
ARC
  8
0
  6
CONTINUOUS
 62
     3
 10
-53.84135055541992
 20
-459.2781677246094
 40
75.00000000000001
 50
22.3549017949391
 51
37.64509987471304
  0
ARC
  8
0
  6
CONTINUOUS
 62
     7
 10
11.11055469512939
 20
-421.7781677246094
 40
13
 50
105.5411690551151
 51
314.4589041041522
  0
ARC
  8
0
  6
CONTINUOUS
 62
     3
 10
-53.84135055541992
 20
-459.2781677246094
 40
74.99999999999999
 50
82.35491029478037
 51
97.64511520474348
  0
ARC
  8
0
  6
CONTINUOUS
 62
     7
 10
-118.7932510375977
 20
-421.7781677246094
 40
12.99999999999999
 50
225.541059923669
 51
74.45884961421957
  0
ARC
  8
0
  6
CONTINUOUS
 62
     3
 10
-53.84135055541992
 20
-459.2781677246094
 40
75
 50
142.3549119644325
 51
157.6451100442064
  0
ARC
  8
0
  6
CONTINUOUS
 62
     7
 10
-118.7932510375977
 20
-496.7781677246094
 40
13.00000000000002
 50
285.5411367254021
 51
134.458940076331
  0
ARC
  8
0
  6
CONTINUOUS
 62
     3
 10
-53.84135055541992
 20
-459.2781677246094
 40
75
 50
202.3549172765502
 51
217.6451153563242
  0
ARC
  8
0
  6
CONTINUOUS
 62
     7
 10
-53.84135055541992
 20
-534.2781982421875
 40
13.00000000000001
 50
345.5409778856085
 51
194.458982727118
  0
ARC
  8
0
  6
CONTINUOUS
 62
     3
 10
-53.84135055541992
 20
-459.2781677246094
 40
75
 50
262.3549121160132
 51
277.6451101957871
  0
ARC
  8
0
  6
CONTINUOUS
 62
     7
 10
11.11055469512939
 20
-496.7781677246094
 40
13.00000000000002
 50
45.54107517790923
 51
254.4588341326084
  0
ARC
  8
0
  6
CONTINUOUS
 62
     3
 10
-53.84135055541992
 20
-459.2781677246094
 40
75
 50
322.3549069554762
 51
337.6451050352501
  0
CIRCLE
  8
0
  6
CONTINUOUS
 62
     7
 10
-53.84135055541992
 20
-459.2781677246094
 40
55
  0
ARC
  8
0
  6
CONTINUOUS
 62
     7
 10
-116.3413467407227
 20
-626.2781982421875
 40
5.000000000000019
 50
89.99998201391064
 51
156.4218641449927
  0
ARC
  8
0
  6
CONTINUOUS
 62
     7
 10
8.658650398254395
 20
-626.2781982421875
 40
5.00000000000002
 50
23.57815623189036
 51
89.99998201391065
  0
ARC
  8
0
  6
CONTINUOUS
 62
     7
 10
-116.3413467407227
 20
-599.2781982421875
 40
4.999999999999996
 50
179.9999776882003
 51
270.0000280040019
  0
ARC
  8
0
  6
CONTINUOUS
 62
     7
 10
8.658650398254395
 20
-599.2781982421875
 40
5.000000000000019
 50
270.0000179860893
 51
0
  0
ARC
  8
0
  6
CONTINUOUS
 62
     7
 10
-28.84134864807129
 20
-599.2781982421875
 40
5.000000000000003
 50
179.9999776882003
 51
270.000028004002
  0
ARC
  8
0
  6
CONTINUOUS
 62
     7
 10
-78.84134674072266
 20
-599.2781982421875
 40
5.000000000000019
 50
270.0000179860893
 51
0
  0
ARC
  8
0
  6
CONTINUOUS
 62
     7
 10
-0.6665448546409607
 20
-549.2781982421875
 40
10
 50
4.999995585678207
 51
89.99998201391065
  0
ARC
  8
0
  6
CONTINUOUS
 62
     7
 10
-107.0162124633789
 20
-549.2781982421875
 40
10.00000000000004
 50
89.99998201391064
 51
174.9999923478053
  0
ARC
  8
0
  6
CONTINUOUS
 62
     7
 10
-53.84135055541992
 20
-481.7781677246094
 40
137.5
 50
0
 51
179.9999640278213
  0
ARC
  8
0
  6
CONTINUOUS
 62
     3
 10
-53.84135055541992
 20
-459.2781677246094
 40
105
 50
332.0411807080648
 51
342.9587804736557
  0
ARC
  8
0
  6
CONTINUOUS
 62
     3
 10
-53.84135055541992
 20
-459.2781677246094
 40
105
 50
17.04117683766195
 51
27.95878514098941
  0
ARC
  8
0
  6
CONTINUOUS
 62
     3
 10
-53.84135055541992
 20
-459.2781677246094
 40
105
 50
62.04117638235374
 51
72.9587829781339
  0
ARC
  8
0
  6
CONTINUOUS
 62
     3
 10
-53.84135055541992
 20
-459.2781677246094
 40
105
 50
107.0411742194982
 51
117.9587876454676
  0
ARC
  8
0
  6
CONTINUOUS
 62
     3
 10
-53.84135055541992
 20
-459.2781677246094
 40
105
 50
152.0411720566428
 51
162.9587786524229
  0
ARC
  8
0
  6
CONTINUOUS
 62
     3
 10
-53.84135055541992
 20
-459.2781677246094
 40
105
 50
197.0411940268204
 51
207.9587869622222
  0
ARC
  8
0
  6
CONTINUOUS
 62
     3
 10
-53.84135055541992
 20
-459.2781677246094
 40
105
 50
242.0411850337757
 51
252.9587847993667
  0
ARC
  8
0
  6
CONTINUOUS
 62
     3
 10
-53.84135055541992
 20
-459.2781677246094
 40
105.0000000000001
 50
287.0411828709202
 51
297.9587826365112
  0
ARC
  8
0
  6
CONTINUOUS
 62
     7
 10
-23.84134864807129
 20
-366.50830078125
 40
9.999999999999998
 50
179.9999776881996
 51
252.079879244693
  0
ARC
  8
0
  6
CONTINUOUS
 62
     7
 10
-83.84134674072266
 20
-366.50830078125
 40
10.00000000000003
 50
287.9201052736958
 51
0
  0
ARC
  8
0
  6
CONTINUOUS
 62
     7
 10
-46.08256149291992
 20
-335.9781799316406
 40
1.200000047683718
 50
10.0000005628676
 51
79.0580531144962
  0
ARC
  8
0
  6
CONTINUOUS
 62
     7
 10
-53.84135055541992
 20
-304.2781677246094
 40
4
 50
0
 51
179.9999640278211
  0
ARC
  8
0
  6
CONTINUOUS
 62
     7
 10
-48.64133834838867
 20
-339.378173828125
 40
1.200000047683714
 50
179.9999776881984
 51
270.0000280040019
  0
ARC
  8
0
  6
CONTINUOUS
 62
     7
 10
-59.04136276245117
 20
-339.378173828125
 40
1.200000047683734
 50
269.9999633445759
 51
0
  0
ARC
  8
0
  6
CONTINUOUS
 62
     7
 10
-61.60013961791992
 20
-335.9781799316406
 40
1.20000004768373
 50
100.9419109133252
 51
169.9999660262759
  0
ARC
  8
0
  6
CONTINUOUS
 62
     7
 10
-53.84135055541992
 20
-459.2781677246094
 40
117.5
 50
60.31883490010829
 51
95.3717413810181
  0
ARC
  8
0
  6
CONTINUOUS
 62
     7
 10
-53.84135055541992
 20
-459.2781677246094
 40
117.5
 50
103.5611586864309
 51
108.4388699803038
  0
ARC
  8
0
  6
CONTINUOUS
 62
     7
 10
602.6586303710937
 20
-416.2781677246094
 40
4.999999999999943
 50
179.999991348578
 51
270.0000006832456
  0
ARC
  8
0
  6
CONTINUOUS
 62
     7
 10
622.6586303710938
 20
-416.2781677246094
 40
5.000000000000004
 50
269.9999974955222
 51
0
  0
ARC
  8
0
  6
CONTINUOUS
 62
     7
 10
602.6586303710937
 20
-502.2781677246094
 40
5.000000000000004
 50
90.00000250447782
 51
180.0000050089563
  0
ARC
  8
0
  6
CONTINUOUS
 62
     7
 10
622.6586303710938
 20
-502.2781677246094
 40
5
 50
0
 51
90.00000250447782
  0
ARC
  8
0
  6
CONTINUOUS
 62
     7
 10
622.6586303710938
 20
-77.27817535400391
 40
5
 50
0
 51
90.00000250447782
  0
ARC
  8
0
  6
CONTINUOUS
 62
     7
 10
602.6586303710937
 20
-77.27817535400391
 40
5.000000000000004
 50
90.00000250447782
 51
180.0000050089563
  0
ARC
  8
0
  6
CONTINUOUS
 62
     7
 10
622.6586303710938
 20
8.721823692321777
 40
4.999999999999999
 50
269.9999974955222
 51
360
  0
ARC
  8
0
  6
CONTINUOUS
 62
     7
 10
602.6586303710937
 20
8.721823692321777
 40
4.999999999999943
 50
179.999991348578
 51
270.0000006832456
  0
POLYLINE
  8
0
  6
CONTINUOUS
 62
     7
 66
     1
 10
0
 20
0
  0
VERTEX
  8
0
  6
CONTINUOUS
 62
     7
 10
492.087639544194
 20
-341.1152604493997
 42
0.5547852449200663
  0
VERTEX
  8
0
  6
CONTINUOUS
 62
     7
 10
491.8365138075995
 20
-342.1178258015085
 42
0.1035254123975265
  0
VERTEX
  8
0
  6
CONTINUOUS
 62
     7
 10
492.8931862922295
 20
-342.7161184822223
 42
0.03106237593181796
  0
VERTEX
  8
0
  6
CONTINUOUS
 62
     7
 10
494.0684247932215
 20
-343.0567114381329
 42
0.01736653360953245
  0
VERTEX
  8
0
  6
CONTINUOUS
 62
     7
 10
495.2706368122539
 20
-343.2867938094977
 42
0.01227962950833505
  0
VERTEX
  8
0
  6
CONTINUOUS
 62
     7
 10
496.4844650217044
 20
-343.446522923433
 42
0.009889494825997136
  0
VERTEX
  8
0
  6
CONTINUOUS
 62
     7
 10
497.7051882676269
 20
-343.5528877249287
 42
0.008687601315176357
  0
VERTEX
  8
0
  6
CONTINUOUS
 62
     7
 10
498.9291696256751
 20
-343.6141044905301
 42
0.008173081189667768
  0
VERTEX
  8
0
  6
CONTINUOUS
 62
     7
 10
500.1545677916882
 20
-343.6341937406606
 42
0.008170536145920001
  0
VERTEX
  8
0
  6
CONTINUOUS
 62
     7
 10
501.3798347577455
 20
-343.6143761152258
 42
0.0086826375437426
  0
VERTEX
  8
0
  6
CONTINUOUS
 62
     7
 10
502.6039024412701
 20
-343.5534429418823
 42
0.009879235935964617
  0
VERTEX
  8
0
  6
CONTINUOUS
 62
     7
 10
503.8247621923111
 20
-343.4473913648646
 42
0.0122726830518084
  0
VERTEX
  8
0
  6
CONTINUOUS
 62
     7
 10
505.0399867445278
 20
-343.2878471296407
 42
0.01736331859290806
  0
VERTEX
  8
0
  6
CONTINUOUS
 62
     7
 10
506.2444994689299
 20
-343.0577200324954
 42
0.0310227677820844
  0
VERTEX
  8
0
  6
CONTINUOUS
 62
     7
 10
507.4211623376519
 20
-342.7172077433516
 42
0.103461313138615
  0
VERTEX
  8
0
  6
CONTINUOUS
 62
     7
 10
508.4802249031426
 20
-342.1184210503715
 42
0.5548958390613389
  0
VERTEX
  8
0
  6
CONTINUOUS
 62
     7
 10
508.2315674368106
 20
-341.1165483612947
 42
0
  0
SEQEND
  8
0
  0
POLYLINE
  8
0
  6
CONTINUOUS
 62
     7
 66
     1
 10
0
 20
0
  0
VERTEX
  8
0
  6
CONTINUOUS
 62
     7
 10
491.8371172254067
 20
-347.5193868321081
 42
0.2480516466255347
  0
VERTEX
  8
0
  6
CONTINUOUS
 62
     7
 10
492.5608612955456
 20
-348.2829490216985
 42
0.04463918233041511
  0
VERTEX
  8
0
  6
CONTINUOUS
 62
     7
 10
493.5917544133094
 20
-348.6691488410915
 42
0.02127731874937395
  0
VERTEX
  8
0
  6
CONTINUOUS
 62
     7
 10
494.6642340691388
 20
-348.9252798530863
 42
0.01386120226695716
  0
VERTEX
  8
0
  6
CONTINUOUS
 62
     7
 10
495.7522837344341
 20
-349.1073618523755
 42
0.01053517461415886
  0
VERTEX
  8
0
  6
CONTINUOUS
 62
     7
 10
496.8479709947352
 20
-349.2368100301449
 42
0.008818374795333482
  0
VERTEX
  8
0
  6
CONTINUOUS
 62
     7
 10
497.9481377977657
 20
-349.3240810815978
 42
0.007913254566941459
  0
VERTEX
  8
0
  6
CONTINUOUS
 62
     7
 10
499.0507161990953
 20
-349.374669294253
 42
0.007515671351105246
  0
VERTEX
  8
0
  6
CONTINUOUS
 62
     7
 10
500.1543618541518
 20
-349.391334825704
 42
0.007513368252385876
  0
VERTEX
  8
0
  6
CONTINUOUS
 62
     7
 10
501.2578915907129
 20
-349.3749309455764
 42
0.007906197112098862
  0
VERTEX
  8
0
  6
CONTINUOUS
 62
     7
 10
502.3601896249938
 20
-349.3246360674273
 42
0.008816439492181943
  0
VERTEX
  8
0
  6
CONTINUOUS
 62
     7
 10
503.4613057154377
 20
-349.2375916500142
 42
0.01052294317093517
  0
VERTEX
  8
0
  6
CONTINUOUS
 62
     7
 10
504.5574802775995
 20
-349.1084188942309
 42
0.01384195503705242
  0
VERTEX
  8
0
  6
CONTINUOUS
 62
     7
 10
505.6464782874279
 20
-348.9265814470379
 42
0.02126298710437296
  0
VERTEX
  8
0
  6
CONTINUOUS
 62
     7
 10
506.721301925715
 20
-348.6703745552594
 42
0.0445679716079396
  0
VERTEX
  8
0
  6
CONTINUOUS
 62
     7
 10
507.754088890682
 20
-348.2841315483932
 42
0.2481427691486794
  0
VERTEX
  8
0
  6
CONTINUOUS
 62
     7
 10
508.4801836316567
 20
-347.5193868321081
 42
0
  0
SEQEND
  8
0
  0
POLYLINE
  8
0
  6
CONTINUOUS
 62
     7
 66
     1
 10
0
 20
0
  0
VERTEX
  8
0
  6
CONTINUOUS
 62
     7
 10
508.4700844976039
 20
-59.64937052169611
 42
0.04847174459633689
  0
VERTEX
  8
0
  6
CONTINUOUS
 62
     7
 10
508.223860576822
 20
-58.11386336813644
 42
0.04822466311256841
  0
VERTEX
  8
0
  6
CONTINUOUS
 62
     7
 10
507.6872936268103
 20
-56.65428988709571
 42
0.0478438667387714
  0
VERTEX
  8
0
  6
CONTINUOUS
 62
     7
 10
506.881910735033
 20
-55.32372263575732
 42
0.04737580930110417
  0
VERTEX
  8
0
  6
CONTINUOUS
 62
     7
 10
505.8393144451427
 20
-54.1694552113679
 42
0.04690357525676828
  0
VERTEX
  8
0
  6
CONTINUOUS
 62
     7
 10
504.5986789370089
 20
-53.23067130328865
 42
0.04648608483100417
  0
VERTEX
  8
0
  6
CONTINUOUS
 62
     7
 10
503.2050562090426
 20
-52.53820509933986
 42
0.0461708484959874
  0
VERTEX
  8
0
  6
CONTINUOUS
 62
     7
 10
501.7076544142336
 20
-52.11409511527128
 42
0.04597934888313404
  0
VERTEX
  8
0
  6
CONTINUOUS
 62
     7
 10
500.1586504285317
 20
-51.9713826817175
 42
0.04597362496070213
  0
VERTEX
  8
0
  6
CONTINUOUS
 62
     7
 10
498.6098297866956
 20
-52.11406059148037
 42
0.04614341608744145
  0
VERTEX
  8
0
  6
CONTINUOUS
 62
     7
 10
497.1132609479736
 20
-52.53780953205413
 42
0.04646182626289686
  0
VERTEX
  8
0
  6
CONTINUOUS
 62
     7
 10
495.7202071852221
 20
-53.22967942730349
 42
0.04689210879217173
  0
VERTEX
  8
0
  6
CONTINUOUS
 62
     7
 10
494.4796048871245
 20
-54.16794675624357
 42
0.04738569363466812
  0
VERTEX
  8
0
  6
CONTINUOUS
 62
     7
 10
493.436474186406
 20
-55.32221332943984
 42
0.04786779629520672
  0
VERTEX
  8
0
  6
CONTINUOUS
 62
     7
 10
492.6304316479594
 20
-56.65330572024909
 42
0.04826091285998527
  0
VERTEX
  8
0
  6
CONTINUOUS
 62
     7
 10
492.0933660284022
 20
-58.1139298483058
 42
0.04849630551291292
  0
VERTEX
  8
0
  6
CONTINUOUS
 62
     7
 10
491.8471038811626
 20
-59.65020299438787
 42
0
  0
SEQEND
  8
0
  0
POLYLINE
  8
0
  6
CONTINUOUS
 62
     7
 66
     1
 10
0
 20
0
  0
VERTEX
  8
0
  6
CONTINUOUS
 62
     7
 10
501.9483665191024
 20
-69.52251327795489
 42
0.08922772544192889
  0
VERTEX
  8
0
  6
CONTINUOUS
 62
     7
 10
504.7819808677123
 20
-68.37710673170085
 42
0.09150446541458125
  0
VERTEX
  8
0
  6
CONTINUOUS
 62
     7
 10
507.0298847044293
 20
-66.30630557465669
 42
0.09396300828416322
  0
VERTEX
  8
0
  6
CONTINUOUS
 62
     7
 10
508.3762658497881
 20
-63.56397874655752
 42
0.09531374866401029
  0
VERTEX
  8
0
  6
CONTINUOUS
 62
     7
 10
508.6159114860253
 20
-60.51885597612173
 42
0.09472483127831613
  0
VERTEX
  8
0
  6
CONTINUOUS
 62
     7
 10
507.7105775541444
 20
-57.60143289485761
 42
0.09255039339362713
  0
VERTEX
  8
0
  6
CONTINUOUS
 62
     7
 10
505.8023978839768
 20
-55.21560283827311
 42
0.09010467939877617
  0
VERTEX
  8
0
  6
CONTINUOUS
 62
     7
 10
503.1671279962641
 20
-53.66458056422227
 42
0.08842983426176654
  0
VERTEX
  8
0
  6
CONTINUOUS
 62
     7
 10
500.1586504285317
 20
-53.128975455155
 42
0.08846547153101346
  0
VERTEX
  8
0
  6
CONTINUOUS
 62
     7
 10
497.1490026614196
 20
-53.66500870037037
 42
0.09004159966883123
  0
VERTEX
  8
0
  6
CONTINUOUS
 62
     7
 10
494.5155401699037
 20
-55.21502914024664
 42
0.09257754888261521
  0
VERTEX
  8
0
  6
CONTINUOUS
 62
     7
 10
492.6066590085198
 20
-57.60146439985798
 42
0.09475323273327252
  0
VERTEX
  8
0
  6
CONTINUOUS
 62
     7
 10
491.7012268918847
 20
-60.51976929213835
 42
0.09529139742078711
  0
VERTEX
  8
0
  6
CONTINUOUS
 62
     7
 10
491.9410204682624
 20
-63.5641314470975
 42
0.09395224167902498
  0
VERTEX
  8
0
  6
CONTINUOUS
 62
     7
 10
493.2872539385984
 20
-66.30614171049108
 42
0.09149366215385517
  0
VERTEX
  8
0
  6
CONTINUOUS
 62
     7
 10
495.534823449994
 20
-68.3768051665548
 42
0.08926441766396918
  0
VERTEX
  8
0
  6
CONTINUOUS
 62
     7
 10
498.3696378147124
 20
-69.52266137867187
 42
0
  0
SEQEND
  8
0
  0
TEXT
  8
0
  6
CONTINUOUS
 62
     7
 10
-187.769926071167
 20
-46.77817535400391
 40
25
 41
1.015037624961451
  1
ERK-NAD-750
  0
ENDSEC
  0
EOF
