  0
SECTION
  2
HEADER
  0
ENDSEC
  0
SECTION
  2
TABLES
  0
TABLE
  2
LTYPE
 70
    22
  0
LTYPE
  2
CONTINUOUS
 70
    64
  3
Solid line
 72
    65
 73
     0
 40
0.000000
  0
LTYPE
  2
DASHED
 70
    64
  3
__ __ __ __ __ __ __ __ __ __ __ __ __ __ __
 72
    65
 73
     2
 40
3.500000
 49
2.000000
 49
-1.500000
  0
LTYPE
  2
CENTER
 70
    64
  3
____ _ ____ _ ____ _ ____ _ ____ _ ____ _ ____
 72
    65
 73
     4
 40
17.500000
 49
13.000000
 49
-1.500000
 49
1.500000
 49
-1.500000
  0
LTYPE
  2
PHANTOM
 70
    64
  3
_____ _ _ _____ _ _ _____ _ _ _____ _ _ ____  
 72
    65
 73
     6
 40
15.500000
 49
8.000000
 49
-1.500000
 49
1.500000
 49
-1.500000
 49
1.500000
 49
-1.500000
  0
LTYPE
  2
DOT
 70
    64
  3
. . . . . . . . . . . . . . . . . . . . . . . .
 72
    65
 73
     2
 40
0.25
 49
0.0
 49
-0.25
  0
ENDTAB
  0
TABLE
  2
LAYER
 70
     1
  0
LAYER
  2
0
 70
     0
 62
     7
  6
CONTINUOUS
  0
ENDTAB
  0
TABLE
  2
STYLE
 70
     1
  0
STYLE
  2
STANDARD
 70
     0
 40
0.000000
 41
1.000000
 50
0.000000
 71
     0
 42
0.200000
  3
txt
  0
ENDTAB
  0
TABLE
  2
VIEW
 70
     0
  0
ENDTAB
  0
ENDSEC
  0
SECTION
  2
BLOCKS
  0
ENDSEC
  0
SECTION
  2
ENTITIES
  0
LINE
  8
0
  6
CONTINUOUS
 62
     3
 10
185.5090637207031
 20
-438.1746826171875
 11
604.3195190429688
 21
-438.1746826171875
  0
LINE
  8
0
  6
CONTINUOUS
 62
     7
 10
439.5090637207031
 20
-323.1746826171875
 11
439.5090637207031
 21
-512.9080810546875
  0
LINE
  8
0
  6
CONTINUOUS
 62
     7
 10
439.5090637207031
 20
-323.1746826171875
 11
446.0833435058594
 21
-323.1746826171875
  0
LINE
  8
0
  6
CONTINUOUS
 62
     7
 10
457.5090637207031
 20
-334.9913330078125
 11
457.5090637207031
 21
-538.6146850585938
  0
LINE
  8
0
  6
CONTINUOUS
 62
     7
 10
514.509033203125
 20
-364.6746826171875
 11
514.509033203125
 21
-511.6746826171875
  0
LINE
  8
0
  6
CONTINUOUS
 62
     7
 10
504.5090637207031
 20
-365.6746826171875
 11
504.5090637207031
 21
-510.6746826171875
  0
LINE
  8
0
  6
CONTINUOUS
 62
     7
 10
504.5090637207031
 20
-510.6746826171875
 11
514.509033203125
 21
-510.6746826171875
  0
LINE
  8
0
  6
CONTINUOUS
 62
     7
 10
504.5090637207031
 20
-365.6746826171875
 11
514.509033203125
 21
-365.6746826171875
  0
LINE
  8
0
  6
CONTINUOUS
 62
     7
 10
472.5090637207031
 20
-360.6746826171875
 11
472.5090637207031
 21
-515.6746826171875
  0
LINE
  8
0
  6
CONTINUOUS
 62
     7
 10
462.5090637207031
 20
-520.6746826171875
 11
467.5090637207031
 21
-520.6746826171875
  0
LINE
  8
0
  6
CONTINUOUS
 62
     7
 10
466.5090637207031
 20
-323.1746826171875
 11
466.5090637207031
 21
-353.6746826171875
  0
LINE
  8
0
  6
CONTINUOUS
 62
     7
 10
462.5090637207031
 20
-355.6746826171875
 11
467.5090637207031
 21
-355.6746826171875
  0
LINE
  8
0
  6
CONTINUOUS
 62
     7
 10
466.5090637207031
 20
-551.468017578125
 11
466.5090637207031
 21
-522.6746826171875
  0
LINE
  8
0
  6
CONTINUOUS
 62
     7
 10
472.5090026855469
 20
-377.3777160644531
 11
504.5089721679688
 21
-384.7018432617188
  0
LINE
  8
0
  6
CONTINUOUS
 62
     7
 10
472.5090637207031
 20
-404.1221923828125
 11
504.5090637207031
 21
-404.1221923828125
  0
LINE
  8
0
  6
CONTINUOUS
 62
     7
 10
472.5090637207031
 20
-498.9716796875
 11
504.509033203125
 21
-491.6475219726563
  0
LINE
  8
0
  6
CONTINUOUS
 62
     7
 10
472.5090637207031
 20
-472.2271728515625
 11
504.5090637207031
 21
-472.2271728515625
  0
LINE
  8
0
  6
CONTINUOUS
 62
     7
 10
446.4380187988281
 20
-311.8475952148437
 11
446.4380187988281
 21
-320.616943359375
  0
LINE
  8
0
  6
CONTINUOUS
 62
     7
 10
462.5801086425781
 20
-311.8475952148437
 11
462.5801086425781
 21
-320.616943359375
  0
LINE
  8
0
  6
CONTINUOUS
 62
     3
 10
446.4380187988281
 20
-311.8476257324219
 11
454.509033203125
 21
-322.4325256347656
  0
LINE
  8
0
  6
CONTINUOUS
 62
     3
 10
454.5090637207031
 20
-322.4325256347656
 11
462.5801391601563
 21
-311.8475952148437
  0
LINE
  8
0
  6
CONTINUOUS
 62
     7
 10
446.001708984375
 20
-320.6307067871094
 11
446.187744140625
 21
-326.4293823242188
  0
LINE
  8
0
  6
CONTINUOUS
 62
     7
 10
463.0163879394531
 20
-320.6307678222656
 11
462.830322265625
 21
-326.4294128417969
  0
LINE
  8
0
  6
CONTINUOUS
 62
     7
 10
462.9347839355469
 20
-323.1746826171875
 11
466.5090637207031
 21
-323.1746826171875
  0
LINE
  8
0
  6
CONTINUOUS
 62
     7
 10
454.5090637207031
 20
-311.8475952148437
 11
454.5090637207031
 21
-322.4325256347656
  0
LINE
  8
0
  6
CONTINUOUS
 62
     7
 10
457.509033203125
 20
-334.9913330078125
 11
466.509033203125
 21
-333.9492797851563
  0
LINE
  8
0
  6
CONTINUOUS
 62
     7
 10
446.4380187988281
 20
-311.8475952148437
 11
462.5801086425781
 21
-311.8475952148437
  0
LINE
  8
0
  6
CONTINUOUS
 62
     3
 10
454.5090637207031
 20
-311.8476257324219
 11
446.4380493164062
 21
-320.6169738769531
  0
LINE
  8
0
  6
CONTINUOUS
 62
     3
 10
462.5801086425781
 20
-320.616943359375
 11
454.509033203125
 21
-311.8475646972656
  0
LINE
  8
0
  6
CONTINUOUS
 62
     7
 10
514.509033203125
 20
-364.6746826171875
 11
537.009033203125
 21
-364.6746826171875
  0
LINE
  8
0
  6
CONTINUOUS
 62
     7
 10
514.509033203125
 20
-511.6746826171875
 11
537.009033203125
 21
-511.6746826171875
  0
LINE
  8
0
  6
CONTINUOUS
 62
     7
 10
537.009033203125
 20
-364.6746826171875
 11
537.009033203125
 21
-511.6746826171875
  0
LINE
  8
0
  6
CONTINUOUS
 62
     7
 10
391.5090637207031
 20
-320.6746826171875
 11
435.5090637207031
 21
-320.6746826171875
  0
LINE
  8
0
  6
CONTINUOUS
 62
     7
 10
387.5090942382812
 20
-324.6747131347656
 11
391.5091247558594
 21
-320.6747131347656
  0
LINE
  8
0
  6
CONTINUOUS
 62
     7
 10
435.5090637207031
 20
-320.6747131347656
 11
439.5090942382813
 21
-324.6747131347656
  0
LINE
  8
0
  6
CONTINUOUS
 62
     7
 10
391.5090637207031
 20
-363.2324829101563
 11
435.5090637207031
 21
-363.2324829101563
  0
LINE
  8
0
  6
CONTINUOUS
 62
     7
 10
391.5090637207031
 20
-376.887939453125
 11
435.5090637207031
 21
-376.887939453125
  0
LINE
  8
0
  6
CONTINUOUS
 62
     7
 10
391.5090637207031
 20
-385.6343383789062
 11
435.5090637207031
 21
-385.6343383789062
  0
LINE
  8
0
  6
CONTINUOUS
 62
     7
 10
391.5090637207031
 20
-401.0099792480469
 11
435.5090637207031
 21
-401.0099792480469
  0
LINE
  8
0
  6
CONTINUOUS
 62
     7
 10
391.5090637207031
 20
-410.6226806640625
 11
435.5090637207031
 21
-410.6226806640625
  0
LINE
  8
0
  6
CONTINUOUS
 62
     7
 10
391.5090637207031
 20
-427.1751708984375
 11
435.5090637207031
 21
-427.1751708984375
  0
LINE
  8
0
  6
CONTINUOUS
 62
     7
 10
395.2330017089844
 20
-449.1749877929687
 11
435.5090637207031
 21
-449.1749877929687
  0
LINE
  8
0
  6
CONTINUOUS
 62
     7
 10
406.4720764160156
 20
-465.7263488769531
 11
435.5090637207031
 21
-465.7263488769531
  0
LINE
  8
0
  6
CONTINUOUS
 62
     7
 10
413.2026672363281
 20
-475.338623046875
 11
435.5090637207031
 21
-475.338623046875
  0
LINE
  8
0
  6
CONTINUOUS
 62
     7
 10
423.9693908691406
 20
-490.7151184082031
 11
435.5090637207031
 21
-490.7151184082031
  0
LINE
  8
0
  6
CONTINUOUS
 62
     7
 10
430.0934143066406
 20
-499.4611206054688
 11
435.5090637207031
 21
-499.4611206054688
  0
LINE
  8
0
  6
CONTINUOUS
 62
     3
 10
355.5090637207031
 20
-428.1746826171875
 11
355.5090637207031
 21
-448.1746826171875
  0
LINE
  8
0
  6
CONTINUOUS
 62
     3
 10
345.5090637207031
 20
-503.1746826171875
 11
365.5090637207031
 21
-503.1746826171875
  0
LINE
  8
0
  6
CONTINUOUS
 62
     3
 10
355.5090637207031
 20
-493.1746826171875
 11
355.5090637207031
 21
-513.1746826171875
  0
LINE
  8
0
  6
CONTINUOUS
 62
     7
 10
301.5090637207031
 20
-383.1747131347656
 11
301.5090637207031
 21
-493.1746826171875
  0
LINE
  8
0
  6
CONTINUOUS
 62
     7
 10
313.5090637207031
 20
-350.6746826171875
 11
313.5090637207031
 21
-525.6746826171875
  0
LINE
  8
0
  6
CONTINUOUS
 62
     7
 10
313.5090637207031
 20
-525.6746826171875
 11
330.0147399902344
 21
-525.6746826171875
  0
LINE
  8
0
  6
CONTINUOUS
 62
     7
 10
325.5090637207031
 20
-350.6746826171875
 11
325.5090637207031
 21
-525.6746826171875
  0
LINE
  8
0
  6
CONTINUOUS
 62
     7
 10
313.5090637207031
 20
-350.6746826171875
 11
357.5090637207031
 21
-350.6746826171875
  0
LINE
  8
0
  6
CONTINUOUS
 62
     7
 10
310.5090637207031
 20
-603.1746826171875
 11
540.509033203125
 21
-603.1746826171875
  0
LINE
  8
0
  6
CONTINUOUS
 62
     7
 10
310.5090637207031
 20
-577.1746826171875
 11
357.5090637207031
 21
-577.1746826171875
  0
LINE
  8
0
  6
CONTINUOUS
 62
     7
 10
310.5090637207031
 20
-577.1746826171875
 11
310.5090637207031
 21
-603.1746826171875
  0
LINE
  8
0
  6
CONTINUOUS
 62
     7
 10
540.509033203125
 20
-577.1746826171875
 11
540.509033203125
 21
-603.1746826171875
  0
LINE
  8
0
  6
CONTINUOUS
 62
     3
 10
515.509033203125
 20
-562.1746826171875
 11
515.509033203125
 21
-618.1746826171875
  0
LINE
  8
0
  6
CONTINUOUS
 62
     7
 10
398.3599548339844
 20
-454.1410827636719
 11
478.5373840332031
 21
-568.646240234375
  0
LINE
  8
0
  6
CONTINUOUS
 62
     7
 10
328.5943603515625
 20
-541.9094848632812
 11
334.5690612792969
 21
-473.6183166503906
  0
LINE
  8
0
  6
CONTINUOUS
 62
     7
 10
352.5090637207031
 20
-323.1746826171875
 11
387.5090637207031
 21
-323.1746826171875
  0
LINE
  8
0
  6
CONTINUOUS
 62
     7
 10
367.5090637207031
 20
-323.1746826171875
 11
367.5090637207031
 21
-567.1746826171875
  0
LINE
  8
0
  6
CONTINUOUS
 62
     7
 10
387.5090637207031
 20
-323.1746826171875
 11
387.5090637207031
 21
-419.7265014648438
  0
LINE
  8
0
  6
CONTINUOUS
 62
     7
 10
352.5090637207031
 20
-323.1746826171875
 11
352.5090637207031
 21
-340.6746826171875
  0
LINE
  8
0
  6
CONTINUOUS
 62
     3
 10
335.5090637207031
 20
-562.1746826171875
 11
335.5090637207031
 21
-618.1746826171875
  0
LINE
  8
0
  6
CONTINUOUS
 62
     7
 10
200.5090637207031
 20
-401.6746826171875
 11
200.5090637207031
 21
-470.6746826171875
  0
LINE
  8
0
  6
CONTINUOUS
 62
     7
 10
200.5090637207031
 20
-405.6746826171875
 11
295.5090637207031
 21
-405.6746826171875
  0
LINE
  8
0
  6
CONTINUOUS
 62
     7
 10
200.5090637207031
 20
-470.6746826171875
 11
295.5090637207031
 21
-470.6746826171875
  0
LINE
  8
0
  6
CONTINUOUS
 62
     7
 10
295.5090637207031
 20
-400.6746826171875
 11
295.5090637207031
 21
-475.6746826171875
  0
LINE
  8
0
  6
CONTINUOUS
 62
     7
 10
295.5090637207031
 20
-400.6746826171875
 11
301.5090637207031
 21
-400.6746826171875
  0
LINE
  8
0
  6
CONTINUOUS
 62
     7
 10
295.5090637207031
 20
-475.6746826171875
 11
301.5090637207031
 21
-475.6746826171875
  0
LINE
  8
0
  6
DASHED
 62
     7
 10
326.0090637207031
 20
-577.1746826171875
 11
326.0090637207031
 21
-603.1746826171875
  0
LINE
  8
0
  6
DASHED
 62
     7
 10
345.0090637207031
 20
-577.1746826171875
 11
345.0090637207031
 21
-603.1746826171875
  0
LINE
  8
0
  6
DASHED
 62
     7
 10
525.009033203125
 20
-577.1746826171875
 11
525.009033203125
 21
-603.1746826171875
  0
LINE
  8
0
  6
DASHED
 62
     7
 10
506.0090637207031
 20
-577.1746826171875
 11
506.0090637207031
 21
-603.1746826171875
  0
LINE
  8
0
  6
CONTINUOUS
 62
     7
 10
200.5090637207031
 20
-401.6746826171875
 11
280.5090637207031
 21
-401.6746826171875
  0
LINE
  8
0
  6
CONTINUOUS
 62
     7
 10
280.5090637207031
 20
-401.6746826171875
 11
280.5090637207031
 21
-405.6746826171875
  0
LINE
  8
0
  6
CONTINUOUS
 62
     7
 10
494.9204406738281
 20
-577.1746826171875
 11
540.509033203125
 21
-577.1746826171875
  0
LINE
  8
0
  6
CONTINUOUS
 62
     7
 10
355.5090637207031
 20
-431.8107299804687
 11
349.1451110839844
 21
-438.1746826171875
  0
LINE
  8
0
  6
CONTINUOUS
 62
     7
 10
349.1451110839844
 20
-438.1746826171875
 11
355.5090637207031
 21
-444.5386352539063
  0
LINE
  8
0
  6
CONTINUOUS
 62
     7
 10
355.5090637207031
 20
-444.5386352539063
 11
361.8730163574219
 21
-438.1746826171875
  0
LINE
  8
0
  6
CONTINUOUS
 62
     7
 10
361.8730163574219
 20
-438.1746826171875
 11
355.5090637207031
 21
-431.8107299804687
  0
LINE
  8
0
  6
CONTINUOUS
 62
     7
 10
301.509033203125
 20
-383.1747131347656
 11
313.509033203125
 21
-350.6746826171875
  0
LINE
  8
0
  6
CONTINUOUS
 62
     7
 10
301.5090637207031
 20
-493.1746826171875
 11
313.5090637207031
 21
-525.6746826171875
  0
LINE
  8
0
  6
CONTINUOUS
 62
     3
 10
454.5090637207031
 20
-274.8350830078125
 11
454.5090637207031
 21
-332.4039306640625
  0
LINE
  8
0
  6
CONTINUOUS
 62
     7
 10
439.5090637207031
 20
101.8252868652344
 11
439.5090637207031
 21
-9.174686431884766
  0
LINE
  8
0
  6
CONTINUOUS
 62
     7
 10
439.5090637207031
 20
101.8252868652344
 11
457.5090637207031
 21
101.8252868652344
  0
LINE
  8
0
  6
CONTINUOUS
 62
     7
 10
439.5090637207031
 20
-128.1746826171875
 11
457.5090637207031
 21
-128.1746826171875
  0
LINE
  8
0
  6
CONTINUOUS
 62
     7
 10
457.5090637207031
 20
101.8252868652344
 11
457.5090637207031
 21
-0.7402989864349365
  0
LINE
  8
0
  6
CONTINUOUS
 62
     7
 10
514.509033203125
 20
60.32528305053711
 11
514.509033203125
 21
-86.6746826171875
  0
LINE
  8
0
  6
CONTINUOUS
 62
     7
 10
504.5090637207031
 20
59.32528305053711
 11
504.5090637207031
 21
-85.6746826171875
  0
LINE
  8
0
  6
CONTINUOUS
 62
     7
 10
504.5090637207031
 20
-85.6746826171875
 11
514.509033203125
 21
-85.6746826171875
  0
LINE
  8
0
  6
CONTINUOUS
 62
     7
 10
504.5090637207031
 20
59.32528305053711
 11
514.509033203125
 21
59.32528305053711
  0
LINE
  8
0
  6
CONTINUOUS
 62
     7
 10
472.5090637207031
 20
64.32528686523437
 11
472.5090637207031
 21
-9.466587066650391
  0
LINE
  8
0
  6
CONTINUOUS
 62
     7
 10
462.5090637207031
 20
-95.6746826171875
 11
467.5090637207031
 21
-95.6746826171875
  0
LINE
  8
0
  6
CONTINUOUS
 62
     7
 10
462.5090637207031
 20
69.32528686523437
 11
467.5090637207031
 21
69.32528686523437
  0
LINE
  8
0
  6
CONTINUOUS
 62
     7
 10
466.5090637207031
 20
-61.77582168579102
 11
466.5090637207031
 21
-17.17468643188477
  0
LINE
  8
0
  6
CONTINUOUS
 62
     7
 10
457.5091247558594
 20
-0.7403062582015991
 11
466.5090637207031
 21
-3.151837825775146
  0
LINE
  8
0
  6
CONTINUOUS
 62
     7
 10
457.509033203125
 20
-64.18735504150391
 11
466.5090637207031
 21
-61.77580642700195
  0
LINE
  8
0
  6
CONTINUOUS
 62
     7
 10
457.5090637207031
 20
-64.18734741210937
 11
457.5090637207031
 21
-128.1746826171875
  0
LINE
  8
0
  6
CONTINUOUS
 62
     7
 10
472.5090637207031
 20
18.00750350952148
 11
504.5090637207031
 21
18.00750350952148
  0
LINE
  8
0
  6
CONTINUOUS
 62
     7
 10
472.5090942382813
 20
43.90095901489258
 11
504.5091247558594
 21
37.07107543945313
  0
LINE
  8
0
  6
CONTINUOUS
 62
     7
 10
472.5090637207031
 20
-44.35687637329102
 11
504.5090637207031
 21
-44.35687637329102
  0
LINE
  8
0
  6
CONTINUOUS
 62
     7
 10
472.5090942382813
 20
-70.25028228759766
 11
504.5090942382813
 21
-63.42040252685547
  0
LINE
  8
0
  6
CONTINUOUS
 62
     7
 10
438.0090637207031
 20
-9.174686431884766
 11
471.0090637207031
 21
-9.174686431884766
  0
LINE
  8
0
  6
CONTINUOUS
 62
     7
 10
438.0090637207031
 20
-17.17468643188477
 11
471.0090637207031
 21
-17.17468643188477
  0
LINE
  8
0
  6
CONTINUOUS
 62
     7
 10
466.5090637207031
 20
-9.174686431884766
 11
466.5090637207031
 21
-3.151859045028687
  0
LINE
  8
0
  6
CONTINUOUS
 62
     7
 10
472.5090637207031
 20
-16.88278579711914
 11
472.5090637207031
 21
-90.6746826171875
  0
LINE
  8
0
  6
CONTINUOUS
 62
     7
 10
439.5090637207031
 20
-17.17468643188477
 11
439.5090637207031
 21
-128.1746826171875
  0
LINE
  8
0
  6
CONTINUOUS
 62
     3
 10
454.5090637207031
 20
-55.13130187988281
 11
454.5090637207031
 21
-26.31430244445801
  0
LINE
  8
0
  6
CONTINUOUS
 62
     7
 10
514.509033203125
 20
60.32528305053711
 11
537.009033203125
 21
60.32528305053711
  0
LINE
  8
0
  6
CONTINUOUS
 62
     7
 10
514.509033203125
 20
-86.6746826171875
 11
537.009033203125
 21
-86.6746826171875
  0
LINE
  8
0
  6
CONTINUOUS
 62
     7
 10
537.009033203125
 20
60.32528305053711
 11
537.009033203125
 21
7.676406860351563
  0
LINE
  8
0
  6
CONTINUOUS
 62
     7
 10
391.5090637207031
 20
104.3252868652344
 11
435.5090637207031
 21
104.3252868652344
  0
LINE
  8
0
  6
CONTINUOUS
 62
     7
 10
391.5090637207031
 20
-130.6746826171875
 11
435.5090637207031
 21
-130.6746826171875
  0
LINE
  8
0
  6
CONTINUOUS
 62
     7
 10
391.5090637207031
 20
-124.6424255371094
 11
435.5090637207031
 21
-124.6424255371094
  0
LINE
  8
0
  6
CONTINUOUS
 62
     7
 10
387.5090942382812
 20
100.3252487182617
 11
391.5090942382813
 21
104.3252563476563
  0
LINE
  8
0
  6
CONTINUOUS
 62
     7
 10
435.5088500976563
 20
104.3252563476563
 11
439.5088500976563
 21
100.3252563476562
  0
LINE
  8
0
  6
CONTINUOUS
 62
     7
 10
439.5090942382813
 20
-126.6747512817383
 11
435.5090942382813
 21
-130.6747589111328
  0
LINE
  8
0
  6
CONTINUOUS
 62
     7
 10
391.5091857910156
 20
-130.6745758056641
 11
387.5091857910156
 21
-126.6745300292969
  0
LINE
  8
0
  6
CONTINUOUS
 62
     7
 10
391.5090637207031
 20
98.29293823242188
 11
435.5090637207031
 21
98.29293823242188
  0
LINE
  8
0
  6
CONTINUOUS
 62
     7
 10
391.5090637207031
 20
91.92355346679687
 11
435.5090637207031
 21
91.92355346679687
  0
LINE
  8
0
  6
CONTINUOUS
 62
     7
 10
391.5090637207031
 20
87.07553100585937
 11
435.5090637207031
 21
87.07553100585937
  0
LINE
  8
0
  6
CONTINUOUS
 62
     7
 10
391.5090637207031
 20
77.32113647460938
 11
435.5090637207031
 21
77.32113647460938
  0
LINE
  8
0
  6
CONTINUOUS
 62
     7
 10
391.5090637207031
 20
61.76644515991211
 11
435.5090637207031
 21
61.76644515991211
  0
LINE
  8
0
  6
CONTINUOUS
 62
     7
 10
391.5090637207031
 20
48.11001205444336
 11
435.5090637207031
 21
48.11001205444336
  0
LINE
  8
0
  6
CONTINUOUS
 62
     7
 10
391.5090637207031
 20
39.36480331420898
 11
435.5090637207031
 21
39.36480331420898
  0
LINE
  8
0
  6
CONTINUOUS
 62
     7
 10
391.5090637207031
 20
23.98931503295898
 11
435.5090637207031
 21
23.98931503295898
  0
LINE
  8
0
  6
CONTINUOUS
 62
     7
 10
391.5090637207031
 20
14.37572860717773
 11
435.5090637207031
 21
14.37572860717773
  0
LINE
  8
0
  6
CONTINUOUS
 62
     7
 10
391.5090637207031
 20
-2.175204992294312
 11
435.5090637207031
 21
-2.175204992294312
  0
LINE
  8
0
  6
CONTINUOUS
 62
     7
 10
391.5090637207031
 20
-103.6725158691406
 11
435.5090637207031
 21
-103.6725158691406
  0
LINE
  8
0
  6
CONTINUOUS
 62
     7
 10
391.5090637207031
 20
-113.4253845214844
 11
435.5090637207031
 21
-113.4253845214844
  0
LINE
  8
0
  6
CONTINUOUS
 62
     7
 10
391.5090637207031
 20
-118.2735290527344
 11
435.5090637207031
 21
-118.2735290527344
  0
LINE
  8
0
  6
CONTINUOUS
 62
     7
 10
325.5090637207031
 20
74.3253173828125
 11
325.5090637207031
 21
-100.6746826171875
  0
LINE
  8
0
  6
CONTINUOUS
 62
     7
 10
313.5090637207031
 20
74.3253173828125
 11
345.0724487304688
 21
74.3253173828125
  0
LINE
  8
0
  6
CONTINUOUS
 62
     7
 10
313.5090637207031
 20
74.3253173828125
 11
313.5090637207031
 21
-100.6746826171875
  0
LINE
  8
0
  6
CONTINUOUS
 62
     7
 10
301.5090637207031
 20
41.82531356811523
 11
301.5090637207031
 21
-68.1746826171875
  0
LINE
  8
0
  6
CONTINUOUS
 62
     7
 10
313.5090637207031
 20
-100.6746826171875
 11
345.0725402832031
 21
-100.6746826171875
  0
LINE
  8
0
  6
CONTINUOUS
 62
     7
 10
301.5090637207031
 20
41.82535552978516
 11
313.509033203125
 21
74.32532501220703
  0
LINE
  8
0
  6
CONTINUOUS
 62
     7
 10
301.509033203125
 20
-68.17464447021484
 11
313.509033203125
 21
-100.6746673583984
  0
LINE
  8
0
  6
CONTINUOUS
 62
     7
 10
387.5090637207031
 20
112.3253173828125
 11
387.5090637207031
 21
-138.6746826171875
  0
LINE
  8
0
  6
CONTINUOUS
 62
     7
 10
367.5090637207031
 20
124.3253173828125
 11
367.5090637207031
 21
12.80608749389648
  0
LINE
  8
0
  6
CONTINUOUS
 62
     7
 10
320.5090637207031
 20
124.3253173828125
 11
530.509033203125
 21
124.3253173828125
  0
LINE
  8
0
  6
CONTINUOUS
 62
     7
 10
320.5090637207031
 20
-150.6746826171875
 11
530.509033203125
 21
-150.6746826171875
  0
LINE
  8
0
  6
CONTINUOUS
 62
     7
 10
367.5090637207031
 20
-39.15546035766602
 11
367.5090637207031
 21
-150.6746826171875
  0
LINE
  8
0
  6
CONTINUOUS
 62
     7
 10
310.5090637207031
 20
114.3253173828125
 11
310.5090637207031
 21
66.20025634765625
  0
LINE
  8
0
  6
CONTINUOUS
 62
     7
 10
310.5090637207031
 20
-92.5496826171875
 11
310.5090637207031
 21
-140.6746826171875
  0
LINE
  8
0
  6
CONTINUOUS
 62
     7
 10
540.509033203125
 20
114.3253173828125
 11
540.509033203125
 21
77.81195068359375
  0
LINE
  8
0
  6
CONTINUOUS
 62
     7
 10
540.509033203125
 20
-104.1612548828125
 11
540.509033203125
 21
-140.6746826171875
  0
LINE
  8
0
  6
CONTINUOUS
 62
     7
 10
472.5090637207031
 20
58.11650085449219
 11
532.135498046875
 21
67.94503021240234
  0
LINE
  8
0
  6
CONTINUOUS
 62
     7
 10
472.5090637207031
 20
-84.46585845947266
 11
532.135498046875
 21
-94.29438781738281
  0
LINE
  8
0
  6
CONTINUOUS
 62
     3
 10
320.5090637207031
 20
99.32525634765625
 11
350.5090637207031
 21
99.32525634765625
  0
LINE
  8
0
  6
CONTINUOUS
 62
     3
 10
335.5090637207031
 20
114.3252563476563
 11
335.5090637207031
 21
84.32525634765625
  0
LINE
  8
0
  6
CONTINUOUS
 62
     3
 10
335.5090637207031
 20
-110.6747436523437
 11
335.5090637207031
 21
-140.6747436523438
  0
LINE
  8
0
  6
CONTINUOUS
 62
     3
 10
320.5090637207031
 20
-125.6747436523438
 11
350.5090637207031
 21
-125.6747436523438
  0
LINE
  8
0
  6
CONTINUOUS
 62
     3
 10
515.509033203125
 20
-110.6747436523437
 11
515.509033203125
 21
-140.6747436523438
  0
LINE
  8
0
  6
CONTINUOUS
 62
     3
 10
500.5090637207031
 20
-125.6747436523438
 11
530.509033203125
 21
-125.6747436523438
  0
LINE
  8
0
  6
CONTINUOUS
 62
     3
 10
515.509033203125
 20
114.3252563476563
 11
515.509033203125
 21
84.32525634765625
  0
LINE
  8
0
  6
CONTINUOUS
 62
     3
 10
500.5090637207031
 20
99.32525634765625
 11
530.509033203125
 21
99.32525634765625
  0
LINE
  8
0
  6
CONTINUOUS
 62
     7
 10
200.5090637207031
 20
19.32531356811523
 11
200.5090637207031
 21
-45.67468643188477
  0
LINE
  8
0
  6
CONTINUOUS
 62
     7
 10
295.5090637207031
 20
24.32531356811523
 11
295.5090637207031
 21
-50.67468643188477
  0
LINE
  8
0
  6
CONTINUOUS
 62
     7
 10
200.5090637207031
 20
-45.67468643188477
 11
295.5090637207031
 21
-45.67468643188477
  0
LINE
  8
0
  6
CONTINUOUS
 62
     7
 10
200.5090637207031
 20
19.32531356811523
 11
295.5090637207031
 21
19.32531356811523
  0
LINE
  8
0
  6
CONTINUOUS
 62
     7
 10
295.5090637207031
 20
24.32531356811523
 11
301.5090637207031
 21
24.32531356811523
  0
LINE
  8
0
  6
CONTINUOUS
 62
     7
 10
295.5090637207031
 20
-50.67468643188477
 11
301.5090637207031
 21
-50.67468643188477
  0
LINE
  8
0
  6
CONTINUOUS
 62
     7
 10
200.5090637207031
 20
-22.17468643188477
 11
281.5090637207031
 21
-22.17468643188477
  0
LINE
  8
0
  6
CONTINUOUS
 62
     7
 10
200.5090637207031
 20
-4.174685955047607
 11
281.5090637207031
 21
-4.174685955047607
  0
LINE
  8
0
  6
CONTINUOUS
 62
     3
 10
355.5090637207031
 20
-93.74285888671875
 11
355.5090637207031
 21
-120.6746826171875
  0
LINE
  8
0
  6
CONTINUOUS
 62
     7
 10
345.9440002441406
 20
74.36339569091797
 11
358.3806457519531
 21
75.45145416259766
  0
LINE
  8
0
  6
CONTINUOUS
 62
     7
 10
345.944091796875
 20
-100.7127227783203
 11
358.380615234375
 21
-101.80078125
  0
LINE
  8
0
  6
CONTINUOUS
 62
     7
 10
280.5090637207031
 20
-4.174685955047607
 11
280.5090637207031
 21
-22.17468643188477
  0
LINE
  8
0
  6
CONTINUOUS
 62
     7
 10
349.559326171875
 20
-113.6646728515625
 11
361.4588012695313
 21
-113.6646728515625
  0
LINE
  8
0
  6
CONTINUOUS
 62
     7
 10
348.7731323242187
 20
-105.6646728515625
 11
362.2449951171875
 21
-105.6646728515625
  0
LINE
  8
0
  6
CONTINUOUS
 62
     7
 10
348.7731018066406
 20
-105.6646499633789
 11
348.9197387695313
 21
-100.973030090332
  0
LINE
  8
0
  6
CONTINUOUS
 62
     7
 10
362.2450256347656
 20
-105.6646728515625
 11
362.158935546875
 21
-102.9095687866211
  0
LINE
  8
0
  6
CONTINUOUS
 62
     7
 10
349.559326171875
 20
-113.6646728515625
 11
349.559326171875
 21
-105.6646728515625
  0
LINE
  8
0
  6
CONTINUOUS
 62
     7
 10
361.4588012695313
 20
-113.6646728515625
 11
361.4588012695313
 21
-105.6646728515625
  0
LINE
  8
0
  6
CONTINUOUS
 62
     7
 10
387.5090637207031
 20
-138.6746826171875
 11
479.5090637207031
 21
-138.6746826171875
  0
LINE
  8
0
  6
CONTINUOUS
 62
     7
 10
387.5090637207031
 20
112.3253173828125
 11
479.5090637207031
 21
112.3253173828125
  0
LINE
  8
0
  6
CONTINUOUS
 62
     3
 10
349.5592956542969
 20
-105.6646423339844
 11
355.509033203125
 21
-113.6646270751953
  0
LINE
  8
0
  6
CONTINUOUS
 62
     7
 10
355.5090637207031
 20
-113.6646728515625
 11
355.5090637207031
 21
-105.6646728515625
  0
LINE
  8
0
  6
CONTINUOUS
 62
     3
 10
355.5090637207031
 20
-105.664680480957
 11
361.4588012695313
 21
-113.664665222168
  0
LINE
  8
0
  6
CONTINUOUS
 62
     3
 10
361.4588012695313
 20
-105.6646575927734
 11
355.5090637207031
 21
-113.6646499633789
  0
LINE
  8
0
  6
CONTINUOUS
 62
     3
 10
355.5090637207031
 20
-105.6646423339844
 11
349.5592956542969
 21
-113.6646575927734
  0
LINE
  8
0
  6
CONTINUOUS
 62
     3
 10
185.5090637207031
 20
-13.17468643188477
 11
603.1165161132812
 21
-13.17468643188477
  0
LINE
  8
0
  6
CONTINUOUS
 62
     3
 10
443.2577209472656
 20
-39.04404067993164
 11
465.3251647949219
 21
-39.04404067993164
  0
LINE
  8
0
  6
CONTINUOUS
 62
     3
 10
-250.3219604492188
 20
-438.1746826171875
 11
51.34008407592773
 21
-438.1746826171875
  0
LINE
  8
0
  6
CONTINUOUS
 62
     3
 10
-99.49094390869141
 20
-264.1746826171875
 11
-99.49094390869141
 21
-614.6912841796875
  0
LINE
  8
0
  6
CONTINUOUS
 62
     3
 10
-43.19938278198242
 20
-405.6746520996094
 11
-25.87887573242187
 21
-395.6746520996094
  0
LINE
  8
0
  6
CONTINUOUS
 62
     3
 10
-155.7825622558594
 20
-405.6746215820312
 11
-173.1030731201172
 21
-395.6746215820312
  0
LINE
  8
0
  6
CONTINUOUS
 62
     3
 10
-155.7826232910156
 20
-470.6745910644531
 11
-173.1031341552734
 21
-480.6745910644531
  0
LINE
  8
0
  6
CONTINUOUS
 62
     3
 10
-43.19932556152344
 20
-470.6746520996094
 11
-25.87881660461426
 21
-480.6746520996094
  0
LINE
  8
0
  6
CONTINUOUS
 62
     3
 10
-211.9909362792969
 20
-562.1746826171875
 11
-211.9909362792969
 21
-618.1746826171875
  0
LINE
  8
0
  6
CONTINUOUS
 62
     3
 10
13.00905990600586
 20
-562.1746826171875
 11
13.00905990600586
 21
-618.1746826171875
  0
LINE
  8
0
  6
CONTINUOUS
 62
     7
 10
-19.49094009399414
 20
-473.6182861328125
 11
-19.49094009399414
 21
-514.3095092773437
  0
LINE
  8
0
  6
CONTINUOUS
 62
     7
 10
-152.6658020019531
 20
-518.1746826171875
 11
-134.9345397949219
 21
-518.1746826171875
  0
LINE
  8
0
  6
CONTINUOUS
 62
     7
 10
-236.9909362792969
 20
-460.6746826171875
 11
-236.9909362792969
 21
-603.1746826171875
  0
LINE
  8
0
  6
CONTINUOUS
 62
     7
 10
38.00905990600586
 20
-460.6746826171875
 11
38.00905990600586
 21
-603.1746826171875
  0
LINE
  8
0
  6
CONTINUOUS
 62
     7
 10
-236.9909362792969
 20
-603.1746826171875
 11
-166.9909362792969
 21
-603.1746826171875
  0
LINE
  8
0
  6
CONTINUOUS
 62
     7
 10
-236.9909362792969
 20
-577.1746826171875
 11
-166.9909362792969
 21
-577.1746826171875
  0
LINE
  8
0
  6
CONTINUOUS
 62
     7
 10
-31.99094009399414
 20
-577.1746826171875
 11
-31.99094009399414
 21
-603.1746826171875
  0
LINE
  8
0
  6
CONTINUOUS
 62
     7
 10
-166.9909362792969
 20
-577.1746826171875
 11
-166.9909362792969
 21
-603.1746826171875
  0
LINE
  8
0
  6
CONTINUOUS
 62
     7
 10
-31.99094009399414
 20
-577.1746826171875
 11
38.00905990600586
 21
-577.1746826171875
  0
LINE
  8
0
  6
CONTINUOUS
 62
     7
 10
-31.99094009399414
 20
-603.1746826171875
 11
38.00905990600586
 21
-603.1746826171875
  0
LINE
  8
0
  6
CONTINUOUS
 62
     7
 10
-161.9909362792969
 20
-600.1746826171875
 11
-36.99094009399414
 21
-600.1746826171875
  0
LINE
  8
0
  6
CONTINUOUS
 62
     7
 10
-161.9909362792969
 20
-583.1746826171875
 11
-124.4909439086914
 21
-583.1746826171875
  0
LINE
  8
0
  6
CONTINUOUS
 62
     7
 10
-74.49094390869141
 20
-583.1746826171875
 11
-36.99094009399414
 21
-583.1746826171875
  0
LINE
  8
0
  6
CONTINUOUS
 62
     7
 10
-166.990966796875
 20
-577.1746826171875
 11
-162.6277770996094
 21
-527.3031005859375
  0
LINE
  8
0
  6
CONTINUOUS
 62
     7
 10
-184.9909820556641
 20
-577.1746826171875
 11
-179.4909820556641
 21
-514.309326171875
  0
LINE
  8
0
  6
CONTINUOUS
 62
     7
 10
-31.99097633361816
 20
-577.1746826171875
 11
-36.35416793823242
 21
-527.3031005859375
  0
LINE
  8
0
  6
CONTINUOUS
 62
     7
 10
-13.99096393585205
 20
-577.1746826171875
 11
-19.49094772338867
 21
-514.3095092773437
  0
LINE
  8
0
  6
CONTINUOUS
 62
     7
 10
-64.04734039306641
 20
-518.1746826171875
 11
-46.31613540649414
 21
-518.1746826171875
  0
LINE
  8
0
  6
CONTINUOUS
 62
     7
 10
-179.4909362792969
 20
-473.6182861328125
 11
-179.4909362792969
 21
-514.309326171875
  0
LINE
  8
0
  6
CONTINUOUS
 62
     3
 10
-11.72307300567627
 20
-474.5299987792969
 11
6.754627704620361
 21
-482.1837158203125
  0
LINE
  8
0
  6
CONTINUOUS
 62
     3
 10
-11.72243881225586
 20
-401.8197937011719
 11
6.755205154418945
 21
-394.1661071777344
  0
LINE
  8
0
  6
CONTINUOUS
 62
     3
 10
-63.13613128662109
 20
-350.4061584472656
 11
-55.48243713378906
 21
-331.9285278320313
  0
LINE
  8
0
  6
CONTINUOUS
 62
     3
 10
-135.8460540771484
 20
-350.4061889648438
 11
-143.4997406005859
 21
-331.9285583496094
  0
LINE
  8
0
  6
CONTINUOUS
 62
     3
 10
-187.2595520019531
 20
-401.8200378417969
 11
-205.7372589111328
 21
-394.1663208007813
  0
LINE
  8
0
  6
CONTINUOUS
 62
     3
 10
-187.2593078613281
 20
-474.5297546386719
 11
-205.7370147705078
 21
-482.1834716796875
  0
LINE
  8
0
  6
CONTINUOUS
 62
     3
 10
-135.8458099365234
 20
-525.9430541992188
 11
-143.4995269775391
 21
-544.4207763671875
  0
LINE
  8
0
  6
CONTINUOUS
 62
     3
 10
-63.13652801513672
 20
-525.9430541992188
 11
-55.48281860351562
 21
-544.4207763671875
  0
LINE
  8
0
  6
CONTINUOUS
 62
     7
 10
-79.49094390869141
 20
-324.6370239257813
 11
-79.49094390869141
 21
-345.4048156738281
  0
LINE
  8
0
  6
CONTINUOUS
 62
     7
 10
-119.4909439086914
 20
-324.6370239257813
 11
-119.4909439086914
 21
-345.4048156738281
  0
LINE
  8
0
  6
DASHED
 62
     7
 10
-221.4909362792969
 20
-577.1746826171875
 11
-221.4909362792969
 21
-603.1746826171875
  0
LINE
  8
0
  6
DASHED
 62
     7
 10
-202.4909362792969
 20
-577.1746826171875
 11
-202.4909362792969
 21
-603.1746826171875
  0
LINE
  8
0
  6
DASHED
 62
     7
 10
22.50905990600586
 20
-577.1746826171875
 11
22.50905990600586
 21
-603.1746826171875
  0
LINE
  8
0
  6
DASHED
 62
     7
 10
3.509059906005859
 20
-577.1746826171875
 11
3.509059906005859
 21
-603.1746826171875
  0
LINE
  8
0
  6
CONTINUOUS
 62
     7
 10
-108.4909439086914
 20
-412.6746826171875
 11
-90.49094390869141
 21
-412.6746826171875
  0
LINE
  8
0
  6
CONTINUOUS
 62
     7
 10
-108.4909439086914
 20
-401.6746826171875
 11
-108.4909439086914
 21
-412.6746826171875
  0
LINE
  8
0
  6
CONTINUOUS
 62
     7
 10
-90.49094390869141
 20
-401.6746826171875
 11
-90.49094390869141
 21
-412.6746826171875
  0
LINE
  8
0
  6
CONTINUOUS
 62
     7
 10
-108.4909439086914
 20
-401.6746826171875
 11
-90.49094390869141
 21
-401.6746826171875
  0
LINE
  8
0
  6
CONTINUOUS
 62
     7
 10
0.9990500807762146
 20
-444.1244506835938
 11
0.9990500807762146
 21
-432.2249145507812
  0
LINE
  8
0
  6
CONTINUOUS
 62
     7
 10
-7.000949859619141
 20
-444.9106140136719
 11
-7.000949859619141
 21
-431.4387512207031
  0
LINE
  8
0
  6
CONTINUOUS
 62
     7
 10
-7.000931262969971
 20
-444.9106140136719
 11
-12.23812103271484
 21
-444.7469787597656
  0
LINE
  8
0
  6
CONTINUOUS
 62
     7
 10
-7.000936985015869
 20
-431.4387512207031
 11
-12.23812675476074
 21
-431.6024169921875
  0
LINE
  8
0
  6
CONTINUOUS
 62
     7
 10
0.9990500807762146
 20
-444.1244506835938
 11
-7.000949859619141
 21
-444.1244506835938
  0
LINE
  8
0
  6
CONTINUOUS
 62
     7
 10
0.9990500807762146
 20
-432.2249145507812
 11
-7.000949859619141
 21
-432.2249145507812
  0
LINE
  8
0
  6
CONTINUOUS
 62
     3
 10
0.9990362524986267
 20
-432.2249755859375
 11
-7.000969409942627
 21
-438.1747436523437
  0
LINE
  8
0
  6
CONTINUOUS
 62
     7
 10
-7.000949859619141
 20
-438.1746826171875
 11
0.9990500807762146
 21
-438.1746826171875
  0
LINE
  8
0
  6
CONTINUOUS
 62
     3
 10
0.999075710773468
 20
-438.1747131347656
 11
-7.000954627990723
 21
-432.2249450683594
  0
LINE
  8
0
  6
CONTINUOUS
 62
     3
 10
-7.000922203063965
 20
-438.1746826171875
 11
0.9990591406822205
 21
-444.1244506835938
  0
LINE
  8
0
  6
CONTINUOUS
 62
     3
 10
0.9990591406822205
 20
-438.1746520996094
 11
-7.000922203063965
 21
-444.1243896484375
  0
LINE
  8
0
  6
CONTINUOUS
 62
     7
 10
-90.55036926269531
 20
-314.6662902832031
 11
-89.49092864990234
 21
-320.6746826171875
  0
LINE
  8
0
  6
CONTINUOUS
 62
     7
 10
-95.49092102050781
 20
-312.92578125
 11
-91.50437164306641
 21
-313.6965026855469
  0
LINE
  8
0
  6
CONTINUOUS
 62
     7
 10
-95.49094390869141
 20
-283.1746826171875
 11
-95.49094390869141
 21
-318.2746887207031
  0
LINE
  8
0
  6
CONTINUOUS
 62
     7
 10
-108.4315032958984
 20
-314.6663208007812
 11
-109.4909057617188
 21
-320.6744995117187
  0
LINE
  8
0
  6
CONTINUOUS
 62
     7
 10
-103.4910049438477
 20
-312.9258117675781
 11
-107.4775543212891
 21
-313.696533203125
  0
LINE
  8
0
  6
CONTINUOUS
 62
     7
 10
-103.4909439086914
 20
-283.1746826171875
 11
-103.4909439086914
 21
-318.2746887207031
  0
LINE
  8
0
  6
CONTINUOUS
 62
     7
 10
-62.46184921264648
 20
-313.6632080078125
 11
-78.19027709960938
 21
-310.0320129394531
  0
LINE
  8
0
  6
CONTINUOUS
 62
     7
 10
-64.06107330322266
 20
-322.5307312011719
 11
-80.64011383056641
 21
-318.7031555175781
  0
LINE
  8
0
  6
CONTINUOUS
 62
     7
 10
-64.06107330322266
 20
-322.5307006835937
 11
-64.94236755371094
 21
-325.86865234375
  0
LINE
  8
0
  6
CONTINUOUS
 62
     7
 10
-80.64008331298828
 20
-318.7031555175781
 11
-81.31124114990234
 21
-322.0896301269531
  0
LINE
  8
0
  6
CONTINUOUS
 62
     7
 10
-62.46179580688477
 20
-313.6632080078125
 11
-64.48635864257813
 21
-322.4325256347656
  0
LINE
  8
0
  6
CONTINUOUS
 62
     7
 10
-78.19025421142578
 20
-310.0320129394531
 11
-80.21481323242187
 21
-318.8013305664063
  0
LINE
  8
0
  6
CONTINUOUS
 62
     7
 10
-109.4909439086914
 20
-320.6746826171875
 11
-109.4909439086914
 21
-321.1009826660156
  0
LINE
  8
0
  6
CONTINUOUS
 62
     7
 10
-89.49094390869141
 20
-320.6746826171875
 11
-89.49094390869141
 21
-321.1009826660156
  0
LINE
  8
0
  6
CONTINUOUS
 62
     3
 10
-80.21485137939453
 20
-318.8013610839844
 11
-70.32609558105469
 21
-311.8475952148437
  0
LINE
  8
0
  6
CONTINUOUS
 62
     3
 10
-78.19022369384766
 20
-310.031982421875
 11
-72.35059356689453
 21
-320.6169128417969
  0
LINE
  8
0
  6
CONTINUOUS
 62
     7
 10
-72.35061645507813
 20
-320.616943359375
 11
-70.32605743408203
 21
-311.8475952148437
  0
LINE
  8
0
  6
CONTINUOUS
 62
     3
 10
-64.48635101318359
 20
-322.4325256347656
 11
-70.32604217529297
 21
-311.8475952148437
  0
LINE
  8
0
  6
CONTINUOUS
 62
     3
 10
-62.46181869506836
 20
-313.6632080078125
 11
-72.35063171386719
 21
-320.616943359375
  0
LINE
  8
0
  6
CONTINUOUS
 62
     3
 10
-68.56381988525391
 20
-304.2145080566406
 11
-73.62158966064453
 21
-326.1221313476563
  0
LINE
  8
0
  6
CONTINUOUS
 62
     7
 10
-110.4904251098633
 20
-321.1905212402344
 11
-111.2097854614258
 21
-323.6749877929688
  0
LINE
  8
0
  6
CONTINUOUS
 62
     7
 10
-136.6549835205078
 20
-326.7069396972656
 11
-136.5247192382813
 21
-328.255859375
  0
LINE
  8
0
  6
CONTINUOUS
 62
     7
 10
-127.0412902832031
 20
-323.94970703125
 11
-126.1036834716797
 21
-325.774658203125
  0
LINE
  8
0
  6
CONTINUOUS
 62
     7
 10
454.509033203125
 20
-32.45078277587891
 11
462.3953857421875
 21
-40.31499862670898
  0
LINE
  8
0
  6
CONTINUOUS
 62
     7
 10
446.6227416992188
 20
-40.31496429443359
 11
454.5090637207031
 21
-32.45074844360352
  0
LINE
  8
0
  6
CONTINUOUS
 62
     7
 10
462.3953552246094
 20
-42.33957290649414
 11
462.3953552246094
 21
-40.31497573852539
  0
LINE
  8
0
  6
CONTINUOUS
 62
     7
 10
446.6227111816406
 20
-42.33957290649414
 11
446.6227111816406
 21
-40.31497573852539
  0
LINE
  8
0
  6
CONTINUOUS
 62
     7
 10
454.5090942382813
 20
-34.47528839111328
 11
446.6227722167969
 21
-42.33950424194336
  0
LINE
  8
0
  6
CONTINUOUS
 62
     7
 10
462.3953552246094
 20
-42.33958053588867
 11
454.509033203125
 21
-34.47536849975586
  0
LINE
  8
0
  6
CONTINUOUS
 62
     7
 10
446.6227111816406
 20
-42.3395881652832
 11
454.5090026855469
 21
-50.20376205444336
  0
LINE
  8
0
  6
CONTINUOUS
 62
     7
 10
454.5090942382813
 20
-50.20370483398438
 11
462.3953857421875
 21
-42.33951187133789
  0
LINE
  8
0
  6
CONTINUOUS
 62
     7
 10
454.5090637207031
 20
-34.47531509399414
 11
454.5090637207031
 21
-32.45077896118164
  0
LINE
  8
0
  6
CONTINUOUS
 62
     3
 10
446.6227111816406
 20
-42.33951950073242
 11
454.5090637207031
 21
-32.45074081420898
  0
LINE
  8
0
  6
CONTINUOUS
 62
     3
 10
454.509033203125
 20
-34.47529220581055
 11
446.6226806640625
 21
-40.3149528503418
  0
LINE
  8
0
  6
CONTINUOUS
 62
     3
 10
454.509033203125
 20
-32.45074462890625
 11
462.3953857421875
 21
-42.33954620361328
  0
LINE
  8
0
  6
CONTINUOUS
 62
     3
 10
462.3954162597656
 20
-40.31497955322266
 11
454.5090637207031
 21
-34.47532272338867
  0
LINE
  8
0
  6
CONTINUOUS
 62
     7
 10
537.009033203125
 20
-365.6746826171875
 11
540.1161499023437
 21
-365.6746826171875
  0
LINE
  8
0
  6
CONTINUOUS
 62
     7
 10
537.009033203125
 20
-510.6746826171875
 11
537.009033203125
 21
-365.6746826171875
  0
LINE
  8
0
  6
CONTINUOUS
 62
     7
 10
552.009033203125
 20
-510.6746826171875
 11
552.009033203125
 21
-365.6746826171875
  0
LINE
  8
0
  6
CONTINUOUS
 62
     7
 10
537.009033203125
 20
-510.6746826171875
 11
552.009033203125
 21
-510.6746826171875
  0
LINE
  8
0
  6
CONTINUOUS
 62
     7
 10
537.009033203125
 20
-365.6746826171875
 11
552.009033203125
 21
-365.6746826171875
  0
LINE
  8
0
  6
CONTINUOUS
 62
     7
 10
537.009033203125
 20
-85.6746826171875
 11
537.009033203125
 21
-2.152225255966187
  0
LINE
  8
0
  6
CONTINUOUS
 62
     7
 10
552.009033203125
 20
-85.6746826171875
 11
552.009033203125
 21
-4.004031658172607
  0
LINE
  8
0
  6
CONTINUOUS
 62
     7
 10
537.009033203125
 20
-85.6746826171875
 11
552.009033203125
 21
-85.6746826171875
  0
LINE
  8
0
  6
CONTINUOUS
 62
     7
 10
531.1182250976563
 20
-13.17468643188477
 11
592.4926147460938
 21
-13.17468643188477
  0
LINE
  8
0
  6
CONTINUOUS
 62
     7
 10
537.009033203125
 20
59.32531356811523
 11
552.009033203125
 21
59.32531356811523
  0
LINE
  8
0
  6
CONTINUOUS
 62
     7
 10
552.009033203125
 20
-13.17468643188477
 11
552.009033203125
 21
59.32531356811523
  0
LINE
  8
0
  6
CONTINUOUS
 62
     7
 10
537.009033203125
 20
-13.17468643188477
 11
537.009033203125
 21
59.32531356811523
  0
LINE
  8
0
  6
CONTINUOUS
 62
     7
 10
587.009033203125
 20
-358.1746826171875
 11
587.009033203125
 21
-518.1746826171875
  0
LINE
  8
0
  6
CONTINUOUS
 62
     7
 10
575.009033203125
 20
-358.1746826171875
 11
587.009033203125
 21
-358.1746826171875
  0
LINE
  8
0
  6
CONTINUOUS
 62
     7
 10
575.009033203125
 20
-358.1746826171875
 11
575.009033203125
 21
-518.1746826171875
  0
LINE
  8
0
  6
CONTINUOUS
 62
     7
 10
557.009033203125
 20
-400.1746826171875
 11
570.009033203125
 21
-400.1746826171875
  0
LINE
  8
0
  6
CONTINUOUS
 62
     7
 10
575.009033203125
 20
-518.1746826171875
 11
587.009033203125
 21
-518.1746826171875
  0
LINE
  8
0
  6
CONTINUOUS
 62
     7
 10
557.009033203125
 20
-476.1746826171875
 11
570.009033203125
 21
-476.1746826171875
  0
LINE
  8
0
  6
CONTINUOUS
 62
     7
 10
552.009033203125
 20
-494.1746826171875
 11
575.009033203125
 21
-494.1746826171875
  0
LINE
  8
0
  6
CONTINUOUS
 62
     7
 10
552.009033203125
 20
-382.1746826171875
 11
575.009033203125
 21
-382.1746826171875
  0
LINE
  8
0
  6
CONTINUOUS
 62
     7
 10
552.009033203125
 20
-443.1746826171875
 11
575.009033203125
 21
-443.1746826171875
  0
LINE
  8
0
  6
CONTINUOUS
 62
     7
 10
552.009033203125
 20
-433.1746826171875
 11
575.009033203125
 21
-433.1746826171875
  0
LINE
  8
0
  6
CONTINUOUS
 62
     7
 10
552.009033203125
 20
-8.174686431884766
 11
575.009033203125
 21
-8.174686431884766
  0
LINE
  8
0
  6
CONTINUOUS
 62
     7
 10
552.009033203125
 20
-18.17468643188477
 11
575.009033203125
 21
-18.17468643188477
  0
LINE
  8
0
  6
CONTINUOUS
 62
     7
 10
552.009033203125
 20
42.82531356811523
 11
575.009033203125
 21
42.82531356811523
  0
LINE
  8
0
  6
CONTINUOUS
 62
     7
 10
552.009033203125
 20
-69.1746826171875
 11
575.009033203125
 21
-69.1746826171875
  0
LINE
  8
0
  6
CONTINUOUS
 62
     7
 10
557.009033203125
 20
-51.17468643188477
 11
570.009033203125
 21
-51.17468643188477
  0
LINE
  8
0
  6
CONTINUOUS
 62
     7
 10
575.009033203125
 20
-93.1746826171875
 11
587.009033203125
 21
-93.1746826171875
  0
LINE
  8
0
  6
CONTINUOUS
 62
     7
 10
557.009033203125
 20
24.82531356811523
 11
570.009033203125
 21
24.82531356811523
  0
LINE
  8
0
  6
CONTINUOUS
 62
     7
 10
575.009033203125
 20
66.8253173828125
 11
575.009033203125
 21
-93.1746826171875
  0
LINE
  8
0
  6
CONTINUOUS
 62
     7
 10
575.009033203125
 20
66.8253173828125
 11
587.009033203125
 21
66.8253173828125
  0
LINE
  8
0
  6
CONTINUOUS
 62
     7
 10
587.009033203125
 20
66.8253173828125
 11
587.009033203125
 21
-93.1746826171875
  0
LINE
  8
0
  6
CONTINUOUS
 62
     7
 10
537.009033203125
 20
-2.152488231658936
 11
537.009033203125
 21
-86.6746826171875
  0
LINE
  8
0
  6
CONTINUOUS
 62
     7
 10
428.5340881347656
 20
-299.6746826171875
 11
479.3449096679687
 21
-299.6746826171875
  0
ARC
  8
0
  6
CONTINUOUS
 62
     7
 10
467.5090637207031
 20
-515.6746826171875
 40
5.000000000000019
 50
270.0000179860891
 51
0
  0
ARC
  8
0
  6
CONTINUOUS
 62
     7
 10
462.5090637207031
 20
-525.6746826171875
 40
5.000000000000019
 50
89.99998201391097
 51
179.9999640278219
  0
ARC
  8
0
  6
CONTINUOUS
 62
     7
 10
462.5090637207031
 20
-350.6746826171875
 40
4.999999999999981
 50
179.9999776881996
 51
269.9999733624889
  0
ARC
  8
0
  6
CONTINUOUS
 62
     7
 10
467.5090637207031
 20
-360.6746826171875
 40
5
 50
359.9999453584866
 51
89.99992737239761
  0
ARC
  8
0
  6
CONTINUOUS
 62
     7
 10
468.5090637207031
 20
-353.6746826171875
 40
1.999999999999981
 50
179.9999776882003
 51
270.0000280040013
  0
ARC
  8
0
  6
CONTINUOUS
 62
     7
 10
468.5090637207031
 20
-522.6746826171875
 40
1.999999999999985
 50
89.99998201391097
 51
179.9999640278219
  0
ARC
  8
0
  6
CONTINUOUS
 62
     7
 10
454.5090637207031
 20
-299.6746826171875
 40
20.50000000000001
 50
296.8635071615863
 51
242.013983578035
  0
ARC
  8
0
  6
CONTINUOUS
 62
     7
 10
454.5090637207031
 20
-299.6746826171875
 40
12.5
 50
0
 51
256.8639076639099
  0
ARC
  8
0
  6
CONTINUOUS
 62
     7
 10
454.5090637207031
 20
-299.6746826171875
 40
12.49999999999998
 50
283.1360905148572
 51
0
  0
ARC
  8
0
  6
CONTINUOUS
 62
     7
 10
494.9204406738281
 20
-557.1746826171875
 40
19.99999999999996
 50
215.0000016568316
 51
270.0000179860893
  0
ARC
  8
0
  6
CONTINUOUS
 62
     7
 10
357.5090637207031
 20
-567.1746826171875
 40
10.00000000000004
 50
270.0000179860893
 51
0
  0
ARC
  8
0
  6
CONTINUOUS
 62
     7
 10
278.6925964355469
 20
-538.6038208007813
 40
49.99999999999996
 50
309.5186524105152
 51
356.2305163541525
  0
ARC
  8
0
  6
CONTINUOUS
 62
     7
 10
447.5090637207031
 20
-419.7265014648438
 40
60
 50
179.999991348578
 51
215.0000116747444
  0
CIRCLE
  8
0
  6
CONTINUOUS
 62
     3
 10
355.5090637207031
 20
-438.1746826171875
 40
6.735937595367432
  0
CIRCLE
  8
0
  6
CONTINUOUS
 62
     3
 10
355.5090637207031
 20
-503.1746826171875
 40
6.735937595367432
  0
ARC
  8
0
  6
CONTINUOUS
 62
     7
 10
342.5090637207031
 20
-340.6746826171875
 40
10.00000000000001
 50
269.9999974955218
 51
0
  0
ARC
  8
0
  6
CONTINUOUS
 62
     7
 10
357.5090637207031
 20
-340.6746826171875
 40
10.00000000000001
 50
269.9999974955218
 51
0
  0
ARC
  8
0
  6
CONTINUOUS
 62
     7
 10
467.5090637207031
 20
64.32528686523437
 40
5
 50
0
 51
89.99998201391097
  0
ARC
  8
0
  6
CONTINUOUS
 62
     7
 10
467.5090637207031
 20
-90.6746826171875
 40
5.000000000000004
 50
270.0000179860891
 51
0
  0
ARC
  8
0
  6
CONTINUOUS
 62
     7
 10
462.5090637207031
 20
-100.6746826171875
 40
5.000000000000004
 50
89.99998201391097
 51
179.9999640278213
  0
ARC
  8
0
  6
CONTINUOUS
 62
     7
 10
462.5090637207031
 20
74.32528686523437
 40
4.999999999999981
 50
179.9999776881996
 51
270.0000280040023
  0
ARC
  8
0
  6
CONTINUOUS
 62
     7
 10
454.5090637207031
 20
-13.17468643188477
 40
9.999999999999986
 50
23.57817672245736
 51
156.4218368242355
  0
ARC
  8
0
  6
CONTINUOUS
 62
     7
 10
438.0090637207031
 20
-13.17468643188477
 40
4
 50
89.99998201391097
 51
270.0000006832454
  0
ARC
  8
0
  6
CONTINUOUS
 62
     7
 10
471.0090637207031
 20
-13.17468643188477
 40
4.000000000000002
 50
270.0000179860891
 51
89.99998201391097
  0
ARC
  8
0
  6
CONTINUOUS
 62
     7
 10
454.5090637207031
 20
-13.17468643188477
 40
10.00000000000001
 50
203.5781631757645
 51
336.4218232775426
  0
ARC
  8
0
  6
CONTINUOUS
 62
     7
 10
320.5090637207031
 20
-95.6746826171875
 40
10.00000000000001
 50
166.349516782849
 51
179.9999640278213
  0
ARC
  8
0
  6
CONTINUOUS
 62
     7
 10
320.5090637207031
 20
69.3253173828125
 40
10.00000000000002
 50
179.9999776881996
 51
193.6504795746853
  0
ARC
  8
0
  6
CONTINUOUS
 62
     7
 10
372.5090637207031
 20
-13.17468643188477
 40
20.00000000000001
 50
120.000030660061
 51
239.9999520370951
  0
ARC
  8
0
  6
CONTINUOUS
 62
     7
 10
357.5090637207031
 20
12.80608749389648
 40
10
 50
299.9999300284562
 51
360
  0
ARC
  8
0
  6
CONTINUOUS
 62
     7
 10
357.5090637207031
 20
-39.15546035766602
 40
10
 50
0
 51
60.00006997154377
  0
ARC
  8
0
  6
CONTINUOUS
 62
     7
 10
530.509033203125
 20
-104.1612548828125
 40
10
 50
0
 51
80.6398361338119
  0
ARC
  8
0
  6
CONTINUOUS
 62
     7
 10
530.509033203125
 20
77.81195068359375
 40
9.999999999999989
 50
279.3602048473231
 51
0
  0
ARC
  8
0
  6
CONTINUOUS
 62
     7
 10
281.5090637207031
 20
-13.17468643188477
 40
9
 50
270.0000179860894
 51
89.99998201391061
  0
CIRCLE
  8
0
  6
CONTINUOUS
 62
     7
 10
335.5090637207031
 20
99.32525634765625
 40
9.5
  0
CIRCLE
  8
0
  6
CONTINUOUS
 62
     7
 10
515.509033203125
 20
99.32525634765625
 40
9.5
  0
CIRCLE
  8
0
  6
CONTINUOUS
 62
     7
 10
335.5090637207031
 20
-125.6747436523438
 40
9.5
  0
CIRCLE
  8
0
  6
CONTINUOUS
 62
     7
 10
515.509033203125
 20
-125.6747436523438
 40
9.5
  0
ARC
  8
0
  6
CONTINUOUS
 62
     7
 10
345.0724487304688
 20
84.3253173828125
 40
9.999999999999995
 50
270.0000179860893
 51
274.9999555151597
  0
ARC
  8
0
  6
CONTINUOUS
 62
     7
 10
345.0725402832031
 20
-110.6746826171875
 40
9.999999999999996
 50
85.00004448484029
 51
89.99998201391064
  0
ARC
  8
0
  6
CONTINUOUS
 62
     7
 10
357.5090637207031
 20
85.41339111328125
 40
9.999999999999996
 50
274.9999555151597
 51
0
  0
ARC
  8
0
  6
CONTINUOUS
 62
     7
 10
357.5090637207031
 20
-111.7627563476563
 40
10
 50
0
 51
85.00004448484029
  0
ARC
  8
0
  6
CONTINUOUS
 62
     7
 10
320.5090637207031
 20
114.3253173828125
 40
9.999999999999995
 50
90.00000250447815
 51
180.0000050089563
  0
ARC
  8
0
  6
CONTINUOUS
 62
     7
 10
320.5090637207031
 20
-140.6746826171875
 40
10
 50
179.999991348578
 51
270.0000006832453
  0
ARC
  8
0
  6
CONTINUOUS
 62
     7
 10
530.509033203125
 20
114.3253173828125
 40
10
 50
0
 51
90.00000250447847
  0
ARC
  8
0
  6
CONTINUOUS
 62
     7
 10
530.509033203125
 20
-140.6746826171875
 40
10.00000000000001
 50
269.9999974955215
 51
0
  0
ARC
  8
0
  6
CONTINUOUS
 62
     7
 10
479.5090637207031
 20
107.3253173828125
 40
5
 50
27.59400864308113
 51
90.00000250447847
  0
ARC
  8
0
  6
CONTINUOUS
 62
     7
 10
479.5090637207031
 20
-133.6746826171875
 40
5.000000000000004
 50
269.9999974955215
 51
348.3629448195065
  0
ARC
  8
0
  6
CONTINUOUS
 62
     7
 10
-99.49094390869141
 20
-438.1746826171875
 40
32.50000000000001
 50
106.0766490558549
 51
73.92333865025743
  0
ARC
  8
0
  6
CONTINUOUS
 62
     7
 10
-99.49094390869141
 20
-363.1746826171875
 40
13
 50
165.5410136304162
 51
14.45902871720947
  0
CIRCLE
  8
0
  6
CONTINUOUS
 62
     7
 10
-99.49094390869141
 20
-438.1746826171875
 40
87.5
  0
ARC
  8
0
  6
CONTINUOUS
 62
     3
 10
-99.49094390869141
 20
-438.1746826171875
 40
75.00000000000001
 50
22.3549017949391
 51
37.64509987471304
  0
ARC
  8
0
  6
CONTINUOUS
 62
     7
 10
-34.53903579711914
 20
-400.6746826171875
 40
13
 50
105.5411690551151
 51
314.4589041041522
  0
ARC
  8
0
  6
CONTINUOUS
 62
     3
 10
-99.49094390869141
 20
-438.1746826171875
 40
74.99999999999999
 50
82.35491029478037
 51
97.64511520474348
  0
ARC
  8
0
  6
CONTINUOUS
 62
     7
 10
-164.4428405761719
 20
-400.6746826171875
 40
12.99999999999999
 50
225.541059923669
 51
74.45884961421964
  0
ARC
  8
0
  6
CONTINUOUS
 62
     3
 10
-99.49094390869141
 20
-438.1746826171875
 40
75
 50
142.3549119644325
 51
157.6451100442064
  0
ARC
  8
0
  6
CONTINUOUS
 62
     7
 10
-164.4428405761719
 20
-475.6746826171875
 40
13.00000000000002
 50
285.5411367254021
 51
134.458940076331
  0
ARC
  8
0
  6
CONTINUOUS
 62
     3
 10
-99.49094390869141
 20
-438.1746826171875
 40
75
 50
202.3549172765502
 51
217.6451153563242
  0
ARC
  8
0
  6
CONTINUOUS
 62
     7
 10
-99.49094390869141
 20
-513.1746826171875
 40
13.00000000000002
 50
345.5409778856085
 51
194.458982727118
  0
ARC
  8
0
  6
CONTINUOUS
 62
     3
 10
-99.49094390869141
 20
-438.1746826171875
 40
75
 50
262.3549121160132
 51
277.6451101957871
  0
ARC
  8
0
  6
CONTINUOUS
 62
     7
 10
-34.53903579711914
 20
-475.6746826171875
 40
13.00000000000002
 50
45.54107517790923
 51
254.4588341326085
  0
ARC
  8
0
  6
CONTINUOUS
 62
     3
 10
-99.49094390869141
 20
-438.1746826171875
 40
75
 50
322.3549069554762
 51
337.6451050352501
  0
CIRCLE
  8
0
  6
CONTINUOUS
 62
     7
 10
-99.49094390869141
 20
-438.1746826171875
 40
55
  0
ARC
  8
0
  6
CONTINUOUS
 62
     7
 10
-161.9909362792969
 20
-605.1746826171875
 40
5.000000000000019
 50
89.99998201391064
 51
156.4218641449927
  0
ARC
  8
0
  6
CONTINUOUS
 62
     7
 10
-36.99094009399414
 20
-605.1746826171875
 40
5.000000000000022
 50
23.57815623189036
 51
89.99998201391064
  0
ARC
  8
0
  6
CONTINUOUS
 62
     7
 10
-161.9909362792969
 20
-578.1746826171875
 40
5.00000000000001
 50
179.9999776882003
 51
270.0000280040019
  0
ARC
  8
0
  6
CONTINUOUS
 62
     7
 10
-36.99094009399414
 20
-578.1746826171875
 40
5.000000000000019
 50
270.0000179860893
 51
0
  0
ARC
  8
0
  6
CONTINUOUS
 62
     7
 10
-74.49094390869141
 20
-578.1746826171875
 40
4.999999999999996
 50
179.9999776882003
 51
270.0000280040019
  0
ARC
  8
0
  6
CONTINUOUS
 62
     7
 10
-124.4909439086914
 20
-578.1746826171875
 40
5.000000000000019
 50
270.0000179860893
 51
0
  0
ARC
  8
0
  6
CONTINUOUS
 62
     7
 10
-46.31613540649414
 20
-528.1746826171875
 40
9.999999999999998
 50
4.999995585678207
 51
89.99998201391064
  0
ARC
  8
0
  6
CONTINUOUS
 62
     7
 10
-152.6658020019531
 20
-528.1746826171875
 40
10.00000000000004
 50
89.99998201391064
 51
174.9999923478053
  0
ARC
  8
0
  6
CONTINUOUS
 62
     7
 10
-99.49094390869141
 20
-460.6746826171875
 40
137.5
 50
0
 51
179.9999640278213
  0
ARC
  8
0
  6
CONTINUOUS
 62
     3
 10
-99.49094390869141
 20
-438.1746826171875
 40
105
 50
332.0411807080648
 51
342.9587804736557
  0
ARC
  8
0
  6
CONTINUOUS
 62
     3
 10
-99.49094390869141
 20
-438.1746826171875
 40
105
 50
17.04117683766195
 51
27.95878514098941
  0
ARC
  8
0
  6
CONTINUOUS
 62
     3
 10
-99.49094390869141
 20
-438.1746826171875
 40
105
 50
62.04117638235374
 51
72.9587829781339
  0
ARC
  8
0
  6
CONTINUOUS
 62
     3
 10
-99.49094390869141
 20
-438.1746826171875
 40
105
 50
107.0411742194982
 51
117.9587876454676
  0
ARC
  8
0
  6
CONTINUOUS
 62
     3
 10
-99.49094390869141
 20
-438.1746826171875
 40
105
 50
152.0411720566428
 51
162.9587786524229
  0
ARC
  8
0
  6
CONTINUOUS
 62
     3
 10
-99.49094390869141
 20
-438.1746826171875
 40
105
 50
197.0411940268204
 51
207.9587869622222
  0
ARC
  8
0
  6
CONTINUOUS
 62
     3
 10
-99.49094390869141
 20
-438.1746826171875
 40
105
 50
242.0411850337757
 51
252.9587847993667
  0
ARC
  8
0
  6
CONTINUOUS
 62
     3
 10
-99.49094390869141
 20
-438.1746826171875
 40
105.0000000000001
 50
287.0411828709202
 51
297.9587826365112
  0
ARC
  8
0
  6
CONTINUOUS
 62
     7
 10
-69.49094390869141
 20
-345.4048156738281
 40
10.00000000000001
 50
179.9999776881996
 51
252.0798792446929
  0
ARC
  8
0
  6
CONTINUOUS
 62
     7
 10
-129.4909362792969
 20
-345.4048156738281
 40
10.00000000000003
 50
287.9201052736958
 51
0
  0
ARC
  8
0
  6
CONTINUOUS
 62
     7
 10
-91.73215484619141
 20
-314.8746948242188
 40
1.200000047683725
 50
10.00000056286754
 51
79.05805311449654
  0
ARC
  8
0
  6
CONTINUOUS
 62
     7
 10
-99.49094390869141
 20
-283.1746826171875
 40
4
 50
0
 51
179.9999640278211
  0
ARC
  8
0
  6
CONTINUOUS
 62
     7
 10
-94.29093170166016
 20
-318.2746887207031
 40
1.200000047683722
 50
179.9999776881984
 51
270.0000280040022
  0
ARC
  8
0
  6
CONTINUOUS
 62
     7
 10
-104.6909561157227
 20
-318.2746887207031
 40
1.200000047683734
 50
269.9999633445759
 51
0
  0
ARC
  8
0
  6
CONTINUOUS
 62
     7
 10
-107.2497329711914
 20
-314.8746948242188
 40
1.200000047683728
 50
100.9419109133249
 51
169.9999660262759
  0
ARC
  8
0
  6
CONTINUOUS
 62
     7
 10
-99.49094390869141
 20
-438.1746826171875
 40
117.5
 50
60.31883490010829
 51
95.3717413810181
  0
ARC
  8
0
  6
CONTINUOUS
 62
     7
 10
-99.49094390869141
 20
-438.1746826171875
 40
117.5
 50
103.5611586864309
 51
108.4388699803038
  0
ARC
  8
0
  6
CONTINUOUS
 62
     7
 10
570.009033203125
 20
-481.1746826171875
 40
5
 50
0
 51
90.00000250447782
  0
ARC
  8
0
  6
CONTINUOUS
 62
     7
 10
570.009033203125
 20
-395.1746826171875
 40
5.000000000000004
 50
269.9999974955222
 51
0
  0
ARC
  8
0
  6
CONTINUOUS
 62
     7
 10
557.009033203125
 20
-395.1746826171875
 40
4.999999999999943
 50
179.999991348578
 51
270.0000006832456
  0
ARC
  8
0
  6
CONTINUOUS
 62
     7
 10
557.009033203125
 20
-481.1746826171875
 40
5.000000000000004
 50
90.00000250447782
 51
180.0000050089563
  0
ARC
  8
0
  6
CONTINUOUS
 62
     7
 10
557.009033203125
 20
-56.17468643188477
 40
4.999999999999997
 50
90.00000250447782
 51
180.0000050089563
  0
ARC
  8
0
  6
CONTINUOUS
 62
     7
 10
557.009033203125
 20
29.82531356811523
 40
4.999999999999943
 50
179.999991348578
 51
270.0000006832456
  0
ARC
  8
0
  6
CONTINUOUS
 62
     7
 10
570.009033203125
 20
29.82531356811523
 40
5.000000000000001
 50
269.9999974955222
 51
0
  0
ARC
  8
0
  6
CONTINUOUS
 62
     7
 10
570.009033203125
 20
-56.17468643188477
 40
5
 50
0
 51
90.00000250447782
  0
POLYLINE
  8
0
  6
CONTINUOUS
 62
     7
 66
     1
 10
0
 20
0
  0
VERTEX
  8
0
  6
CONTINUOUS
 62
     7
 10
446.4380489630362
 20
-320.0117707472601
 42
0.5547852449200043
  0
VERTEX
  8
0
  6
CONTINUOUS
 62
     7
 10
446.1869232264416
 20
-321.014336099369
 42
0.1035254123975273
  0
VERTEX
  8
0
  6
CONTINUOUS
 62
     7
 10
447.2435957110716
 20
-321.6126287800828
 42
0.03106237593174527
  0
VERTEX
  8
0
  6
CONTINUOUS
 62
     7
 10
448.4188342120637
 20
-321.9532217359935
 42
0.01736653360940562
  0
VERTEX
  8
0
  6
CONTINUOUS
 62
     7
 10
449.621046231096
 20
-322.1833041073583
 42
0.01227962950845941
  0
VERTEX
  8
0
  6
CONTINUOUS
 62
     7
 10
450.8348744405466
 20
-322.3430332212935
 42
0.009889494826049765
  0
VERTEX
  8
0
  6
CONTINUOUS
 62
     7
 10
452.0555976864691
 20
-322.4493980227892
 42
0.008687601315272289
  0
VERTEX
  8
0
  6
CONTINUOUS
 62
     7
 10
453.2795790445172
 20
-322.5106147883906
 42
0.008173081189667546
  0
VERTEX
  8
0
  6
CONTINUOUS
 62
     7
 10
454.5049772105303
 20
-322.5307040385212
 42
0.008170536145920667
  0
VERTEX
  8
0
  6
CONTINUOUS
 62
     7
 10
455.7302441765877
 20
-322.5108864130863
 42
0.008682637543648888
  0
VERTEX
  8
0
  6
CONTINUOUS
 62
     7
 10
456.9543118601123
 20
-322.4499532397428
 42
0.009879235936114512
  0
VERTEX
  8
0
  6
CONTINUOUS
 62
     7
 10
458.1751716111532
 20
-322.3439016627252
 42
0.01227268305176288
  0
VERTEX
  8
0
  6
CONTINUOUS
 62
     7
 10
459.3903961633699
 20
-322.1843574275012
 42
0.01736331859298002
  0
VERTEX
  8
0
  6
CONTINUOUS
 62
     7
 10
460.5949088877721
 20
-321.9542303303559
 42
0.03102276778206706
  0
VERTEX
  8
0
  6
CONTINUOUS
 62
     7
 10
461.7715717564942
 20
-321.6137180412122
 42
0.1034613131384032
  0
VERTEX
  8
0
  6
CONTINUOUS
 62
     7
 10
462.8306343219849
 20
-321.0149313482321
 42
0.554895839061365
  0
VERTEX
  8
0
  6
CONTINUOUS
 62
     7
 10
462.5819768556528
 20
-320.0130586591552
 42
0
  0
SEQEND
  8
0
  0
POLYLINE
  8
0
  6
CONTINUOUS
 62
     7
 66
     1
 10
0
 20
0
  0
VERTEX
  8
0
  6
CONTINUOUS
 62
     7
 10
446.1875266442489
 20
-326.4158971299686
 42
0.2480516466256057
  0
VERTEX
  8
0
  6
CONTINUOUS
 62
     7
 10
446.9112707143878
 20
-327.179459319559
 42
0.04463918233035326
  0
VERTEX
  8
0
  6
CONTINUOUS
 62
     7
 10
447.9421638321516
 20
-327.565659138952
 42
0.02127731874932708
  0
VERTEX
  8
0
  6
CONTINUOUS
 62
     7
 10
449.0146434879809
 20
-327.8217901509468
 42
0.01386120226689498
  0
VERTEX
  8
0
  6
CONTINUOUS
 62
     7
 10
450.1026931532763
 20
-328.0038721502361
 42
0.01053517461406425
  0
VERTEX
  8
0
  6
CONTINUOUS
 62
     7
 10
451.1983804135775
 20
-328.1333203280054
 42
0.008818374795388552
  0
VERTEX
  8
0
  6
CONTINUOUS
 62
     7
 10
452.2985472166079
 20
-328.2205913794583
 42
0.00791325456698898
  0
VERTEX
  8
0
  6
CONTINUOUS
 62
     7
 10
453.4011256179376
 20
-328.2711795921135
 42
0.007515671351003322
  0
VERTEX
  8
0
  6
CONTINUOUS
 62
     7
 10
454.5047712729941
 20
-328.2878451235645
 42
0.007513368252383877
  0
VERTEX
  8
0
  6
CONTINUOUS
 62
     7
 10
455.608301009555
 20
-328.2714412434368
 42
0.007906197112200343
  0
VERTEX
  8
0
  6
CONTINUOUS
 62
     7
 10
456.7105990438359
 20
-328.2211463652878
 42
0.008816439492228354
  0
VERTEX
  8
0
  6
CONTINUOUS
 62
     7
 10
457.8117151342799
 20
-328.1341019478747
 42
0.01052294317104998
  0
VERTEX
  8
0
  6
CONTINUOUS
 62
     7
 10
458.9078896964417
 20
-328.0049291920914
 42
0.01384195503708596
  0
VERTEX
  8
0
  6
CONTINUOUS
 62
     7
 10
459.9968877062701
 20
-327.8230917448984
 42
0.02126298710439761
  0
VERTEX
  8
0
  6
CONTINUOUS
 62
     7
 10
461.0717113445572
 20
-327.5668848531199
 42
0.04456797160780655
  0
VERTEX
  8
0
  6
CONTINUOUS
 62
     7
 10
462.1044983095242
 20
-327.1806418462537
 42
0.2481427691486879
  0
VERTEX
  8
0
  6
CONTINUOUS
 62
     7
 10
462.8305930504989
 20
-326.4158971299686
 42
0
  0
SEQEND
  8
0
  0
POLYLINE
  8
0
  6
CONTINUOUS
 62
     7
 66
     1
 10
0
 20
0
  0
VERTEX
  8
0
  6
CONTINUOUS
 62
     7
 10
462.8204939164462
 20
-38.54588081955663
 42
0.04847174459622713
  0
VERTEX
  8
0
  6
CONTINUOUS
 62
     7
 10
462.5742699956642
 20
-37.01037366599694
 42
0.04822466311260554
  0
VERTEX
  8
0
  6
CONTINUOUS
 62
     7
 10
462.0377030456526
 20
-35.55080018495622
 42
0.04784386673873883
  0
VERTEX
  8
0
  6
CONTINUOUS
 62
     7
 10
461.2323201538752
 20
-34.22023293361783
 42
0.04737580930103657
  0
VERTEX
  8
0
  6
CONTINUOUS
 62
     7
 10
460.189723863985
 20
-33.06596550922841
 42
0.04690357525672584
  0
VERTEX
  8
0
  6
CONTINUOUS
 62
     7
 10
458.949088355851
 20
-32.12718160114916
 42
0.04648608483102491
  0
VERTEX
  8
0
  6
CONTINUOUS
 62
     7
 10
457.5554656278847
 20
-31.43471539720037
 42
0.04617084849600237
  0
VERTEX
  8
0
  6
CONTINUOUS
 62
     7
 10
456.0580638330758
 20
-31.01060541313178
 42
0.0459793488831262
  0
VERTEX
  8
0
  6
CONTINUOUS
 62
     7
 10
454.5090598473739
 20
-30.86789297957802
 42
0.04597362496071031
  0
VERTEX
  8
0
  6
CONTINUOUS
 62
     7
 10
452.9602392055377
 20
-31.01057088934089
 42
0.04614341608744996
  0
VERTEX
  8
0
  6
CONTINUOUS
 62
     7
 10
451.4636703668158
 20
-31.43431982991465
 42
0.04646182626290955
  0
VERTEX
  8
0
  6
CONTINUOUS
 62
     7
 10
450.0706166040643
 20
-32.126189725164
 42
0.04689210879207793
  0
VERTEX
  8
0
  6
CONTINUOUS
 62
     7
 10
448.8300143059666
 20
-33.06445705410408
 42
0.04738569363464008
  0
VERTEX
  8
0
  6
CONTINUOUS
 62
     7
 10
447.7868836052482
 20
-34.21872362730034
 42
0.04786779629520961
  0
VERTEX
  8
0
  6
CONTINUOUS
 62
     7
 10
446.9808410668016
 20
-35.5498160181096
 42
0.04826091285994544
  0
VERTEX
  8
0
  6
CONTINUOUS
 62
     7
 10
446.4437754472444
 20
-37.01044014616629
 42
0.04849630551287687
  0
VERTEX
  8
0
  6
CONTINUOUS
 62
     7
 10
446.1975133000047
 20
-38.54671329224836
 42
0
  0
SEQEND
  8
0
  0
POLYLINE
  8
0
  6
CONTINUOUS
 62
     7
 66
     1
 10
0
 20
0
  0
VERTEX
  8
0
  6
CONTINUOUS
 62
     7
 10
456.2987759379447
 20
-48.41902357581541
 42
0.08922772544191501
  0
VERTEX
  8
0
  6
CONTINUOUS
 62
     7
 10
459.1323902865545
 20
-47.27361702956136
 42
0.09150446541458708
  0
VERTEX
  8
0
  6
CONTINUOUS
 62
     7
 10
461.3802941232715
 20
-45.20281587251722
 42
0.09396300828414553
  0
VERTEX
  8
0
  6
CONTINUOUS
 62
     7
 10
462.7266752686303
 20
-42.46048904441804
 42
0.09531374866408536
  0
VERTEX
  8
0
  6
CONTINUOUS
 62
     7
 10
462.9663209048675
 20
-39.41536627398227
 42
0.09472483127836726
  0
VERTEX
  8
0
  6
CONTINUOUS
 62
     7
 10
462.0609869729865
 20
-36.49794319271813
 42
0.0925503933936712
  0
VERTEX
  8
0
  6
CONTINUOUS
 62
     7
 10
460.152807302819
 20
-34.11211313613363
 42
0.090104679398747
  0
VERTEX
  8
0
  6
CONTINUOUS
 62
     7
 10
457.5175374151063
 20
-32.56109086208279
 42
0.08842983426177438
  0
VERTEX
  8
0
  6
CONTINUOUS
 62
     7
 10
454.5090598473739
 20
-32.02548575301552
 42
0.08846547153101671
  0
VERTEX
  8
0
  6
CONTINUOUS
 62
     7
 10
451.4994120802618
 20
-32.56151899823089
 42
0.0900415996688277
  0
VERTEX
  8
0
  6
CONTINUOUS
 62
     7
 10
448.8659495887458
 20
-34.11153943810713
 42
0.09257754888259639
  0
VERTEX
  8
0
  6
CONTINUOUS
 62
     7
 10
446.9570684273619
 20
-36.49797469771847
 42
0.09475323273321942
  0
VERTEX
  8
0
  6
CONTINUOUS
 62
     7
 10
446.0516363107269
 20
-39.41627958999884
 42
0.09529139742076763
  0
VERTEX
  8
0
  6
CONTINUOUS
 62
     7
 10
446.2914298871045
 20
-42.46064174495798
 42
0.09395224167897616
  0
VERTEX
  8
0
  6
CONTINUOUS
 62
     7
 10
447.6376633574407
 20
-45.20265200835156
 42
0.09149366215387678
  0
VERTEX
  8
0
  6
CONTINUOUS
 62
     7
 10
449.8852328688362
 20
-47.27331546441532
 42
0.08926441766398127
  0
VERTEX
  8
0
  6
CONTINUOUS
 62
     7
 10
452.7200472335545
 20
-48.41917167653239
 42
0
  0
SEQEND
  8
0
  0
TEXT
  8
0
  6
CONTINUOUS
 62
     7
 10
-233.4195194244385
 20
-25.67468643188477
 40
25
 41
1.031321651030352
  1
ERK-NAD-400
  0
ENDSEC
  0
EOF
