  0
SECTION
  2
HEADER
  0
ENDSEC
  0
SECTION
  2
TABLES
  0
TABLE
  2
LTYPE
 70
    22
  0
LTYPE
  2
CONTINUOUS
 70
    64
  3
Solid line
 72
    65
 73
     0
 40
0.000000
  0
LTYPE
  2
DASHED
 70
    64
  3
__ __ __ __ __ __ __ __ __ __ __ __ __ __ __
 72
    65
 73
     2
 40
3.500000
 49
2.000000
 49
-1.500000
  0
LTYPE
  2
CENTER
 70
    64
  3
____ _ ____ _ ____ _ ____ _ ____ _ ____ _ ____
 72
    65
 73
     4
 40
17.500000
 49
13.000000
 49
-1.500000
 49
1.500000
 49
-1.500000
  0
LTYPE
  2
PHANTOM
 70
    64
  3
_____ _ _ _____ _ _ _____ _ _ _____ _ _ ____  
 72
    65
 73
     6
 40
15.500000
 49
8.000000
 49
-1.500000
 49
1.500000
 49
-1.500000
 49
1.500000
 49
-1.500000
  0
LTYPE
  2
DOT
 70
    64
  3
. . . . . . . . . . . . . . . . . . . . . . . .
 72
    65
 73
     2
 40
0.25
 49
0.0
 49
-0.25
  0
ENDTAB
  0
TABLE
  2
LAYER
 70
     1
  0
LAYER
  2
0
 70
     0
 62
     7
  6
CONTINUOUS
  0
ENDTAB
  0
TABLE
  2
STYLE
 70
     1
  0
STYLE
  2
STANDARD
 70
     0
 40
0.000000
 41
1.000000
 50
0.000000
 71
     0
 42
0.200000
  3
txt
  4
BIGFONT
  0
ENDTAB
  0
TABLE
  2
VIEW
 70
     0
  0
ENDTAB
  0
ENDSEC
  0
SECTION
  2
BLOCKS
  0
ENDSEC
  0
SECTION
  2
ENTITIES
  0
LINE
  8
0
  6
CONTINUOUS
 62
     7
 10
325.6851806640625
 20
-63.96075439453125
 11
325.6851806640625
 21
-158.9607696533203
  0
LINE
  8
0
  6
CONTINUOUS
 62
     7
 10
530.6851196289063
 20
-229.4607543945313
 11
530.6851196289063
 21
-251.4607238769531
  0
LINE
  8
0
  6
CONTINUOUS
 62
     7
 10
340.6851806640625
 20
-251.4607543945312
 11
530.6851196289063
 21
-251.4607543945312
  0
LINE
  8
0
  6
CONTINUOUS
 62
     7
 10
414.6851501464844
 20
-18.96075820922852
 11
429.6851501464844
 21
-18.96075820922852
  0
LINE
  8
0
  6
CONTINUOUS
 62
     7
 10
328.6851806640625
 20
-48.96075820922852
 11
328.6851806640625
 21
-58.76458740234375
  0
LINE
  8
0
  6
CONTINUOUS
 62
     7
 10
328.6851501464844
 20
-48.96075820922852
 11
360.6851501464844
 21
-48.96075820922852
  0
LINE
  8
0
  6
CONTINUOUS
 62
     7
 10
328.6851806640625
 20
-173.9607543945313
 11
350.5408020019531
 21
-173.9607543945313
  0
LINE
  8
0
  6
CONTINUOUS
 62
     7
 10
429.6851806640625
 20
-18.96075057983398
 11
429.6851806640625
 21
-103.538215637207
  0
LINE
  8
0
  6
CONTINUOUS
 62
     7
 10
414.6851501464844
 20
-18.96075057983398
 11
414.6851501464844
 21
-96.8116455078125
  0
LINE
  8
0
  6
CONTINUOUS
 62
     7
 10
340.6851806640625
 20
-229.4607543945313
 11
396.6851806640625
 21
-229.4607543945313
  0
LINE
  8
0
  6
CONTINUOUS
 62
     7
 10
340.6851806640625
 20
-229.4607543945313
 11
340.6851806640625
 21
-251.4607543945312
  0
LINE
  8
0
  6
CONTINUOUS
 62
     7
 10
404.6851501464844
 20
-109.4607620239258
 11
404.6851501464844
 21
-221.4607391357422
  0
LINE
  8
0
  6
CONTINUOUS
 62
     7
 10
484.4538269042969
 20
-221.5027923583984
 11
436.7082824707031
 21
-131.7064666748047
  0
LINE
  8
0
  6
CONTINUOUS
 62
     7
 10
346.4562683105469
 20
-220.6463775634766
 11
352.2667236328125
 21
-154.2326354980469
  0
LINE
  8
0
  6
CONTINUOUS
 62
     3
 10
360.6851806640625
 20
-222.6451568603516
 11
360.6851806640625
 21
-258.6451416015625
  0
LINE
  8
0
  6
CONTINUOUS
 62
     3
 10
510.6851501464844
 20
-222.6451568603516
 11
510.6851501464844
 21
-257.3118286132812
  0
LINE
  8
0
  6
CONTINUOUS
 62
     7
 10
255.6851501464844
 20
-85.46076202392578
 11
255.6851501464844
 21
-133.9607543945313
  0
LINE
  8
0
  6
CONTINUOUS
 62
     7
 10
255.6851501464844
 20
-88.96076202392578
 11
320.6851806640625
 21
-88.96076202392578
  0
LINE
  8
0
  6
CONTINUOUS
 62
     7
 10
255.6851806640625
 20
-133.9607543945313
 11
320.6851806640625
 21
-133.9607543945313
  0
LINE
  8
0
  6
DASHED
 62
     7
 10
353.1851806640625
 20
-229.4607543945313
 11
353.1851806640625
 21
-251.4607238769531
  0
LINE
  8
0
  6
DASHED
 62
     7
 10
368.1851806640625
 20
-229.4607543945313
 11
368.1851806640625
 21
-251.4607238769531
  0
LINE
  8
0
  6
DASHED
 62
     7
 10
503.1851501464844
 20
-229.4607543945313
 11
503.1851501464844
 21
-251.4607238769531
  0
LINE
  8
0
  6
DASHED
 62
     7
 10
518.1851196289063
 20
-229.4607543945313
 11
518.1851196289063
 21
-251.4607238769531
  0
LINE
  8
0
  6
CONTINUOUS
 62
     7
 10
325.6851806640625
 20
-158.9607238769531
 11
328.6851806640625
 21
-164.1568756103516
  0
LINE
  8
0
  6
CONTINUOUS
 62
     7
 10
325.6851501464844
 20
-63.96077346801758
 11
328.6851501464844
 21
-58.76460647583008
  0
LINE
  8
0
  6
CONTINUOUS
 62
     7
 10
360.6851806640625
 20
-48.9608154296875
 11
407.1038513183594
 21
-46.52811813354492
  0
LINE
  8
0
  6
CONTINUOUS
 62
     7
 10
305.6851806640625
 20
-85.46076202392578
 11
305.6851806640625
 21
-88.96076202392578
  0
LINE
  8
0
  6
CONTINUOUS
 62
     7
 10
255.6851501464844
 20
-85.46076202392578
 11
305.6851806640625
 21
-85.46076202392578
  0
LINE
  8
0
  6
CONTINUOUS
 62
     7
 10
320.6851806640625
 20
-83.96076202392578
 11
320.6851806640625
 21
-138.9607543945313
  0
LINE
  8
0
  6
CONTINUOUS
 62
     7
 10
320.6851806640625
 20
-83.96076202392578
 11
325.6851806640625
 21
-83.96076202392578
  0
LINE
  8
0
  6
CONTINUOUS
 62
     7
 10
320.6851806640625
 20
-138.9607543945313
 11
325.6851806640625
 21
-138.9607543945313
  0
LINE
  8
0
  6
CONTINUOUS
 62
     7
 10
328.6851806640625
 20
-164.1568908691406
 11
328.6851806640625
 21
-173.9607543945313
  0
LINE
  8
0
  6
CONTINUOUS
 62
     3
 10
240.6851806640625
 20
-111.4607620239258
 11
628.7254638671875
 21
-111.4607620239258
  0
LINE
  8
0
  6
CONTINUOUS
 62
     7
 10
479.6851501464844
 20
-18.37518119812012
 11
479.6851501464844
 21
-203.9607391357422
  0
LINE
  8
0
  6
CONTINUOUS
 62
     7
 10
529.6851196289062
 20
-37.96073913574219
 11
529.6851196289062
 21
-184.9607543945313
  0
LINE
  8
0
  6
CONTINUOUS
 62
     7
 10
489.6851501464844
 20
-24.14809608459473
 11
489.6851501464844
 21
-59.33714294433594
  0
LINE
  8
0
  6
CONTINUOUS
 62
     7
 10
519.6851196289063
 20
-38.96074295043945
 11
519.6851196289063
 21
-183.9607391357422
  0
LINE
  8
0
  6
CONTINUOUS
 62
     7
 10
519.6851196289063
 20
-183.9607391357422
 11
529.6851196289062
 21
-183.9607391357422
  0
LINE
  8
0
  6
CONTINUOUS
 62
     7
 10
519.6851196289063
 20
-38.96075820922852
 11
529.6851196289062
 21
-38.96075820922852
  0
LINE
  8
0
  6
CONTINUOUS
 62
     7
 10
479.6851501464844
 20
-203.9607391357422
 11
497.6851501464844
 21
-203.9607391357422
  0
LINE
  8
0
  6
CONTINUOUS
 62
     7
 10
489.6851501464844
 20
-114.4607696533203
 11
519.6851196289063
 21
-114.4607696533203
  0
LINE
  8
0
  6
CONTINUOUS
 62
     7
 10
489.6851501464844
 20
-108.4607543945313
 11
519.6851196289063
 21
-108.4607543945313
  0
LINE
  8
0
  6
CONTINUOUS
 62
     7
 10
497.6851501464844
 20
-59.33714294433594
 11
497.6851501464844
 21
-88.5450439453125
  0
LINE
  8
0
  6
CONTINUOUS
 62
     7
 10
489.6851806640625
 20
-34.22802734375
 11
519.6851806640625
 21
-51.56175994873047
  0
LINE
  8
0
  6
CONTINUOUS
 62
     7
 10
489.6851501464844
 20
-76.65765380859375
 11
489.6851501464844
 21
-146.2638549804687
  0
LINE
  8
0
  6
CONTINUOUS
 62
     7
 10
497.6851501464844
 20
-18.96075057983398
 11
497.6851501464844
 21
-38.85036849975586
  0
LINE
  8
0
  6
CONTINUOUS
 62
     7
 10
489.6851501464844
 20
-203.9607391357422
 11
489.6851501464844
 21
-163.5843505859375
  0
LINE
  8
0
  6
CONTINUOUS
 62
     7
 10
497.6851501464844
 20
-203.9607391357422
 11
497.6851501464844
 21
-184.0711364746094
  0
LINE
  8
0
  6
CONTINUOUS
 62
     7
 10
489.6851501464844
 20
-188.6934814453125
 11
519.6851196289063
 21
-171.3597564697266
  0
LINE
  8
0
  6
CONTINUOUS
 62
     7
 10
497.6851501464844
 20
-68.70107269287109
 11
519.6851196289063
 21
-68.70107269287109
  0
LINE
  8
0
  6
CONTINUOUS
 62
     7
 10
497.6851501464844
 20
-154.2204284667969
 11
519.6851196289063
 21
-154.2204284667969
  0
LINE
  8
0
  6
CONTINUOUS
 62
     7
 10
480.5519714355469
 20
-13.4348201751709
 11
479.6851806640625
 21
-18.37516784667969
  0
LINE
  8
0
  6
CONTINUOUS
 62
     7
 10
487.6851501464844
 20
-11.50276565551758
 11
493.2412109375
 21
-12.69661521911621
  0
LINE
  8
0
  6
CONTINUOUS
 62
     7
 10
487.6851196289062
 20
-11.50276851654053
 11
482.1290283203125
 21
-12.69663143157959
  0
LINE
  8
0
  6
CONTINUOUS
 62
     7
 10
494.818359375
 20
-13.4348258972168
 11
495.6814575195313
 21
-18.3541316986084
  0
LINE
  8
0
  6
CONTINUOUS
 62
     7
 10
479.6851501464844
 20
-18.96075820922852
 11
497.6851501464844
 21
-18.96075820922852
  0
LINE
  8
0
  6
CONTINUOUS
 62
     7
 10
489.6851501464844
 20
-59.337158203125
 11
497.6851501464844
 21
-59.337158203125
  0
LINE
  8
0
  6
CONTINUOUS
 62
     7
 10
489.6851501464844
 20
-76.65766906738281
 11
497.6851501464844
 21
-76.65766906738281
  0
LINE
  8
0
  6
CONTINUOUS
 62
     7
 10
489.6851501464844
 20
-146.2638549804687
 11
497.6851501464844
 21
-146.2638549804687
  0
LINE
  8
0
  6
CONTINUOUS
 62
     7
 10
497.6851501464844
 20
-163.5843505859375
 11
497.6851501464844
 21
-134.37646484375
  0
LINE
  8
0
  6
CONTINUOUS
 62
     7
 10
489.6851501464844
 20
-163.5843505859375
 11
497.6851501464844
 21
-163.5843505859375
  0
LINE
  8
0
  6
CONTINUOUS
 62
     7
 10
495.6814270019531
 20
-18.35412216186523
 11
495.6814270019531
 21
-18.96075057983398
  0
LINE
  8
0
  6
CONTINUOUS
 62
     7
 10
470.9572448730469
 20
-196.1194458007813
 11
475.6851501464844
 21
-196.1194458007813
  0
LINE
  8
0
  6
CONTINUOUS
 62
     7
 10
433.6851501464844
 20
-16.46076011657715
 11
475.6851501464844
 21
-16.46076011657715
  0
LINE
  8
0
  6
CONTINUOUS
 62
     7
 10
433.6852722167969
 20
-16.46085739135742
 11
429.6852722167969
 21
-20.46086120605469
  0
LINE
  8
0
  6
CONTINUOUS
 62
     7
 10
476.1883239746094
 20
-205.9576568603516
 11
479.6852111816406
 21
-202.4607696533203
  0
LINE
  8
0
  6
CONTINUOUS
 62
     7
 10
479.6851196289062
 20
-20.46075248718262
 11
475.6851196289063
 21
-16.46074867248535
  0
LINE
  8
0
  6
CONTINUOUS
 62
     7
 10
473.4045104980469
 20
-200.7220153808594
 11
475.6851501464844
 21
-200.7220153808594
  0
LINE
  8
0
  6
CONTINUOUS
 62
     7
 10
433.6851501464844
 20
-73.80690002441406
 11
475.6851501464844
 21
-73.80690002441406
  0
LINE
  8
0
  6
CONTINUOUS
 62
     7
 10
433.6851501464844
 20
-85.24845123291016
 11
475.6851501464844
 21
-85.24845123291016
  0
LINE
  8
0
  6
CONTINUOUS
 62
     7
 10
433.6851501464844
 20
-94.99198150634766
 11
475.6851501464844
 21
-94.99198150634766
  0
LINE
  8
0
  6
CONTINUOUS
 62
     7
 10
433.6851501464844
 20
-106.4612731933594
 11
475.6851501464844
 21
-106.4612731933594
  0
LINE
  8
0
  6
CONTINUOUS
 62
     7
 10
433.6851501464844
 20
-116.4608840942383
 11
475.6851501464844
 21
-116.4608840942383
  0
LINE
  8
0
  6
CONTINUOUS
 62
     7
 10
434.7003784179688
 20
-127.9302062988281
 11
475.6851501464844
 21
-127.9302062988281
  0
LINE
  8
0
  6
CONTINUOUS
 62
     7
 10
439.8808288574219
 20
-137.6732177734375
 11
475.6851501464844
 21
-137.6732177734375
  0
LINE
  8
0
  6
CONTINUOUS
 62
     7
 10
445.9642639160156
 20
-149.1144561767578
 11
475.6851501464844
 21
-149.1144561767578
  0
LINE
  8
0
  6
CONTINUOUS
 62
     7
 10
456.0949401855469
 20
-168.1674957275391
 11
475.6851501464844
 21
-168.1674957275391
  0
LINE
  8
0
  6
CONTINUOUS
 62
     7
 10
461.021240234375
 20
-177.4325408935547
 11
475.6851501464844
 21
-177.4325408935547
  0
LINE
  8
0
  6
CONTINUOUS
 62
     7
 10
464.6482238769531
 20
-184.2539367675781
 11
475.6851501464844
 21
-184.2539367675781
  0
LINE
  8
0
  6
CONTINUOUS
 62
     7
 10
468.2986145019531
 20
-191.1192321777344
 11
475.6851501464844
 21
-191.1192321777344
  0
LINE
  8
0
  6
CONTINUOUS
 62
     7
 10
529.6851196289062
 20
-37.96075439453125
 11
552.1851196289063
 21
-37.96075439453125
  0
LINE
  8
0
  6
CONTINUOUS
 62
     7
 10
552.1851196289063
 20
-37.96073913574219
 11
552.1851196289063
 21
-184.9607238769531
  0
LINE
  8
0
  6
CONTINUOUS
 62
     7
 10
529.6851196289062
 20
-184.9607543945313
 11
552.1851196289063
 21
-184.9607543945313
  0
LINE
  8
0
  6
CONTINUOUS
 62
     7
 10
497.6980895996094
 20
-229.4607543945313
 11
530.6851196289063
 21
-229.4607543945313
  0
LINE
  8
0
  6
CONTINUOUS
 62
     7
 10
360.6852111816406
 20
281.0392150878906
 11
407.1038513183594
 21
283.4718933105469
  0
LINE
  8
0
  6
CONTINUOUS
 62
     7
 10
255.6851501464844
 20
241.0392456054688
 11
255.6851501464844
 21
196.0392456054688
  0
LINE
  8
0
  6
CONTINUOUS
 62
     7
 10
255.6851501464844
 20
241.0392456054688
 11
320.6851806640625
 21
241.0392456054688
  0
LINE
  8
0
  6
CONTINUOUS
 62
     7
 10
255.6851806640625
 20
196.0392456054688
 11
320.6851806640625
 21
196.0392456054688
  0
LINE
  8
0
  6
CONTINUOUS
 62
     7
 10
325.6851806640625
 20
266.0392456054688
 11
325.6851806640625
 21
171.0392456054688
  0
LINE
  8
0
  6
CONTINUOUS
 62
     7
 10
328.6851806640625
 20
281.0392456054687
 11
328.6851806640625
 21
271.2353820800781
  0
LINE
  8
0
  6
CONTINUOUS
 62
     7
 10
328.6851501464844
 20
281.0392456054687
 11
360.6851501464844
 21
281.0392456054687
  0
LINE
  8
0
  6
CONTINUOUS
 62
     7
 10
328.6851806640625
 20
156.0392456054688
 11
360.6851806640625
 21
156.0392456054688
  0
LINE
  8
0
  6
CONTINUOUS
 62
     7
 10
429.6851806640625
 20
318.5392456054687
 11
429.6851806640625
 21
118.5392456054688
  0
LINE
  8
0
  6
CONTINUOUS
 62
     7
 10
414.6851501464844
 20
328.5392761230469
 11
414.6851501464844
 21
108.5392456054688
  0
LINE
  8
0
  6
CONTINUOUS
 62
     7
 10
340.6851806640625
 20
320.5392456054687
 11
340.6851806640625
 21
281.0392456054687
  0
LINE
  8
0
  6
CONTINUOUS
 62
     7
 10
348.6851806640625
 20
108.5392303466797
 11
522.6851196289063
 21
108.5392303466797
  0
LINE
  8
0
  6
CONTINUOUS
 62
     7
 10
348.6851501464844
 20
328.5392761230469
 11
522.6851196289063
 21
328.5392761230469
  0
LINE
  8
0
  6
CONTINUOUS
 62
     7
 10
530.6851196289063
 20
142.5533447265625
 11
530.6851196289063
 21
116.5392456054687
  0
LINE
  8
0
  6
CONTINUOUS
 62
     7
 10
340.6851806640625
 20
156.0392456054688
 11
340.6851806640625
 21
116.5392456054687
  0
LINE
  8
0
  6
CONTINUOUS
 62
     7
 10
530.6851196289063
 20
294.525146484375
 11
530.6851196289063
 21
320.5392456054687
  0
LINE
  8
0
  6
CONTINUOUS
 62
     7
 10
429.6851806640625
 20
118.5392456054688
 11
485.6852111816406
 21
118.5392456054688
  0
LINE
  8
0
  6
CONTINUOUS
 62
     7
 10
404.6851501464844
 20
153.7333374023438
 11
404.6851501464844
 21
108.5392456054688
  0
LINE
  8
0
  6
CONTINUOUS
 62
     7
 10
404.6851501464844
 20
283.3451538085937
 11
404.6851501464844
 21
328.5392761230469
  0
LINE
  8
0
  6
CONTINUOUS
 62
     7
 10
429.6851501464844
 20
318.5392456054687
 11
485.6852111816406
 21
318.5392456054687
  0
LINE
  8
0
  6
CONTINUOUS
 62
     7
 10
255.6851501464844
 20
225.5392456054688
 11
308.6851806640625
 21
225.5392456054688
  0
LINE
  8
0
  6
CONTINUOUS
 62
     7
 10
255.6851501464844
 20
211.5392303466797
 11
308.6851806640625
 21
211.5392303466797
  0
LINE
  8
0
  6
CONTINUOUS
 62
     3
 10
496.6232604980469
 20
128.5391998291016
 11
525.6460571289062
 21
128.5391998291016
  0
LINE
  8
0
  6
CONTINUOUS
 62
     3
 10
510.6851501464844
 20
141.1451416015625
 11
510.6851501464844
 21
115.0245971679688
  0
LINE
  8
0
  6
CONTINUOUS
 62
     3
 10
360.6851806640625
 20
141.1451416015625
 11
360.6851806640625
 21
113.0897521972656
  0
LINE
  8
0
  6
CONTINUOUS
 62
     3
 10
346.623291015625
 20
128.5391998291016
 11
375.6461181640625
 21
128.5391998291016
  0
LINE
  8
0
  6
CONTINUOUS
 62
     3
 10
346.6232604980469
 20
308.539306640625
 11
375.6460876464844
 21
308.539306640625
  0
LINE
  8
0
  6
CONTINUOUS
 62
     3
 10
360.6851806640625
 20
295.933349609375
 11
360.6851806640625
 21
323.98876953125
  0
LINE
  8
0
  6
CONTINUOUS
 62
     3
 10
496.6232604980469
 20
308.539306640625
 11
525.6460571289062
 21
308.539306640625
  0
LINE
  8
0
  6
CONTINUOUS
 62
     3
 10
510.6851501464844
 20
295.933349609375
 11
510.6851501464844
 21
322.0538940429687
  0
LINE
  8
0
  6
CONTINUOUS
 62
     7
 10
325.6851501464844
 20
171.0392303466797
 11
328.6851806640625
 21
165.8430633544922
  0
LINE
  8
0
  6
CONTINUOUS
 62
     7
 10
325.6851806640625
 20
266.0392456054688
 11
328.6851806640625
 21
271.2354125976563
  0
LINE
  8
0
  6
CONTINUOUS
 62
     7
 10
360.6851806640625
 20
156.0392608642578
 11
407.1038513183594
 21
153.6065521240234
  0
LINE
  8
0
  6
CONTINUOUS
 62
     7
 10
305.6851806640625
 20
225.5392456054688
 11
305.6851806640625
 21
211.5392303466797
  0
LINE
  8
0
  6
CONTINUOUS
 62
     7
 10
320.6851806640625
 20
246.0392456054688
 11
320.6851806640625
 21
191.0392303466797
  0
LINE
  8
0
  6
CONTINUOUS
 62
     7
 10
320.6851806640625
 20
246.0392456054688
 11
325.6851806640625
 21
246.0392456054688
  0
LINE
  8
0
  6
CONTINUOUS
 62
     7
 10
320.6851806640625
 20
191.0392303466797
 11
325.6851806640625
 21
191.0392303466797
  0
LINE
  8
0
  6
CONTINUOUS
 62
     7
 10
328.6851806640625
 20
165.8430786132813
 11
328.6851806640625
 21
156.0392456054688
  0
LINE
  8
0
  6
CONTINUOUS
 62
     3
 10
240.6851806640625
 20
218.5392303466797
 11
627.4634399414062
 21
218.5392303466797
  0
LINE
  8
0
  6
CONTINUOUS
 62
     7
 10
479.6851501464844
 20
311.0392150878906
 11
479.6851501464844
 21
242.8153686523438
  0
LINE
  8
0
  6
CONTINUOUS
 62
     7
 10
529.6851196289062
 20
292.0392150878906
 11
529.6851196289062
 21
145.0392456054688
  0
LINE
  8
0
  6
CONTINUOUS
 62
     7
 10
489.6851501464844
 20
311.0392150878906
 11
489.6851501464844
 21
303.1770935058594
  0
LINE
  8
0
  6
CONTINUOUS
 62
     7
 10
519.6851196289063
 20
291.0392150878906
 11
519.6851196289063
 21
146.0392456054688
  0
LINE
  8
0
  6
CONTINUOUS
 62
     7
 10
519.6851196289063
 20
146.0392303466797
 11
529.6851196289062
 21
146.0392303466797
  0
LINE
  8
0
  6
CONTINUOUS
 62
     7
 10
519.6851196289063
 20
291.0392150878906
 11
529.6851196289062
 21
291.0392150878906
  0
LINE
  8
0
  6
CONTINUOUS
 62
     7
 10
479.6851501464844
 20
126.0392303466797
 11
489.6851501464844
 21
126.0392303466797
  0
LINE
  8
0
  6
CONTINUOUS
 62
     7
 10
479.6851501464844
 20
311.0391845703125
 11
489.6851501464844
 21
311.0391845703125
  0
LINE
  8
0
  6
CONTINUOUS
 62
     7
 10
497.6851501464844
 20
233.3159790039062
 11
497.6851501464844
 21
202.4767761230469
  0
LINE
  8
0
  6
CONTINUOUS
 62
     7
 10
497.6851501464844
 20
303.1770935058594
 11
497.6851501464844
 21
262.1930236816406
  0
LINE
  8
0
  6
CONTINUOUS
 62
     7
 10
489.6851501464844
 20
303.1770935058594
 11
497.6851501464844
 21
303.1770935058594
  0
LINE
  8
0
  6
CONTINUOUS
 62
     7
 10
489.6851501464844
 20
293.1771545410156
 11
497.6851501464844
 21
293.1771545410156
  0
LINE
  8
0
  6
CONTINUOUS
 62
     7
 10
489.6851501464844
 20
293.1771545410156
 11
489.6851501464844
 21
243.2600402832031
  0
LINE
  8
0
  6
CONTINUOUS
 62
     7
 10
489.6851806640625
 20
264.8616943359375
 11
519.6851806640625
 21
254.8540649414062
  0
LINE
  8
0
  6
CONTINUOUS
 62
     7
 10
489.6852111816406
 20
172.2168121337891
 11
519.6851806640625
 21
182.2244415283203
  0
LINE
  8
0
  6
CONTINUOUS
 62
     7
 10
489.6851501464844
 20
143.9013671875
 11
489.6851501464844
 21
193.854736328125
  0
LINE
  8
0
  6
CONTINUOUS
 62
     7
 10
497.6851501464844
 20
133.9013977050781
 11
497.6851501464844
 21
174.8854675292969
  0
LINE
  8
0
  6
CONTINUOUS
 62
     7
 10
489.6851501464844
 20
143.9013671875
 11
497.6851501464844
 21
143.9013671875
  0
LINE
  8
0
  6
CONTINUOUS
 62
     7
 10
489.6851501464844
 20
133.9013977050781
 11
497.6851501464844
 21
133.9013977050781
  0
LINE
  8
0
  6
CONTINUOUS
 62
     7
 10
489.6851501464844
 20
126.0392456054687
 11
489.6851501464844
 21
133.9013977050781
  0
LINE
  8
0
  6
CONTINUOUS
 62
     7
 10
497.6851501464844
 20
166.0392303466797
 11
519.6851196289063
 21
166.0392303466797
  0
LINE
  8
0
  6
CONTINUOUS
 62
     7
 10
497.6851501464844
 20
271.0392456054688
 11
519.6851196289063
 21
271.0392456054688
  0
LINE
  8
0
  6
CONTINUOUS
 62
     7
 10
503.0210876464844
 20
240.3398132324219
 11
519.6851196289063
 21
240.3398132324219
  0
LINE
  8
0
  6
CONTINUOUS
 62
     7
 10
495.2674255371094
 20
196.7387084960938
 11
519.6851196289063
 21
196.7387084960938
  0
LINE
  8
0
  6
CONTINUOUS
 62
     7
 10
479.6851501464844
 20
232.9865417480469
 11
479.6851501464844
 21
126.0392456054687
  0
LINE
  8
0
  6
CONTINUOUS
 62
     7
 10
497.6851806640625
 20
136.4596405029297
 11
519.6852416992187
 21
151.2246398925781
  0
LINE
  8
0
  6
CONTINUOUS
 62
     7
 10
497.6852416992188
 20
300.6188049316406
 11
519.6851806640625
 21
285.8538513183594
  0
LINE
  8
0
  6
CONTINUOUS
 62
     7
 10
433.6851196289062
 20
229.5392913818359
 11
475.6852722167969
 21
229.5392913818359
  0
LINE
  8
0
  6
CONTINUOUS
 62
     7
 10
433.6851501464844
 20
123.5392456054687
 11
475.6851501464844
 21
123.5392456054687
  0
LINE
  8
0
  6
CONTINUOUS
 62
     7
 10
433.6851501464844
 20
313.5392150878906
 11
475.6851501464844
 21
313.5392150878906
  0
LINE
  8
0
  6
CONTINUOUS
 62
     7
 10
433.6853332519531
 20
313.5391235351563
 11
429.6853332519531
 21
309.5391235351563
  0
LINE
  8
0
  6
CONTINUOUS
 62
     7
 10
429.6851501464844
 20
127.5393218994141
 11
433.6851501464844
 21
123.5393142700195
  0
LINE
  8
0
  6
CONTINUOUS
 62
     7
 10
475.6852416992188
 20
123.5391845703125
 11
479.6852416992188
 21
127.539192199707
  0
LINE
  8
0
  6
CONTINUOUS
 62
     7
 10
479.6851196289062
 20
309.5392456054688
 11
475.6851196289063
 21
313.5392761230469
  0
LINE
  8
0
  6
CONTINUOUS
 62
     7
 10
433.6851196289062
 20
131.3199310302734
 11
475.6852722167969
 21
131.3199310302734
  0
LINE
  8
0
  6
CONTINUOUS
 62
     7
 10
433.6851196289062
 20
305.7581787109375
 11
475.6852722167969
 21
305.7581787109375
  0
LINE
  8
0
  6
CONTINUOUS
 62
     7
 10
433.6851196289062
 20
294.7580261230469
 11
475.6852722167969
 21
294.7580261230469
  0
LINE
  8
0
  6
CONTINUOUS
 62
     7
 10
433.6851196289062
 20
286.8959045410156
 11
475.6852722167969
 21
286.8959045410156
  0
LINE
  8
0
  6
CONTINUOUS
 62
     7
 10
433.6851196289062
 20
279.5828857421875
 11
475.6852722167969
 21
279.5828857421875
  0
LINE
  8
0
  6
CONTINUOUS
 62
     7
 10
433.6851196289062
 20
270.3037414550781
 11
475.6852722167969
 21
270.3037414550781
  0
LINE
  8
0
  6
CONTINUOUS
 62
     7
 10
433.6851196289062
 20
261.6436767578125
 11
475.6852722167969
 21
261.6436767578125
  0
LINE
  8
0
  6
CONTINUOUS
 62
     7
 10
433.6851196289062
 20
251.0578918457031
 11
475.6852722167969
 21
251.0578918457031
  0
LINE
  8
0
  6
CONTINUOUS
 62
     7
 10
433.6851196289062
 20
241.4949951171875
 11
474.8437194824219
 21
241.4949951171875
  0
LINE
  8
0
  6
CONTINUOUS
 62
     7
 10
529.6851196289062
 20
292.0392150878906
 11
552.1851196289063
 21
292.0392150878906
  0
LINE
  8
0
  6
CONTINUOUS
 62
     7
 10
552.1851196289063
 20
292.0392150878906
 11
552.1851196289063
 21
239.3903198242188
  0
LINE
  8
0
  6
CONTINUOUS
 62
     7
 10
529.6851196289062
 20
145.0392303466797
 11
552.1851196289063
 21
145.0392303466797
  0
LINE
  8
0
  6
CONTINUOUS
 62
     3
 10
-118.3063430786133
 20
-111.4607620239258
 11
128.8064880371094
 21
-111.4607620239258
  0
LINE
  8
0
  6
CONTINUOUS
 62
     3
 10
5.685184001922607
 20
-3.960761308670044
 11
5.685184001922607
 21
-256.380859375
  0
LINE
  8
0
  6
CONTINUOUS
 62
     7
 10
-4.295629978179932
 20
-13.02481842041016
 11
-2.846135854721069
 21
-17.00726890563965
  0
LINE
  8
0
  6
CONTINUOUS
 62
     7
 10
-8.672335624694824
 20
-11.89506340026855
 11
-5.10188627243042
 21
-12.3757209777832
  0
LINE
  8
0
  6
CONTINUOUS
 62
     7
 10
-12.85790348052979
 20
11.8425178527832
 11
-7.969709396362305
 21
-15.87981510162354
  0
LINE
  8
0
  6
CONTINUOUS
 62
     7
 10
-18.6030216217041
 20
-15.54756450653076
 11
-18.6030216217041
 21
-19.61804389953613
  0
LINE
  8
0
  6
CONTINUOUS
 62
     7
 10
-14.87661552429199
 20
-12.98909664154053
 11
-18.06734657287598
 21
-14.66193294525146
  0
LINE
  8
0
  6
CONTINUOUS
 62
     7
 10
-19.06218147277832
 20
10.74856758117676
 11
-14.17398738861084
 21
-16.97376441955566
  0
LINE
  8
0
  6
CONTINUOUS
 62
     7
 10
-5.314922332763672
 20
-17.09973335266113
 11
-6.027584552764893
 21
-19.58610534667969
  0
LINE
  8
0
  6
CONTINUOUS
 62
     7
 10
-17.27056503295898
 20
-19.27617835998535
 11
-16.256103515625
 21
-21.17123413085937
  0
LINE
  8
0
  6
CONTINUOUS
 62
     7
 10
-26.83352661132813
 20
-22.1995735168457
 11
-26.66718864440918
 21
-23.82597732543945
  0
LINE
  8
0
  6
CONTINUOUS
 62
     7
 10
-37.41923522949219
 20
-26.80288314819336
 11
-36.8094596862793
 21
-27.50038146972656
  0
LINE
  8
0
  6
CONTINUOUS
 62
     3
 10
84.78589630126953
 20
-65.79178619384766
 11
65.45572662353516
 21
-76.95205688476563
  0
LINE
  8
0
  6
CONTINUOUS
 62
     7
 10
-104.3148345947266
 20
-251.4607543945312
 11
-49.31481170654297
 21
-251.4607543945312
  0
LINE
  8
0
  6
CONTINUOUS
 62
     7
 10
-104.3148345947266
 20
-128.9607543945312
 11
-104.3148345947266
 21
-251.4607543945312
  0
LINE
  8
0
  6
CONTINUOUS
 62
     7
 10
115.6851654052734
 20
-128.9607543945312
 11
115.6851654052734
 21
-251.4607543945312
  0
LINE
  8
0
  6
CONTINUOUS
 62
     7
 10
-104.3148345947266
 20
-229.4607543945313
 11
-49.31481170654297
 21
-229.4607543945313
  0
LINE
  8
0
  6
CONTINUOUS
 62
     7
 10
60.6851806640625
 20
-229.4607543945313
 11
60.6851806640625
 21
-251.4607543945312
  0
LINE
  8
0
  6
CONTINUOUS
 62
     7
 10
-49.31481170654297
 20
-229.4607543945313
 11
-49.31481170654297
 21
-251.4607543945312
  0
LINE
  8
0
  6
CONTINUOUS
 62
     7
 10
-46.3148193359375
 20
-248.4607391357422
 11
57.68518829345703
 21
-248.4607391357422
  0
LINE
  8
0
  6
CONTINUOUS
 62
     7
 10
-44.31481552124023
 20
-238.4607543945313
 11
55.6851806640625
 21
-238.4607543945313
  0
LINE
  8
0
  6
CONTINUOUS
 62
     7
 10
60.6851806640625
 20
-229.4607543945313
 11
115.6851654052734
 21
-229.4607543945313
  0
LINE
  8
0
  6
CONTINUOUS
 62
     7
 10
60.6851806640625
 20
-251.4607543945312
 11
115.6851654052734
 21
-251.4607543945312
  0
LINE
  8
0
  6
CONTINUOUS
 62
     7
 10
105.6851654052734
 20
-126.4607620239258
 11
105.6851654052734
 21
-224.4607543945312
  0
LINE
  8
0
  6
CONTINUOUS
 62
     7
 10
-94.3148193359375
 20
-126.4607620239258
 11
-94.3148193359375
 21
-224.4607543945312
  0
LINE
  8
0
  6
CONTINUOUS
 62
     7
 10
71.49741363525391
 20
-121.4607620239258
 11
100.6851654052734
 21
-121.4607620239258
  0
LINE
  8
0
  6
CONTINUOUS
 62
     7
 10
71.49741363525391
 20
-101.4607620239258
 11
108.2461395263672
 21
-101.4607620239258
  0
LINE
  8
0
  6
CONTINUOUS
 62
     7
 10
-60.1270751953125
 20
-121.4607620239258
 11
-89.3148193359375
 21
-121.4607620239258
  0
LINE
  8
0
  6
CONTINUOUS
 62
     7
 10
-60.1270751953125
 20
-101.4607620239258
 11
-96.87580871582031
 21
-101.4607620239258
  0
LINE
  8
0
  6
CONTINUOUS
 62
     7
 10
60.68508148193359
 20
-229.4608306884766
 11
48.28524017333984
 21
-171.1241302490234
  0
LINE
  8
0
  6
CONTINUOUS
 62
     7
 10
71.60626983642578
 20
-223.1240692138672
 11
56.53304672241211
 21
-152.2100982666016
  0
LINE
  8
0
  6
CONTINUOUS
 62
     7
 10
-49.31488418579102
 20
-229.4607238769531
 11
-36.9150505065918
 21
-171.1240539550781
  0
LINE
  8
0
  6
CONTINUOUS
 62
     7
 10
-60.23604202270508
 20
-223.1240997314453
 11
-45.16280364990234
 21
-152.2100524902344
  0
LINE
  8
0
  6
CONTINUOUS
 62
     7
 10
12.68517971038818
 20
-85.46076202392578
 11
12.68517971038818
 21
-94.46076202392578
  0
LINE
  8
0
  6
CONTINUOUS
 62
     7
 10
-1.314812183380127
 20
-85.46076202392578
 11
-1.314812183380127
 21
-94.46076202392578
  0
LINE
  8
0
  6
CONTINUOUS
 62
     7
 10
-1.314812183380127
 20
-94.46076202392578
 11
12.68517971038818
 21
-94.46076202392578
  0
LINE
  8
0
  6
CONTINUOUS
 62
     3
 10
-73.41570281982422
 20
-157.1294860839844
 11
-54.08555603027344
 21
-145.9692230224609
  0
LINE
  8
0
  6
CONTINUOUS
 62
     3
 10
84.78596496582031
 20
-157.1296539306641
 11
65.45579528808594
 21
-145.9693756103516
  0
LINE
  8
0
  6
CONTINUOUS
 62
     3
 10
-73.41563415527344
 20
-65.79190826416016
 11
-54.08546829223633
 21
-76.95218658447266
  0
LINE
  8
0
  6
CONTINUOUS
 62
     3
 10
95.68516540527344
 20
-223.3118286132813
 11
95.68516540527344
 21
-260.6451721191406
  0
LINE
  8
0
  6
CONTINUOUS
 62
     3
 10
-84.31482696533203
 20
-223.3118286132813
 11
-84.31482696533203
 21
-260.6451721191406
  0
LINE
  8
0
  6
DASHED
 62
     7
 10
-91.81483459472656
 20
-229.4607543945313
 11
-91.81483459472656
 21
-251.4607543945312
  0
LINE
  8
0
  6
DASHED
 62
     7
 10
-76.8148193359375
 20
-229.4607543945313
 11
-76.8148193359375
 21
-251.4607543945312
  0
LINE
  8
0
  6
DASHED
 62
     7
 10
88.18516540527344
 20
-229.4607543945313
 11
88.18516540527344
 21
-251.4607543945312
  0
LINE
  8
0
  6
DASHED
 62
     7
 10
103.1851654052734
 20
-229.4607543945313
 11
103.1851654052734
 21
-251.4607543945312
  0
LINE
  8
0
  6
CONTINUOUS
 62
     7
 10
-1.314812183380127
 20
-85.46076202392578
 11
12.68517971038818
 21
-85.46076202392578
  0
LINE
  8
0
  6
CONTINUOUS
 62
     3
 10
552.1851196289063
 20
290.0392150878906
 11
552.1851196289063
 21
239.3903198242188
  0
LINE
  8
0
  6
CONTINUOUS
 62
     3
 10
552.1851196289063
 20
147.0392150878906
 11
552.1851196289063
 21
218.5391998291016
  0
LINE
  8
0
  6
CONTINUOUS
 62
     3
 10
552.1851196289063
 20
-182.9608306884766
 11
552.1851196289063
 21
-111.4608612060547
  0
LINE
  8
0
  6
CONTINUOUS
 62
     3
 10
552.1851196289063
 20
-39.96085739135742
 11
552.1851196289063
 21
-111.4608612060547
  0
LINE
  8
0
  6
CONTINUOUS
 62
     7
 10
545.6455078125
 20
-111.4607620239258
 11
575.3890380859375
 21
-111.4607620239258
  0
LINE
  8
0
  6
CONTINUOUS
 62
     7
 10
552.1851196289063
 20
-38.96075820922852
 11
555.292236328125
 21
-38.96075820922852
  0
LINE
  8
0
  6
CONTINUOUS
 62
     7
 10
552.1851196289063
 20
-183.9607543945313
 11
552.1851196289063
 21
-38.96075820922852
  0
LINE
  8
0
  6
CONTINUOUS
 62
     7
 10
567.1851196289062
 20
-183.9607543945313
 11
567.1851196289062
 21
-38.96075820922852
  0
LINE
  8
0
  6
CONTINUOUS
 62
     7
 10
552.1851196289063
 20
-183.9607543945313
 11
567.1851196289062
 21
-183.9607543945313
  0
LINE
  8
0
  6
CONTINUOUS
 62
     7
 10
552.1851196289063
 20
-38.96075820922852
 11
567.1851196289062
 21
-38.96075820922852
  0
LINE
  8
0
  6
CONTINUOUS
 62
     7
 10
552.1851196289063
 20
146.0392303466797
 11
552.1851196289063
 21
229.5616912841797
  0
LINE
  8
0
  6
CONTINUOUS
 62
     7
 10
567.1851196289062
 20
146.0392303466797
 11
567.1851196289062
 21
227.7098846435547
  0
LINE
  8
0
  6
CONTINUOUS
 62
     7
 10
552.1851196289063
 20
146.0392303466797
 11
567.1851196289062
 21
146.0392303466797
  0
LINE
  8
0
  6
CONTINUOUS
 62
     7
 10
546.2943115234375
 20
218.5392303466797
 11
607.668701171875
 21
218.5392303466797
  0
LINE
  8
0
  6
CONTINUOUS
 62
     7
 10
552.1851196289063
 20
291.0392456054688
 11
567.1851196289062
 21
291.0392456054688
  0
LINE
  8
0
  6
CONTINUOUS
 62
     7
 10
567.1851196289062
 20
218.5392303466797
 11
567.1851196289062
 21
291.0392456054688
  0
LINE
  8
0
  6
CONTINUOUS
 62
     7
 10
552.1851196289063
 20
218.5392303466797
 11
552.1851196289063
 21
291.0392456054688
  0
LINE
  8
0
  6
CONTINUOUS
 62
     7
 10
612.1851196289063
 20
-11.46075916290283
 11
612.1851196289063
 21
-211.4607543945313
  0
LINE
  8
0
  6
CONTINUOUS
 62
     7
 10
597.1851196289062
 20
-11.46075916290283
 11
597.1851196289062
 21
-211.4607543945313
  0
LINE
  8
0
  6
CONTINUOUS
 62
     7
 10
572.1851196289063
 20
-73.46076202392578
 11
592.1851196289062
 21
-73.46076202392578
  0
LINE
  8
0
  6
CONTINUOUS
 62
     7
 10
572.1851196289063
 20
-149.4607543945313
 11
592.1851196289062
 21
-149.4607543945313
  0
LINE
  8
0
  6
CONTINUOUS
 62
     7
 10
567.1851196289062
 20
-167.4607543945312
 11
597.1851196289062
 21
-167.4607543945312
  0
LINE
  8
0
  6
CONTINUOUS
 62
     7
 10
567.1851196289062
 20
-55.46075820922852
 11
597.1851196289062
 21
-55.46075820922852
  0
LINE
  8
0
  6
CONTINUOUS
 62
     7
 10
597.1851196289062
 20
-211.4607543945313
 11
612.1851196289063
 21
-211.4607543945313
  0
LINE
  8
0
  6
CONTINUOUS
 62
     7
 10
597.1851196289062
 20
-11.46075916290283
 11
612.1851196289063
 21
-11.46075916290283
  0
LINE
  8
0
  6
CONTINUOUS
 62
     7
 10
567.1851196289062
 20
-116.4607620239258
 11
597.1851196289062
 21
-116.4607620239258
  0
LINE
  8
0
  6
CONTINUOUS
 62
     7
 10
567.1851196289062
 20
-106.4607620239258
 11
597.1851196289062
 21
-106.4607620239258
  0
LINE
  8
0
  6
CONTINUOUS
 62
     7
 10
567.1851196289062
 20
223.5392303466797
 11
597.1851196289062
 21
223.5392303466797
  0
LINE
  8
0
  6
CONTINUOUS
 62
     7
 10
567.1851196289062
 20
213.5392303466797
 11
597.1851196289062
 21
213.5392303466797
  0
LINE
  8
0
  6
CONTINUOUS
 62
     7
 10
597.1851196289062
 20
318.5392456054687
 11
612.1851196289063
 21
318.5392456054687
  0
LINE
  8
0
  6
CONTINUOUS
 62
     7
 10
597.1851196289062
 20
118.5392303466797
 11
612.1851196289063
 21
118.5392303466797
  0
LINE
  8
0
  6
CONTINUOUS
 62
     7
 10
567.1851196289062
 20
274.5392456054688
 11
597.1851196289062
 21
274.5392456054688
  0
LINE
  8
0
  6
CONTINUOUS
 62
     7
 10
567.1851196289062
 20
162.5392303466797
 11
597.1851196289062
 21
162.5392303466797
  0
LINE
  8
0
  6
CONTINUOUS
 62
     7
 10
572.1851196289063
 20
180.5392303466797
 11
592.1851196289062
 21
180.5392303466797
  0
LINE
  8
0
  6
CONTINUOUS
 62
     7
 10
572.1851196289063
 20
256.5392456054688
 11
592.1851196289062
 21
256.5392456054688
  0
LINE
  8
0
  6
CONTINUOUS
 62
     7
 10
597.1851196289062
 20
318.5392456054687
 11
597.1851196289062
 21
118.5392303466797
  0
LINE
  8
0
  6
CONTINUOUS
 62
     7
 10
612.1851196289063
 20
318.5392456054687
 11
612.1851196289063
 21
118.5392303466797
  0
LINE
  8
0
  6
CONTINUOUS
 62
     7
 10
552.1851196289063
 20
229.5614318847656
 11
552.1851196289063
 21
145.0392456054688
  0
LINE
  8
0
  6
CONTINUOUS
 62
     7
 10
-17.05830764770508
 20
17.52410888671875
 11
-9.770303726196289
 21
-23.8082160949707
  0
LINE
  8
0
  6
CONTINUOUS
 62
     7
 10
487.6851501464844
 20
20.29685020446777
 11
487.6851501464844
 21
-23.35811996459961
  0
LINE
  8
0
  6
CONTINUOUS
 62
     7
 10
465.66943359375
 20
-1.654690980911255
 11
509.3244018554688
 21
-1.654690980911255
  0
ARC
  8
0
  6
CONTINUOUS
 62
     7
 10
396.6851806640625
 20
-221.4607391357422
 40
7.999999999999996
 50
270.0000179860895
 51
2.504478065487664E-06
  0
ARC
  8
0
  6
CONTINUOUS
 62
     7
 10
412.6851501464844
 20
-109.4607620239258
 40
8.000000000000007
 50
103.3424287084505
 51
179.9999640278213
  0
ARC
  8
0
  6
CONTINUOUS
 62
     7
 10
409.6851501464844
 20
-96.8116455078125
 40
5.000000000000002
 50
283.3423007560891
 51
2.504477984065464E-06
  0
ARC
  8
0
  6
CONTINUOUS
 62
     7
 10
489.6851501464844
 20
-103.538200378418
 40
60.00000381469727
 50
179.9999776881997
 51
207.9999693604517
  0
ARC
  8
0
  6
CONTINUOUS
 62
     7
 10
497.6980895996094
 20
-214.4607391357422
 40
15.0000009536743
 50
207.9999866632958
 51
270.0000179860895
  0
ARC
  8
0
  6
CONTINUOUS
 62
     7
 10
318.8619689941406
 20
-208.8756256103516
 40
30.00000190734862
 50
316.6722476226334
 51
336.8987173306767
  0
ARC
  8
0
  6
CONTINUOUS
 62
     7
 10
347.2858276367187
 20
-153.796875
 40
5.000000000000021
 50
355.0000172209265
 51
89.99997518372179
  0
ARC
  8
0
  6
CONTINUOUS
 62
     7
 10
406.6851501464844
 20
-38.5390625
 40
8
 50
273.0000009940992
 51
2.504478065487664E-06
  0
ARC
  8
0
  6
CONTINUOUS
 62
     7
 10
500.6851501464844
 20
-88.5450439453125
 40
2.999999999999977
 50
179.9999913485781
 51
246.9539861971381
  0
ARC
  8
0
  6
CONTINUOUS
 62
     7
 10
500.6851501464844
 20
-134.37646484375
 40
3.000000000000014
 50
119.3085286481109
 51
180.0000050089564
  0
ARC
  8
0
  6
CONTINUOUS
 62
     7
 10
522.6851196289063
 20
142.5533447265625
 40
8.000000000000007
 50
2.504478065487664E-06
 51
18.10366398947621
  0
ARC
  8
0
  6
CONTINUOUS
 62
     7
 10
308.6851806640625
 20
218.5392456054687
 40
7.000000000000004
 50
270.0000179860895
 51
89.99997518372133
  0
CIRCLE
  8
0
  6
CONTINUOUS
 62
     7
 10
510.6851501464844
 20
128.5392150878906
 40
7.500000476837158
  0
CIRCLE
  8
0
  6
CONTINUOUS
 62
     7
 10
360.6851806640625
 20
128.5392150878906
 40
7.500000476837158
  0
CIRCLE
  8
0
  6
CONTINUOUS
 62
     7
 10
360.6851501464844
 20
308.539306640625
 40
7.500000476837158
  0
CIRCLE
  8
0
  6
CONTINUOUS
 62
     7
 10
510.6851501464844
 20
308.539306640625
 40
7.500000476837158
  0
ARC
  8
0
  6
CONTINUOUS
 62
     7
 10
406.6851501464844
 20
291.4609375
 40
8.000000000000028
 50
273.0000009940992
 51
2.504478065487664E-06
  0
ARC
  8
0
  6
CONTINUOUS
 62
     7
 10
406.6851501464844
 20
145.6175537109375
 40
8.000000000000007
 50
2.504478065487664E-06
 51
86.99999217571178
  0
ARC
  8
0
  6
CONTINUOUS
 62
     7
 10
348.6851501464844
 20
320.5392456054687
 40
7.999999999999993
 50
90.00000933466724
 51
180.0000050089561
  0
ARC
  8
0
  6
CONTINUOUS
 62
     7
 10
522.6851196289063
 20
320.5392456054687
 40
8.000000000000007
 50
2.504478065487664E-06
 51
90.00000250447847
  0
ARC
  8
0
  6
CONTINUOUS
 62
     7
 10
348.6851806640625
 20
116.5392456054687
 40
7.999999999999977
 50
179.999991348578
 51
270.0000006832454
  0
ARC
  8
0
  6
CONTINUOUS
 62
     7
 10
522.6851196289063
 20
116.5392456054687
 40
7.999999999999993
 50
269.9999974955215
 51
2.504478065487664E-06
  0
ARC
  8
0
  6
CONTINUOUS
 62
     7
 10
485.6852111816406
 20
315.5392456054687
 40
3.000000000000006
 50
27.44011594334416
 51
90.00000250447847
  0
ARC
  8
0
  6
CONTINUOUS
 62
     7
 10
485.6852111816406
 20
121.5392456054688
 40
3.000000000000003
 50
269.9999974955215
 51
347.8069469305001
  0
ARC
  8
0
  6
CONTINUOUS
 62
     7
 10
522.6851196289063
 20
294.525146484375
 40
8.00000000000005
 50
341.896284784105
 51
359.9999478629651
  0
ARC
  8
0
  6
CONTINUOUS
 62
     7
 10
-5.235306262969971
 20
-13.36680793762207
 40
1
 50
20.00001137101685
 51
82.3328829347071
  0
ARC
  8
0
  6
CONTINUOUS
 62
     7
 10
-15.9600305557251
 20
11.29552745819092
 40
3.150000095367431
 50
10.00000056286658
 51
189.9999756897453
  0
ARC
  8
0
  6
CONTINUOUS
 62
     7
 10
-6.984867572784424
 20
-15.70616436004639
 40
1
 50
189.999979332211
 51
280.000015987635
  0
ARC
  8
0
  6
CONTINUOUS
 62
     7
 10
-15.15880298614502
 20
-17.1474494934082
 40
0.9999999999999991
 50
279.9999613461216
 51
10.00000056286661
  0
ARC
  8
0
  6
CONTINUOUS
 62
     7
 10
-17.6030330657959
 20
-15.54756450653076
 40
1
 50
117.6670839263947
 51
179.999950367443
  0
ARC
  8
0
  6
CONTINUOUS
 62
     7
 10
5.685184001922607
 20
-111.4607620239258
 40
94.99999999999999
 50
56.37779867353802
 51
96.64934192564732
  0
ARC
  8
0
  6
CONTINUOUS
 62
     7
 10
5.685184001922607
 20
-111.4607620239258
 40
95
 50
103.9829638488142
 51
110.0169442069002
  0
ARC
  8
0
  6
CONTINUOUS
 62
     7
 10
5.685184001922607
 20
-111.4607620239258
 40
95.00000000000001
 50
116.9834366319897
 51
123.6222165807021
  0
ARC
  8
0
  6
CONTINUOUS
 62
     7
 10
-44.31481552124023
 20
-233.4607543945313
 40
5.000000000000003
 50
179.9999776881996
 51
270.000028004002
  0
ARC
  8
0
  6
CONTINUOUS
 62
     7
 10
55.6851806640625
 20
-233.4607543945313
 40
4.99999999999999
 50
270.0000179860893
 51
2.504478146909868E-06
  0
ARC
  8
0
  6
CONTINUOUS
 62
     7
 10
57.68518829345703
 20
-251.4607543945312
 40
3.000000000000003
 50
2.504477929783997E-06
 51
89.99997518372153
  0
ARC
  8
0
  6
CONTINUOUS
 62
     7
 10
-46.3148193359375
 20
-251.4607543945312
 40
2.999999999999997
 50
89.99997518372153
 51
179.9999776881997
  0
ARC
  8
0
  6
CONTINUOUS
 62
     7
 10
5.685184001922607
 20
-128.9607543945312
 40
110
 50
2.504478058085648E-06
 51
179.9999776881997
  0
ARC
  8
0
  6
CONTINUOUS
 62
     7
 10
100.6851654052734
 20
-224.4607543945312
 40
4.99999999999999
 50
270.0000179860893
 51
2.504478146909864E-06
  0
ARC
  8
0
  6
CONTINUOUS
 62
     7
 10
-89.3148193359375
 20
-224.4607543945312
 40
4.999999999999996
 50
179.9999776881996
 51
270.0000280040019
  0
ARC
  8
0
  6
CONTINUOUS
 62
     7
 10
100.6851654052734
 20
-126.4607620239258
 40
5.000000000000004
 50
2.504478146909864E-06
 51
89.99997518372147
  0
ARC
  8
0
  6
CONTINUOUS
 62
     7
 10
108.2461395263672
 20
-106.4607696533203
 40
4.999999999999994
 50
12.37361424285102
 51
89.99997518372147
  0
CIRCLE
  8
0
  6
CONTINUOUS
 62
     7
 10
5.685184001922607
 20
-111.4607620239258
 40
62.5
  0
ARC
  8
0
  6
CONTINUOUS
 62
     7
 10
-89.3148193359375
 20
-126.4607620239258
 40
5
 50
89.99997518372147
 51
179.9999776881996
  0
ARC
  8
0
  6
CONTINUOUS
 62
     7
 10
-96.87580871582031
 20
-106.4607696533203
 40
5
 50
89.99997518372147
 51
167.6263523462912
  0
ARC
  8
0
  6
CONTINUOUS
 62
     7
 10
79.43156433105469
 20
-221.4607391357422
 40
7.999999999999995
 50
191.9999816645957
 51
270.0000179860893
  0
ARC
  8
0
  6
CONTINUOUS
 62
     7
 10
-68.06122589111328
 20
-221.4607391357422
 40
7.999999999999989
 50
269.999963344576
 51
348.0000022273906
  0
CIRCLE
  8
0
  6
CONTINUOUS
 62
     7
 10
5.685184001922607
 20
-111.4607620239258
 40
47.5
  0
ARC
  8
0
  6
CONTINUOUS
 62
     7
 10
5.685184001922607
 20
-111.4607620239258
 40
22.5
 50
108.1262112408573
 51
71.87379012563336
  0
ARC
  8
0
  6
CONTINUOUS
 62
     3
 10
5.685184001922607
 20
-111.4607620239258
 40
81
 50
23.68815642847287
 51
37.02404784895669
  0
ARC
  8
0
  6
CONTINUOUS
 62
     3
 10
5.685184001922607
 20
-111.4607620239258
 40
81
 50
83.68817005095602
 51
97.02405976389257
  0
ARC
  8
0
  6
CONTINUOUS
 62
     3
 10
5.685184001922607
 20
-111.4607620239258
 40
81
 50
203.6881702025368
 51
217.0240599154733
  0
ARC
  8
0
  6
CONTINUOUS
 62
     3
 10
5.685184001922607
 20
-111.4607620239258
 40
81
 50
263.6881650419997
 51
277.0240547549362
  0
ARC
  8
0
  6
CONTINUOUS
 62
     3
 10
5.685184001922607
 20
-111.4607620239258
 40
81
 50
323.6881598814626
 51
337.0240513019465
  0
ARC
  8
0
  6
CONTINUOUS
 62
     3
 10
5.685184001922607
 20
-111.4607620239258
 40
81
 50
143.688164890419
 51
157.0240546033555
  0
ARC
  8
0
  6
CONTINUOUS
 62
     7
 10
71.49741363525391
 20
-96.46076202392578
 40
4.999999999999995
 50
192.8395894985088
 51
269.9999974955218
  0
ARC
  8
0
  6
CONTINUOUS
 62
     7
 10
71.49741363525391
 20
-126.4607620239258
 40
4.999999999999996
 50
90.00000933466731
 51
167.1604105014912
  0
ARC
  8
0
  6
CONTINUOUS
 62
     7
 10
-60.1270751953125
 20
-96.46076202392578
 40
5.000000000000004
 50
269.9999974955218
 51
347.160414884045
  0
ARC
  8
0
  6
CONTINUOUS
 62
     7
 10
-60.1270751953125
 20
-126.4607620239258
 40
5
 50
12.83959023859679
 51
90.00000250447815
  0
ARC
  8
0
  6
CONTINUOUS
 62
     7
 10
-29.0898494720459
 20
-172.7873229980469
 40
7.999999999999994
 50
60.44473577707911
 51
168.0000183354043
  0
ARC
  8
0
  6
CONTINUOUS
 62
     7
 10
40.46007537841797
 20
-172.7873992919922
 40
8
 50
11.99999606506229
 51
119.5551257979046
  0
ARC
  8
0
  6
CONTINUOUS
 62
     7
 10
64.3582763671875
 20
-150.5468139648437
 40
8.000000000000004
 50
146.3297542122997
 51
191.9999916825085
  0
ARC
  8
0
  6
CONTINUOUS
 62
     7
 10
-52.98791122436523
 20
-150.5467529296875
 40
7.999999999999995
 50
348.0000022273906
 51
33.67016541929193
  0
ARC
  8
0
  6
CONTINUOUS
 62
     7
 10
572.1851196289063
 20
-68.46076202392578
 40
4.999999999999943
 50
179.999991348578
 51
270.0000006832456
  0
ARC
  8
0
  6
CONTINUOUS
 62
     7
 10
592.1851196289062
 20
-68.46076202392578
 40
5.000000000000004
 50
269.9999974955222
 51
0
  0
ARC
  8
0
  6
CONTINUOUS
 62
     7
 10
572.1851196289063
 20
-154.4607543945313
 40
5.000000000000004
 50
90.00000250447782
 51
180.0000050089563
  0
ARC
  8
0
  6
CONTINUOUS
 62
     7
 10
592.1851196289062
 20
-154.4607543945313
 40
5
 50
0
 51
90.00000250447782
  0
ARC
  8
0
  6
CONTINUOUS
 62
     7
 10
592.1851196289062
 20
175.5392303466797
 40
5
 50
0
 51
90.00000250447782
  0
ARC
  8
0
  6
CONTINUOUS
 62
     7
 10
572.1851196289063
 20
175.5392303466797
 40
5.000000000000004
 50
90.00000250447782
 51
180.0000050089563
  0
ARC
  8
0
  6
CONTINUOUS
 62
     7
 10
592.1851196289062
 20
261.5392456054687
 40
5.000000000000004
 50
269.9999974955222
 51
0
  0
ARC
  8
0
  6
CONTINUOUS
 62
     7
 10
572.1851196289063
 20
261.5392456054687
 40
4.999999999999943
 50
179.999991348578
 51
270.0000006832456
  0
ARC
  8
0
  6
CONTINUOUS
 62
     7
 10
5.685184001922607
 20
-111.4607620239258
 40
100
 50
30.83051768695375
 51
95.94331210133227
  0
ARC
  8
0
  6
CONTINUOUS
 62
     7
 10
5.685184001922607
 20
-111.4607620239258
 40
100
 50
104.0567025710937
 51
149.1694873220026
  0
POLYLINE
  8
0
  6
CONTINUOUS
 62
     7
 66
     1
 10
0
 20
0
 70
     1
  0
VERTEX
  8
0
  6
CONTINUOUS
 62
     7
 10
497.68514965165
 20
-1.654690938400847
 42
0.1005697279683291
  0
VERTEX
  8
0
  6
CONTINUOUS
 62
     7
 10
496.9137661582482
 20
2.138116365972342
 42
0.09931455396292874
  0
VERTEX
  8
0
  6
CONTINUOUS
 62
     7
 10
494.7300786371216
 20
5.334602386982184
 42
0.09762475081256684
  0
VERTEX
  8
0
  6
CONTINUOUS
 62
     7
 10
491.4879244969532
 20
7.453531323849755
 42
0.09645750189367765
  0
VERTEX
  8
0
  6
CONTINUOUS
 62
     7
 10
487.68514965165
 20
8.193394465041536
 42
0.09643685362875246
  0
VERTEX
  8
0
  6
CONTINUOUS
 62
     7
 10
483.8831387327483
 20
7.453840484243519
 42
0.09759324049259074
  0
VERTEX
  8
0
  6
CONTINUOUS
 62
     7
 10
480.6416870270461
 20
5.336035551764843
 42
0.09935251927770504
  0
VERTEX
  8
0
  6
CONTINUOUS
 62
     7
 10
478.4567481236267
 20
2.138623944083013
 42
0.1005840182564596
  0
VERTEX
  8
0
  6
CONTINUOUS
 62
     7
 10
477.68514965165
 20
-1.654690938400847
 42
0.1005699597545482
  0
VERTEX
  8
0
  6
CONTINUOUS
 62
     7
 10
478.4565343229503
 20
-5.44749786420753
 42
0.09931491051745159
  0
VERTEX
  8
0
  6
CONTINUOUS
 62
     7
 10
480.6402268756931
 20
-8.643980249679073
 42
0.09762483005976344
  0
VERTEX
  8
0
  6
CONTINUOUS
 62
     7
 10
483.8823863429095
 20
-10.76290092774802
 42
0.0964568519144953
  0
VERTEX
  8
0
  6
CONTINUOUS
 62
     7
 10
487.68514965165
 20
-11.50275631468259
 42
0.09643653440425796
  0
VERTEX
  8
0
  6
CONTINUOUS
 62
     7
 10
491.4871612855946
 20
-10.76320512611944
 42
0.09759332599858284
  0
VERTEX
  8
0
  6
CONTINUOUS
 62
     7
 10
494.7286155460149
 20
-8.645404145214581
 42
0.09935288126414994
  0
VERTEX
  8
0
  6
CONTINUOUS
 62
     7
 10
496.9135551700272
 20
-5.447993246847163
 42
0.1005839077252002
  0
SEQEND
  8
0
  0
POLYLINE
  8
0
  6
CONTINUOUS
 62
     7
 66
     1
 10
0
 20
0
  0
VERTEX
  8
0
  6
CONTINUOUS
 62
     7
 10
495.2463354788031
 20
-15.87273925003841
 42
0.08272232514215334
  0
VERTEX
  8
0
  6
CONTINUOUS
 62
     7
 10
499.5332776838182
 20
-12.67139602002243
 42
0.08385222024609855
  0
VERTEX
  8
0
  6
CONTINUOUS
 62
     7
 10
502.5409801242251
 20
-8.246460732713428
 42
0.08471358981618568
  0
VERTEX
  8
0
  6
CONTINUOUS
 62
     7
 10
503.919036684492
 20
-3.077104306507979
 42
0.08490370637864239
  0
VERTEX
  8
0
  6
CONTINUOUS
 62
     7
 10
503.5017670011032
 20
2.255242980127216
 42
0.08436943386179994
  0
VERTEX
  8
0
  6
CONTINUOUS
 62
     7
 10
501.3399865735633
 20
7.148484959672422
 42
0.08333438928760248
  0
VERTEX
  8
0
  6
CONTINUOUS
 62
     7
 10
497.690212329472
 20
11.06075373127644
 42
0.08226415698321501
  0
VERTEX
  8
0
  6
CONTINUOUS
 62
     7
 10
492.9678461016117
 20
13.57782077475358
 42
0.08162577336874376
  0
VERTEX
  8
0
  6
CONTINUOUS
 62
     7
 10
487.68514965165
 20
14.44552878816165
 42
0.08158651771183277
  0
VERTEX
  8
0
  6
CONTINUOUS
 62
     7
 10
482.4048840858223
 20
13.5786417001616
 42
0.08224716582042908
  0
VERTEX
  8
0
  6
CONTINUOUS
 62
     7
 10
477.6829721281378
 20
11.0629655501434
 42
0.08333891539157869
  0
VERTEX
  8
0
  6
CONTINUOUS
 62
     7
 10
474.0321304843429
 20
7.151234770282371
 42
0.08437835530872699
  0
VERTEX
  8
0
  6
CONTINUOUS
 62
     7
 10
471.8691939045193
 20
2.257862192708613
 42
0.08490737359551914
  0
VERTEX
  8
0
  6
CONTINUOUS
 62
     7
 10
471.4510380054206
 20
-3.074648875181004
 42
0.08470975003025226
  0
VERTEX
  8
0
  6
CONTINUOUS
 62
     7
 10
472.8281852006052
 20
-8.243982730611116
 42
0.08383835825187341
  0
VERTEX
  8
0
  6
CONTINUOUS
 62
     7
 10
475.8344971122143
 20
-12.66876010810366
 42
0.08273750255421122
  0
VERTEX
  8
0
  6
CONTINUOUS
 62
     7
 10
480.1215551000791
 20
-15.87149525229795
 42
0
  0
SEQEND
  8
0
  0
POLYLINE
  8
0
  6
CONTINUOUS
 62
     7
 66
     1
 10
0
 20
0
  0
VERTEX
  8
0
  6
CONTINUOUS
 62
     7
 10
494.8184404565262
 20
-13.43510536418571
 42
0.2015070345822965
  0
VERTEX
  8
0
  6
CONTINUOUS
 62
     7
 10
494.0884366643331
 20
-12.92662459713304
 42
0.03155950772902627
  0
VERTEX
  8
0
  6
CONTINUOUS
 62
     7
 10
493.1986083736471
 20
-12.68754164631179
 42
0.01542693935562111
  0
VERTEX
  8
0
  6
CONTINUOUS
 62
     7
 10
492.2909693749301
 20
-12.52817821187004
 42
0.01021029805007549
  0
VERTEX
  8
0
  6
CONTINUOUS
 62
     7
 10
491.3754446307056
 20
-12.41437168027014
 42
0.007829301115889649
  0
VERTEX
  8
0
  6
CONTINUOUS
 62
     7
 10
490.4563655054331
 20
-12.33328141153527
 42
0.006588784219041472
  0
VERTEX
  8
0
  6
CONTINUOUS
 62
     7
 10
489.5351315507407
 20
-12.27853518635101
 42
0.00593119088350445
  0
VERTEX
  8
0
  6
CONTINUOUS
 62
     7
 10
488.6127289140812
 20
-12.24676638890035
 42
0.005641381425801175
  0
VERTEX
  8
0
  6
CONTINUOUS
 62
     7
 10
487.6898015735906
 20
-12.23628089964743
 42
0.00563931108347144
  0
VERTEX
  8
0
  6
CONTINUOUS
 62
     7
 10
486.7669833842607
 20
-12.24655384392488
 42
0.005918283871090954
  0
VERTEX
  8
0
  6
CONTINUOUS
 62
     7
 10
485.8458146735551
 20
-12.27804204000756
 42
0.006584498441898088
  0
VERTEX
  8
0
  6
CONTINUOUS
 62
     7
 10
484.923804668004
 20
-12.33256329797192
 42
0.007814650164521646
  0
VERTEX
  8
0
  6
CONTINUOUS
 62
     7
 10
484.0043707999005
 20
-12.41337951192011
 42
0.01018503197124421
  0
VERTEX
  8
0
  6
CONTINUOUS
 62
     7
 10
483.0881081552082
 20
-12.52689950416297
 42
0.01540584631868718
  0
VERTEX
  8
0
  6
CONTINUOUS
 62
     7
 10
482.1778376541482
 20
-12.6862556640415
 42
0.03141773448136388
  0
VERTEX
  8
0
  6
CONTINUOUS
 62
     7
 10
481.2865575754732
 20
-12.92499215417046
 42
0.1997041655132837
  0
VERTEX
  8
0
  6
CONTINUOUS
 62
     7
 10
480.5523290721167
 20
-13.43282525869325
 42
0
  0
SEQEND
  8
0
  0
POLYLINE
  8
0
  6
CONTINUOUS
 62
     7
 66
     1
 10
0
 20
0
  0
VERTEX
  8
0
  6
CONTINUOUS
 62
     7
 10
489.6845209659799
 20
-24.14812168665871
 42
0.001962839433017022
  0
VERTEX
  8
0
  6
CONTINUOUS
 62
     7
 10
490.201763406094
 20
-24.13127691092779
 42
0.002046122420307321
  0
VERTEX
  8
0
  6
CONTINUOUS
 62
     7
 10
490.7191995374437
 20
-24.11027441060381
 42
0.0021545734043213
  0
VERTEX
  8
0
  6
CONTINUOUS
 62
     7
 10
491.236855429679
 20
-24.08490876368996
 42
0.002294176777080301
  0
VERTEX
  8
0
  6
CONTINUOUS
 62
     7
 10
491.7547586936043
 20
-24.05491422360616
 42
0.002473602177020006
  0
VERTEX
  8
0
  6
CONTINUOUS
 62
     7
 10
492.2729386899442
 20
-24.01994887129803
 42
0.002692806174211996
  0
VERTEX
  8
0
  6
CONTINUOUS
 62
     7
 10
492.7890775870684
 20
-23.97976725165215
 42
0.002988801702847915
  0
VERTEX
  8
0
  6
CONTINUOUS
 62
     7
 10
493.3047379514837
 20
-23.93373288035102
 42
0.003382626615468069
  0
VERTEX
  8
0
  6
CONTINUOUS
 62
     7
 10
493.8197877999388
 20
-23.88114481583583
 42
0.003921211743091034
  0
VERTEX
  8
0
  6
CONTINUOUS
 62
     7
 10
494.3340429958419
 20
-23.82105867913465
 42
0.004686250240006158
  0
VERTEX
  8
0
  6
CONTINUOUS
 62
     7
 10
494.8472338299146
 20
-23.75215998673261
 42
0.005831680365022652
  0
VERTEX
  8
0
  6
CONTINUOUS
 62
     7
 10
495.3589399100395
 20
-23.67253468004588
 42
0.007680524234070555
  0
VERTEX
  8
0
  6
CONTINUOUS
 62
     7
 10
495.8684484324913
 20
-23.57921227843147
 42
0.01102368936938721
  0
VERTEX
  8
0
  6
CONTINUOUS
 62
     7
 10
496.3743926413479
 20
-23.46712720241711
 42
0.01832811736821763
  0
VERTEX
  8
0
  6
CONTINUOUS
 62
     7
 10
496.8735664554932
 20
-23.32622884994616
 42
0.04148853792558769
  0
VERTEX
  8
0
  6
CONTINUOUS
 62
     7
 10
497.3534824806887
 20
-23.13069589344444
 42
0.250488511845989
  0
VERTEX
  8
0
  6
CONTINUOUS
 62
     7
 10
497.685045925898
 20
-22.76557541708898
 42
0
  0
SEQEND
  8
0
  0
POLYLINE
  8
0
  6
CONTINUOUS
 62
     7
 66
     1
 10
0
 20
0
  0
VERTEX
  8
0
  6
CONTINUOUS
 62
     7
 10
489.6845512496107
 20
193.8544794337642
 42
0.01790621549011575
  0
VERTEX
  8
0
  6
CONTINUOUS
 62
     7
 10
490.4643503304635
 20
194.0234735889336
 42
0.01817274216384211
  0
VERTEX
  8
0
  6
CONTINUOUS
 62
     7
 10
491.2299192040326
 20
194.2482204686259
 42
0.01851592463541938
  0
VERTEX
  8
0
  6
CONTINUOUS
 62
     7
 10
491.976971760287
 20
194.5284721013744
 42
0.01893468764388588
  0
VERTEX
  8
0
  6
CONTINUOUS
 62
     7
 10
492.7010050105457
 20
194.8638385202687
 42
0.01942677358845698
  0
VERTEX
  8
0
  6
CONTINUOUS
 62
     7
 10
493.3972660215264
 20
195.2537240758675
 42
0.01998806590238306
  0
VERTEX
  8
0
  6
CONTINUOUS
 62
     7
 10
494.0607308767862
 20
195.697248367317
 42
0.02061176199555368
  0
VERTEX
  8
0
  6
CONTINUOUS
 62
     7
 10
494.6861013412857
 20
196.1931515335872
 42
0.02128743459236027
  0
VERTEX
  8
0
  6
CONTINUOUS
 62
     7
 10
495.2678264245625
 20
196.7396852938398
 42
0.02200007945997388
  0
VERTEX
  8
0
  6
CONTINUOUS
 62
     7
 10
495.8001571847378
 20
197.3344938248574
 42
0.02272933076666096
  0
VERTEX
  8
0
  6
CONTINUOUS
 62
     7
 10
496.2772432439143
 20
197.9744924187948
 42
0.02344911967600924
  0
VERTEX
  8
0
  6
CONTINUOUS
 62
     7
 10
496.6932777133864
 20
198.6557566439249
 42
0.02412812220798179
  0
VERTEX
  8
0
  6
CONTINUOUS
 62
     7
 10
497.0426926220337
 20
199.3734396122958
 42
0.02473132906542723
  0
VERTEX
  8
0
  6
CONTINUOUS
 62
     7
 10
497.3203989626307
 20
200.1217383568187
 42
0.02522290532097608
  0
VERTEX
  8
0
  6
CONTINUOUS
 62
     7
 10
497.5220546395984
 20
200.8939300392541
 42
0.02557016161594516
  0
VERTEX
  8
0
  6
CONTINUOUS
 62
     7
 10
497.6443321128062
 20
201.6824926648931
 42
0.02573507734883413
  0
VERTEX
  8
0
  6
CONTINUOUS
 62
     7
 10
497.6851493576444
 20
202.4789124267703
 42
0
  0
SEQEND
  8
0
  0
POLYLINE
  8
0
  6
CONTINUOUS
 62
     7
 66
     1
 10
0
 20
0
 70
     1
  0
VERTEX
  8
0
  6
CONTINUOUS
 62
     7
 10
487.68514965165
 20
237.0823085733179
 42
0.01162446611280014
  0
VERTEX
  8
0
  6
CONTINUOUS
 62
     7
 10
484.2670387127547
 20
237.003820061908
 42
0.01447198978326939
  0
VERTEX
  8
0
  6
CONTINUOUS
 62
     7
 10
480.8565284041792
 20
236.750297729491
 42
0.02556043184462305
  0
VERTEX
  8
0
  6
CONTINUOUS
 62
     7
 10
477.4761933282691
 20
236.2381339065771
 42
0.1952933335434665
  0
VERTEX
  8
0
  6
CONTINUOUS
 62
     7
 10
474.5351924608049
 20
234.7966460506076
 42
0.1938909194741766
  0
VERTEX
  8
0
  6
CONTINUOUS
 62
     7
 10
477.4794839870669
 20
233.3588727659142
 42
0.02553154684043047
  0
VERTEX
  8
0
  6
CONTINUOUS
 62
     7
 10
480.8581278644808
 20
232.8472338975838
 42
0.01446610446554539
  0
VERTEX
  8
0
  6
CONTINUOUS
 62
     7
 10
484.2675435141693
 20
232.5938505440094
 42
0.01162291664169115
  0
VERTEX
  8
0
  6
CONTINUOUS
 62
     7
 10
487.68514965165
 20
232.5153835244897
 42
0.01162473666804564
  0
VERTEX
  8
0
  6
CONTINUOUS
 62
     7
 10
491.1032605249848
 20
232.5938740901239
 42
0.01447208930044124
  0
VERTEX
  8
0
  6
CONTINUOUS
 62
     7
 10
494.5137704108745
 20
232.8474010119068
 42
0.02556010942244515
  0
VERTEX
  8
0
  6
CONTINUOUS
 62
     7
 10
497.8941049079878
 20
233.3595684136467
 42
0.1952164775907196
  0
VERTEX
  8
0
  6
CONTINUOUS
 62
     7
 10
500.8351693611802
 20
234.8007928411844
 42
0.1939769856022016
  0
VERTEX
  8
0
  6
CONTINUOUS
 62
     7
 10
497.8911468073318
 20
236.238774540217
 42
0.02553295226174753
  0
VERTEX
  8
0
  6
CONTINUOUS
 62
     7
 10
494.5125064597889
 20
236.7504331328914
 42
0.01446618516153656
  0
VERTEX
  8
0
  6
CONTINUOUS
 62
     7
 10
491.1030918404208
 20
237.0038283285155
 42
0.01162378501443782
  0
SEQEND
  8
0
  0
POLYLINE
  8
0
  6
CONTINUOUS
 62
     7
 66
     1
 10
0
 20
0
  0
VERTEX
  8
0
  6
CONTINUOUS
 62
     7
 10
476.7588801204
 20
242.2737148233179
 42
0.01843748243892576
  0
VERTEX
  8
0
  6
CONTINUOUS
 62
     7
 10
475.7779057519317
 20
242.0338894734593
 42
0.005075042860523968
  0
VERTEX
  8
0
  6
CONTINUOUS
 62
     7
 10
474.8084898318822
 20
241.7508259549216
 42
0.02696632166239854
  0
VERTEX
  8
0
  6
CONTINUOUS
 62
     7
 10
473.8577776941676
 20
241.4109627076569
 42
0.05660958240725299
  0
VERTEX
  8
0
  6
CONTINUOUS
 62
     7
 10
472.9779711282819
 20
240.9193747413184
 42
0.06338037134879318
  0
VERTEX
  8
0
  6
CONTINUOUS
 62
     7
 10
472.2501867272666
 20
240.2226958843012
 42
0.06341119568905916
  0
VERTEX
  8
0
  6
CONTINUOUS
 62
     7
 10
471.7138222381833
 20
239.3686904084502
 42
0.07213256242350606
  0
VERTEX
  8
0
  6
CONTINUOUS
 62
     7
 10
471.4282342684733
 20
238.4037388773372
 42
0.07237630965643208
  0
VERTEX
  8
0
  6
CONTINUOUS
 62
     7
 10
471.4283460944326
 20
237.397486025031
 42
0.07211962141593092
  0
VERTEX
  8
0
  6
CONTINUOUS
 62
     7
 10
471.7140560544234
 20
236.4327773643088
 42
0.06331198101758526
  0
VERTEX
  8
0
  6
CONTINUOUS
 62
     7
 10
472.2495221091721
 20
235.5800957630518
 42
0.06336710166209071
  0
VERTEX
  8
0
  6
CONTINUOUS
 62
     7
 10
472.9771209920092
 20
234.8832253423496
 42
0.05664143156297869
  0
VERTEX
  8
0
  6
CONTINUOUS
 62
     7
 10
473.8568254052648
 20
234.3914242705666
 42
0.02699925417205837
  0
VERTEX
  8
0
  6
CONTINUOUS
 62
     7
 10
474.8077334832397
 20
234.0513834809215
 42
0.005080433440940352
  0
VERTEX
  8
0
  6
CONTINUOUS
 62
     7
 10
475.7776683597057
 20
233.7681533274628
 42
0.01843988473624976
  0
VERTEX
  8
0
  6
CONTINUOUS
 62
     7
 10
476.7588801204
 20
233.5282619424585
 42
0
  0
SEQEND
  8
0
  0
POLYLINE
  8
0
  6
CONTINUOUS
 62
     7
 66
     1
 10
0
 20
0
  0
VERTEX
  8
0
  6
CONTINUOUS
 62
     7
 10
479.9470519231489
 20
232.9495878339017
 42
0.04188730004547578
  0
VERTEX
  8
0
  6
CONTINUOUS
 62
     7
 10
480.3871841915584
 20
231.7216136867324
 42
0.04165594576704337
  0
VERTEX
  8
0
  6
CONTINUOUS
 62
     7
 10
481.0254309807306
 20
230.5836906797717
 42
0.04136510281254072
  0
VERTEX
  8
0
  6
CONTINUOUS
 62
     7
 10
481.8428878475415
 20
229.5668373310075
 42
0.04106114761388382
  0
VERTEX
  8
0
  6
CONTINUOUS
 62
     7
 10
482.816197874666
 20
228.6977016180546
 42
0.04077357938300491
  0
VERTEX
  8
0
  6
CONTINUOUS
 62
     7
 10
483.9182703087411
 20
227.998522140719
 42
0.04052878496913588
  0
VERTEX
  8
0
  6
CONTINUOUS
 62
     7
 10
485.1191293627072
 20
227.4867742110017
 42
0.04034729825626679
  0
VERTEX
  8
0
  6
CONTINUOUS
 62
     7
 10
486.3867041209916
 20
227.174963035974
 42
0.04023511843090494
  0
VERTEX
  8
0
  6
CONTINUOUS
 62
     7
 10
487.6873274791303
 20
227.0704985625895
 42
0.04022823045529825
  0
VERTEX
  8
0
  6
CONTINUOUS
 62
     7
 10
488.9876693292367
 20
227.175624135861
 42
0.04031551202831508
  0
VERTEX
  8
0
  6
CONTINUOUS
 62
     7
 10
490.2540982818147
 20
227.4877515448036
 42
0.04051141253950783
  0
VERTEX
  8
0
  6
CONTINUOUS
 62
     7
 10
491.4542529290127
 20
227.999691633278
 42
0.04075983030237688
  0
VERTEX
  8
0
  6
CONTINUOUS
 62
     7
 10
492.5557428241728
 20
228.698941904458
 42
0.04106008047321025
  0
VERTEX
  8
0
  6
CONTINUOUS
 62
     7
 10
493.5287944415977
 20
229.5682936438293
 42
0.04137779510770595
  0
VERTEX
  8
0
  6
CONTINUOUS
 62
     7
 10
494.3462077713884
 20
230.5856730814813
 42
0.04167556434238153
  0
VERTEX
  8
0
  6
CONTINUOUS
 62
     7
 10
494.98435494078
 20
231.7243339042094
 42
0.04191649820984163
  0
VERTEX
  8
0
  6
CONTINUOUS
 62
     7
 10
495.4242459634291
 20
232.953339463325
 42
0
  0
SEQEND
  8
0
  0
POLYLINE
  8
0
  6
CONTINUOUS
 62
     7
 66
     1
 10
0
 20
0
  0
VERTEX
  8
0
  6
CONTINUOUS
 62
     7
 10
498.616575294115
 20
242.2724050520416
 42
0.01754276765461912
  0
VERTEX
  8
0
  6
CONTINUOUS
 62
     7
 10
497.2751079046227
 20
242.565551788092
 42
0.0110500387367959
  0
VERTEX
  8
0
  6
CONTINUOUS
 62
     7
 10
495.9188202324603
 20
242.7836084325627
 42
0.008116818037250475
  0
VERTEX
  8
0
  6
CONTINUOUS
 62
     7
 10
494.5544462502014
 20
242.9502970313675
 42
0.006531293777998443
  0
VERTEX
  8
0
  6
CONTINUOUS
 62
     7
 10
493.1860139471088
 20
243.0772317597168
 42
0.005600259856206267
  0
VERTEX
  8
0
  6
CONTINUOUS
 62
     7
 10
491.8146352260646
 20
243.171110117595
 42
0.005037402939636629
  0
VERTEX
  8
0
  6
CONTINUOUS
 62
     7
 10
490.4412451285875
 20
243.235906740114
 42
0.004711549464770294
  0
VERTEX
  8
0
  6
CONTINUOUS
 62
     7
 10
489.0667581984393
 20
243.2739854701479
 42
0.004561013327190144
  0
VERTEX
  8
0
  6
CONTINUOUS
 62
     7
 10
487.6917919358806
 20
243.2866234677849
 42
0.004559882019005536
  0
VERTEX
  8
0
  6
CONTINUOUS
 62
     7
 10
486.3169519455549
 20
243.2742302014735
 42
0.00470561965102708
  0
VERTEX
  8
0
  6
CONTINUOUS
 62
     7
 10
484.9435168755479
 20
243.2364433333506
 42
0.005034950248985814
  0
VERTEX
  8
0
  6
CONTINUOUS
 62
     7
 10
483.5695691873437
 20
243.1719067266962
 42
0.005594502567799695
  0
VERTEX
  8
0
  6
CONTINUOUS
 62
     7
 10
482.1978315586321
 20
243.0783123771907
 42
0.006523256414941832
  0
VERTEX
  8
0
  6
CONTINUOUS
 62
     7
 10
480.8286608055604
 20
242.9516557255159
 42
0.008102289193844084
  0
VERTEX
  8
0
  6
CONTINUOUS
 62
     7
 10
479.4635134017906
 20
242.7852809784592
 42
0.01103444549614416
  0
VERTEX
  8
0
  6
CONTINUOUS
 62
     7
 10
478.1050765418047
 20
242.5673731938528
 42
0.01751395710392289
  0
VERTEX
  8
0
  6
CONTINUOUS
 62
     7
 10
476.7609568811784
 20
242.2742704735066
 42
0
  0
SEQEND
  8
0
  0
POLYLINE
  8
0
  6
CONTINUOUS
 62
     7
 66
     1
 10
0
 20
0
  0
VERTEX
  8
0
  6
CONTINUOUS
 62
     7
 10
498.6114802180563
 20
242.2737148233179
 42
-0.01843744896515226
  0
VERTEX
  8
0
  6
CONTINUOUS
 62
     7
 10
499.592449135526
 20
242.0338909904343
 42
-0.00507657938635746
  0
VERTEX
  8
0
  6
CONTINUOUS
 62
     7
 10
500.5618592146055
 20
241.7508277366355
 42
-0.02696919515446799
  0
VERTEX
  8
0
  6
CONTINUOUS
 62
     7
 10
501.5125617948599
 20
241.4109548696121
 42
-0.05660762249450501
  0
VERTEX
  8
0
  6
CONTINUOUS
 62
     7
 10
502.3923545309294
 20
240.9193554713589
 42
-0.06337892562219186
  0
VERTEX
  8
0
  6
CONTINUOUS
 62
     7
 10
503.1201631005132
 20
240.2227085189271
 42
-0.06342229840345956
  0
VERTEX
  8
0
  6
CONTINUOUS
 62
     7
 10
503.6564860016124
 20
239.3686899543428
 42
-0.07212428310011049
  0
VERTEX
  8
0
  6
CONTINUOUS
 62
     7
 10
503.9420647777752
 20
238.4037406477901
 42
-0.07237623436332591
  0
VERTEX
  8
0
  6
CONTINUOUS
 62
     7
 10
503.9419536175993
 20
237.3974888373214
 42
-0.07211153358790688
  0
VERTEX
  8
0
  6
CONTINUOUS
 62
     7
 10
503.6562525302124
 20
236.4327784893678
 42
-0.06332308963585567
  0
VERTEX
  8
0
  6
CONTINUOUS
 62
     7
 10
503.1208271491894
 20
235.5800824520061
 42
-0.06336582950302527
  0
VERTEX
  8
0
  6
CONTINUOUS
 62
     7
 10
502.3932039122523
 20
234.8832440687246
 42
-0.05663953521578408
  0
VERTEX
  8
0
  6
CONTINUOUS
 62
     7
 10
501.5135122519327
 20
234.3914313188445
 42
-0.02700197763726842
  0
VERTEX
  8
0
  6
CONTINUOUS
 62
     7
 10
500.5626175142811
 20
234.0513823412978
 42
-0.005082019148332151
  0
VERTEX
  8
0
  6
CONTINUOUS
 62
     7
 10
499.5926884454842
 20
233.7681523452731
 42
-0.01843981641904075
  0
VERTEX
  8
0
  6
CONTINUOUS
 62
     7
 10
498.6114802180563
 20
233.5282619424585
 42
0
  0
SEQEND
  8
0
  0
TEXT
  8
0
  6
CONTINUOUS
 62
     7
 10
-90.74338531494141
 20
209.5392303466797
 40
18
 41
0.8440876583091353
  1
ＥＲＫ－ＮＡＣ－７５０
  0
ENDSEC
  0
EOF
