  0
SECTION
  2
HEADER
  0
ENDSEC
  0
SECTION
  2
TABLES
  0
TABLE
  2
LTYPE
 70
    22
  0
LTYPE
  2
CONTINUOUS
 70
    64
  3
Solid line
 72
    65
 73
     0
 40
0.000000
  0
LTYPE
  2
DASHED
 70
    64
  3
__ __ __ __ __ __ __ __ __ __ __ __ __ __ __
 72
    65
 73
     2
 40
3.500000
 49
2.000000
 49
-1.500000
  0
LTYPE
  2
CENTER
 70
    64
  3
____ _ ____ _ ____ _ ____ _ ____ _ ____ _ ____
 72
    65
 73
     4
 40
17.500000
 49
13.000000
 49
-1.500000
 49
1.500000
 49
-1.500000
  0
LTYPE
  2
PHANTOM
 70
    64
  3
_____ _ _ _____ _ _ _____ _ _ _____ _ _ ____  
 72
    65
 73
     6
 40
15.500000
 49
8.000000
 49
-1.500000
 49
1.500000
 49
-1.500000
 49
1.500000
 49
-1.500000
  0
LTYPE
  2
DOT
 70
    64
  3
. . . . . . . . . . . . . . . . . . . . . . . .
 72
    65
 73
     2
 40
0.25
 49
0.0
 49
-0.25
  0
ENDTAB
  0
TABLE
  2
LAYER
 70
     1
  0
LAYER
  2
0
 70
     0
 62
     7
  6
CONTINUOUS
  0
ENDTAB
  0
TABLE
  2
STYLE
 70
     1
  0
STYLE
  2
STANDARD
 70
     0
 40
0.000000
 41
1.000000
 50
0.000000
 71
     0
 42
0.200000
  3
txt
  0
ENDTAB
  0
TABLE
  2
VIEW
 70
     0
  0
ENDTAB
  0
ENDSEC
  0
SECTION
  2
BLOCKS
  0
ENDSEC
  0
SECTION
  2
ENTITIES
  0
LINE
  8
0
  6
CONTINUOUS
 62
     7
 10
119.9584426879883
 20
44.3996696472168
 11
119.9584426879883
 21
-50.6003303527832
  0
LINE
  8
0
  6
CONTINUOUS
 62
     7
 10
324.9584350585938
 20
-121.1003189086914
 11
324.9584350585938
 21
-143.1003265380859
  0
LINE
  8
0
  6
CONTINUOUS
 62
     7
 10
134.9584503173828
 20
-143.1003265380859
 11
324.9584350585938
 21
-143.1003265380859
  0
LINE
  8
0
  6
CONTINUOUS
 62
     7
 10
208.9584350585938
 20
89.39966583251953
 11
223.9584350585938
 21
89.39966583251953
  0
LINE
  8
0
  6
CONTINUOUS
 62
     7
 10
122.9584426879883
 20
59.3996696472168
 11
122.9584426879883
 21
49.5958366394043
  0
LINE
  8
0
  6
CONTINUOUS
 62
     7
 10
122.9584426879883
 20
59.3996696472168
 11
154.9584350585938
 21
59.3996696472168
  0
LINE
  8
0
  6
CONTINUOUS
 62
     7
 10
122.9584426879883
 20
-65.60033416748047
 11
144.8140716552734
 21
-65.60033416748047
  0
LINE
  8
0
  6
CONTINUOUS
 62
     7
 10
223.9584503173828
 20
89.39967346191406
 11
223.9584503173828
 21
4.822221279144287
  0
LINE
  8
0
  6
CONTINUOUS
 62
     7
 10
208.9584503173828
 20
89.39967346191406
 11
208.9584503173828
 21
11.54878330230713
  0
LINE
  8
0
  6
CONTINUOUS
 62
     7
 10
134.9584503173828
 20
-121.1003341674805
 11
190.9584503173828
 21
-121.1003341674805
  0
LINE
  8
0
  6
CONTINUOUS
 62
     7
 10
134.9584503173828
 20
-121.1003265380859
 11
134.9584503173828
 21
-143.1003265380859
  0
LINE
  8
0
  6
CONTINUOUS
 62
     7
 10
198.9584503173828
 20
-1.100326061248779
 11
198.9584503173828
 21
-113.1003265380859
  0
LINE
  8
0
  6
CONTINUOUS
 62
     7
 10
278.7271118164062
 20
-113.1424026489258
 11
230.9815368652344
 21
-23.34605407714844
  0
LINE
  8
0
  6
CONTINUOUS
 62
     7
 10
140.7295684814453
 20
-112.2859573364258
 11
146.5400238037109
 21
-45.87223052978516
  0
LINE
  8
0
  6
CONTINUOUS
 62
     3
 10
154.9584503173828
 20
-114.2847442626953
 11
154.9584503173828
 21
-150.2847442626953
  0
LINE
  8
0
  6
CONTINUOUS
 62
     3
 10
304.9584350585938
 20
-114.2847366333008
 11
304.9584350585938
 21
-148.9514007568359
  0
LINE
  8
0
  6
CONTINUOUS
 62
     7
 10
49.95844268798828
 20
22.8996696472168
 11
49.95844268798828
 21
-25.6003303527832
  0
LINE
  8
0
  6
CONTINUOUS
 62
     7
 10
49.95844268798828
 20
19.3996696472168
 11
114.9584426879883
 21
19.3996696472168
  0
LINE
  8
0
  6
CONTINUOUS
 62
     7
 10
49.95844268798828
 20
-25.6003303527832
 11
114.9584426879883
 21
-25.6003303527832
  0
LINE
  8
0
  6
DASHED
 62
     7
 10
147.4584503173828
 20
-121.1003265380859
 11
147.4584503173828
 21
-143.1003265380859
  0
LINE
  8
0
  6
DASHED
 62
     7
 10
162.4584503173828
 20
-121.1003265380859
 11
162.4584503173828
 21
-143.1003265380859
  0
LINE
  8
0
  6
DASHED
 62
     7
 10
297.4584350585938
 20
-121.1003189086914
 11
297.4584350585938
 21
-143.1003265380859
  0
LINE
  8
0
  6
DASHED
 62
     7
 10
312.4584350585938
 20
-121.1003189086914
 11
312.4584350585938
 21
-143.1003265380859
  0
LINE
  8
0
  6
CONTINUOUS
 62
     7
 10
119.9584655761719
 20
-50.60031127929687
 11
122.9584655761719
 21
-55.79646301269531
  0
LINE
  8
0
  6
CONTINUOUS
 62
     7
 10
119.9584274291992
 20
44.399658203125
 11
122.9584350585937
 21
49.5958251953125
  0
LINE
  8
0
  6
CONTINUOUS
 62
     7
 10
154.9584655761719
 20
59.39961242675781
 11
201.3771362304687
 21
61.83231353759766
  0
LINE
  8
0
  6
CONTINUOUS
 62
     7
 10
99.95844268798828
 20
22.8996696472168
 11
99.95844268798828
 21
19.3996696472168
  0
LINE
  8
0
  6
CONTINUOUS
 62
     7
 10
49.95844268798828
 20
22.8996696472168
 11
99.95844268798828
 21
22.8996696472168
  0
LINE
  8
0
  6
CONTINUOUS
 62
     7
 10
114.9584426879883
 20
24.39967155456543
 11
114.9584426879883
 21
-30.60032844543457
  0
LINE
  8
0
  6
CONTINUOUS
 62
     7
 10
114.9584426879883
 20
24.3996696472168
 11
119.9584426879883
 21
24.3996696472168
  0
LINE
  8
0
  6
CONTINUOUS
 62
     7
 10
114.9584426879883
 20
-30.6003303527832
 11
119.9584426879883
 21
-30.6003303527832
  0
LINE
  8
0
  6
CONTINUOUS
 62
     7
 10
122.9584426879883
 20
-55.79646682739258
 11
122.9584426879883
 21
-65.60032653808594
  0
LINE
  8
0
  6
CONTINUOUS
 62
     3
 10
40.71302032470703
 20
-3.10033106803894
 11
409.3101501464844
 21
-3.10033106803894
  0
LINE
  8
0
  6
CONTINUOUS
 62
     7
 10
273.9584350585938
 20
89.98524475097656
 11
273.9584350585938
 21
-95.60032653808594
  0
LINE
  8
0
  6
CONTINUOUS
 62
     7
 10
323.9584350585938
 20
70.39968109130859
 11
323.9584350585938
 21
-76.60031890869141
  0
LINE
  8
0
  6
CONTINUOUS
 62
     7
 10
283.9584350585938
 20
84.21232604980469
 11
283.9584350585938
 21
49.02327346801758
  0
LINE
  8
0
  6
CONTINUOUS
 62
     7
 10
313.9584350585937
 20
69.39968109130859
 11
313.9584350585937
 21
-75.60031890869141
  0
LINE
  8
0
  6
CONTINUOUS
 62
     7
 10
313.9584350585937
 20
-75.60033416748047
 11
323.9584350585938
 21
-75.60033416748047
  0
LINE
  8
0
  6
CONTINUOUS
 62
     7
 10
313.9584350585937
 20
69.39966583251953
 11
323.9584350585938
 21
69.39966583251953
  0
LINE
  8
0
  6
CONTINUOUS
 62
     7
 10
273.9584350585938
 20
-95.60033416748047
 11
291.9584350585937
 21
-95.60033416748047
  0
LINE
  8
0
  6
CONTINUOUS
 62
     7
 10
283.9584350585938
 20
-6.10033130645752
 11
313.9584350585937
 21
-6.10033130645752
  0
LINE
  8
0
  6
CONTINUOUS
 62
     7
 10
283.9584350585938
 20
-0.1003311276435852
 11
313.9584350585937
 21
-0.1003311276435852
  0
LINE
  8
0
  6
CONTINUOUS
 62
     7
 10
291.9584350585937
 20
49.02327346801758
 11
291.9584350585937
 21
19.81538772583008
  0
LINE
  8
0
  6
CONTINUOUS
 62
     7
 10
283.9584655761719
 20
74.13240814208984
 11
313.95849609375
 21
56.79867553710938
  0
LINE
  8
0
  6
CONTINUOUS
 62
     7
 10
283.9584350585938
 20
31.70277786254883
 11
283.9584350585938
 21
-37.90342330932617
  0
LINE
  8
0
  6
CONTINUOUS
 62
     7
 10
291.9584350585937
 20
89.39967346191406
 11
291.9584350585937
 21
69.51005554199219
  0
LINE
  8
0
  6
CONTINUOUS
 62
     7
 10
283.9584350585938
 20
-95.60032653808594
 11
283.9584350585938
 21
-55.22391891479492
  0
LINE
  8
0
  6
CONTINUOUS
 62
     7
 10
291.9584350585937
 20
-95.60032653808594
 11
291.9584350585937
 21
-75.71073150634766
  0
LINE
  8
0
  6
CONTINUOUS
 62
     7
 10
283.9584350585938
 20
-80.33306121826172
 11
313.9584350585937
 21
-62.99932861328125
  0
LINE
  8
0
  6
CONTINUOUS
 62
     7
 10
291.9584350585937
 20
39.65935897827148
 11
313.9584350585937
 21
39.65935897827148
  0
LINE
  8
0
  6
CONTINUOUS
 62
     7
 10
291.9584350585937
 20
-45.85998916625977
 11
313.9584350585937
 21
-45.85998916625977
  0
LINE
  8
0
  6
CONTINUOUS
 62
     7
 10
274.8252258300781
 20
94.92560577392578
 11
273.9584350585938
 21
89.98526000976562
  0
LINE
  8
0
  6
CONTINUOUS
 62
     7
 10
281.9584350585938
 20
96.857666015625
 11
287.5144958496094
 21
95.663818359375
  0
LINE
  8
0
  6
CONTINUOUS
 62
     7
 10
281.9584350585938
 20
96.85767364501953
 11
276.4023132324219
 21
95.66380310058594
  0
LINE
  8
0
  6
CONTINUOUS
 62
     7
 10
289.0917053222656
 20
94.92559814453125
 11
289.9547729492188
 21
90.00629425048828
  0
LINE
  8
0
  6
CONTINUOUS
 62
     7
 10
273.9584350585938
 20
89.39966583251953
 11
291.9584350585937
 21
89.39966583251953
  0
LINE
  8
0
  6
CONTINUOUS
 62
     7
 10
283.9584350585938
 20
49.02326583862305
 11
291.9584350585937
 21
49.02326583862305
  0
LINE
  8
0
  6
CONTINUOUS
 62
     7
 10
283.9584350585938
 20
31.7027702331543
 11
291.9584350585937
 21
31.7027702331543
  0
LINE
  8
0
  6
CONTINUOUS
 62
     7
 10
283.9584350585938
 20
-37.9034309387207
 11
291.9584350585937
 21
-37.9034309387207
  0
LINE
  8
0
  6
CONTINUOUS
 62
     7
 10
291.9584350585937
 20
-55.22391891479492
 11
291.9584350585937
 21
-26.01603317260742
  0
LINE
  8
0
  6
CONTINUOUS
 62
     7
 10
283.9584350585938
 20
-55.22392654418945
 11
291.9584350585937
 21
-55.22392654418945
  0
LINE
  8
0
  6
CONTINUOUS
 62
     7
 10
289.9547424316406
 20
90.00630187988281
 11
289.9547424316406
 21
89.39967346191406
  0
LINE
  8
0
  6
CONTINUOUS
 62
     7
 10
265.2305297851563
 20
-87.75904846191406
 11
269.9584350585937
 21
-87.75904846191406
  0
LINE
  8
0
  6
CONTINUOUS
 62
     7
 10
227.9584350585938
 20
91.89966583251953
 11
269.9584350585937
 21
91.89966583251953
  0
LINE
  8
0
  6
CONTINUOUS
 62
     7
 10
227.9585571289063
 20
91.89955902099609
 11
223.9585571289063
 21
87.89956665039063
  0
LINE
  8
0
  6
CONTINUOUS
 62
     7
 10
270.4616088867187
 20
-97.59725189208984
 11
273.95849609375
 21
-94.10037231445312
  0
LINE
  8
0
  6
CONTINUOUS
 62
     7
 10
273.9584045410156
 20
87.89967346191406
 11
269.9584045410156
 21
91.89968872070313
  0
LINE
  8
0
  6
CONTINUOUS
 62
     7
 10
267.6777648925781
 20
-92.36157989501953
 11
269.9584350585937
 21
-92.36157989501953
  0
LINE
  8
0
  6
CONTINUOUS
 62
     7
 10
227.9584350585938
 20
34.55352401733398
 11
269.9584350585937
 21
34.55352401733398
  0
LINE
  8
0
  6
CONTINUOUS
 62
     7
 10
227.9584503173828
 20
23.11198043823242
 11
269.9584350585937
 21
23.11198043823242
  0
LINE
  8
0
  6
CONTINUOUS
 62
     7
 10
227.9584503173828
 20
13.36844921112061
 11
269.9584350585937
 21
13.36844921112061
  0
LINE
  8
0
  6
CONTINUOUS
 62
     7
 10
227.9584503173828
 20
1.899150133132935
 11
269.9584350585937
 21
1.899150133132935
  0
LINE
  8
0
  6
CONTINUOUS
 62
     7
 10
227.9584503173828
 20
-8.10045337677002
 11
269.9584350585937
 21
-8.10045337677002
  0
LINE
  8
0
  6
CONTINUOUS
 62
     7
 10
228.9736785888672
 20
-19.56978225708008
 11
269.9584350585937
 21
-19.56978225708008
  0
LINE
  8
0
  6
CONTINUOUS
 62
     7
 10
234.1541290283203
 20
-29.31279373168945
 11
269.9584350585937
 21
-29.31279373168945
  0
LINE
  8
0
  6
CONTINUOUS
 62
     7
 10
240.237548828125
 20
-40.7540397644043
 11
269.9584350585937
 21
-40.7540397644043
  0
LINE
  8
0
  6
CONTINUOUS
 62
     7
 10
250.3682098388672
 20
-59.80705642700195
 11
269.9584350585937
 21
-59.80705642700195
  0
LINE
  8
0
  6
CONTINUOUS
 62
     7
 10
255.2945404052734
 20
-69.07213592529297
 11
269.9584350585937
 21
-69.07213592529297
  0
LINE
  8
0
  6
CONTINUOUS
 62
     7
 10
258.9215393066406
 20
-75.89351654052734
 11
269.9584350585937
 21
-75.89351654052734
  0
LINE
  8
0
  6
CONTINUOUS
 62
     7
 10
262.5718688964844
 20
-82.75881195068359
 11
269.9584350585937
 21
-82.75881195068359
  0
LINE
  8
0
  6
CONTINUOUS
 62
     7
 10
323.9584350585938
 20
70.39966583251953
 11
346.4584350585938
 21
70.39966583251953
  0
LINE
  8
0
  6
CONTINUOUS
 62
     7
 10
346.4584350585938
 20
70.39968109130859
 11
346.4584350585938
 21
-76.60031890869141
  0
LINE
  8
0
  6
CONTINUOUS
 62
     7
 10
323.9584350585938
 20
-76.60033416748047
 11
346.4584350585938
 21
-76.60033416748047
  0
LINE
  8
0
  6
CONTINUOUS
 62
     7
 10
291.9713745117188
 20
-121.1003341674805
 11
324.9584350585938
 21
-121.1003341674805
  0
LINE
  8
0
  6
CONTINUOUS
 62
     7
 10
154.9584808349609
 20
419.3996276855469
 11
201.3771362304687
 21
421.8323364257812
  0
LINE
  8
0
  6
CONTINUOUS
 62
     7
 10
49.95844268798828
 20
379.399658203125
 11
49.95844268798828
 21
334.399658203125
  0
LINE
  8
0
  6
CONTINUOUS
 62
     7
 10
49.95844268798828
 20
379.399658203125
 11
114.9584426879883
 21
379.399658203125
  0
LINE
  8
0
  6
CONTINUOUS
 62
     7
 10
49.95844268798828
 20
334.399658203125
 11
114.9584426879883
 21
334.399658203125
  0
LINE
  8
0
  6
CONTINUOUS
 62
     7
 10
119.9584426879883
 20
404.399658203125
 11
119.9584426879883
 21
309.399658203125
  0
LINE
  8
0
  6
CONTINUOUS
 62
     7
 10
122.9584426879883
 20
419.399658203125
 11
122.9584426879883
 21
409.5957946777344
  0
LINE
  8
0
  6
CONTINUOUS
 62
     7
 10
122.9584426879883
 20
419.399658203125
 11
154.9584350585938
 21
419.399658203125
  0
LINE
  8
0
  6
CONTINUOUS
 62
     7
 10
122.9584426879883
 20
294.399658203125
 11
154.9584503173828
 21
294.399658203125
  0
LINE
  8
0
  6
CONTINUOUS
 62
     7
 10
223.9584503173828
 20
456.8996887207031
 11
223.9584503173828
 21
256.8996887207031
  0
LINE
  8
0
  6
CONTINUOUS
 62
     7
 10
208.9584503173828
 20
466.8996887207031
 11
208.9584503173828
 21
246.8996734619141
  0
LINE
  8
0
  6
CONTINUOUS
 62
     7
 10
134.9584503173828
 20
458.899658203125
 11
134.9584503173828
 21
419.399658203125
  0
LINE
  8
0
  6
CONTINUOUS
 62
     7
 10
142.9584503173828
 20
246.8996734619141
 11
316.9584350585937
 21
246.8996734619141
  0
LINE
  8
0
  6
CONTINUOUS
 62
     7
 10
142.9584350585938
 20
466.899658203125
 11
316.9584350585937
 21
466.899658203125
  0
LINE
  8
0
  6
CONTINUOUS
 62
     7
 10
324.9584350585938
 20
280.9137878417969
 11
324.9584350585938
 21
254.8996734619141
  0
LINE
  8
0
  6
CONTINUOUS
 62
     7
 10
134.9584503173828
 20
294.399658203125
 11
134.9584503173828
 21
254.8996734619141
  0
LINE
  8
0
  6
CONTINUOUS
 62
     7
 10
324.9584350585938
 20
432.8855895996094
 11
324.9584350585938
 21
458.8996887207031
  0
LINE
  8
0
  6
CONTINUOUS
 62
     7
 10
223.9584503173828
 20
256.899658203125
 11
279.9584655761719
 21
256.899658203125
  0
LINE
  8
0
  6
CONTINUOUS
 62
     7
 10
198.9584503173828
 20
292.0937805175781
 11
198.9584503173828
 21
246.8996734619141
  0
LINE
  8
0
  6
CONTINUOUS
 62
     7
 10
198.9584503173828
 20
421.7055969238281
 11
198.9584503173828
 21
466.8996887207031
  0
LINE
  8
0
  6
CONTINUOUS
 62
     7
 10
223.9584350585938
 20
456.899658203125
 11
279.9584655761719
 21
456.899658203125
  0
LINE
  8
0
  6
CONTINUOUS
 62
     7
 10
49.95844268798828
 20
363.899658203125
 11
102.9584426879883
 21
363.899658203125
  0
LINE
  8
0
  6
CONTINUOUS
 62
     7
 10
49.95844268798828
 20
349.899658203125
 11
102.9584426879883
 21
349.899658203125
  0
LINE
  8
0
  6
CONTINUOUS
 62
     3
 10
290.8965454101562
 20
266.8996276855469
 11
319.9193725585937
 21
266.8996276855469
  0
LINE
  8
0
  6
CONTINUOUS
 62
     3
 10
304.9584350585938
 20
279.5055847167969
 11
304.9584350585938
 21
253.3850250244141
  0
LINE
  8
0
  6
CONTINUOUS
 62
     3
 10
154.9584503173828
 20
279.5055541992188
 11
154.9584503173828
 21
251.4501800537109
  0
LINE
  8
0
  6
CONTINUOUS
 62
     3
 10
140.8965606689453
 20
266.8996276855469
 11
169.9193878173828
 21
266.8996276855469
  0
LINE
  8
0
  6
CONTINUOUS
 62
     3
 10
140.8965454101563
 20
446.8997192382812
 11
169.9193725585937
 21
446.8997192382812
  0
LINE
  8
0
  6
CONTINUOUS
 62
     3
 10
154.9584503173828
 20
434.2937622070312
 11
154.9584503173828
 21
462.3491821289062
  0
LINE
  8
0
  6
CONTINUOUS
 62
     3
 10
290.8965454101562
 20
446.8997192382812
 11
319.9193725585937
 21
446.8997192382812
  0
LINE
  8
0
  6
CONTINUOUS
 62
     3
 10
304.9584350585938
 20
434.2937927246094
 11
304.9584350585938
 21
460.4143371582031
  0
LINE
  8
0
  6
CONTINUOUS
 62
     7
 10
119.9584503173828
 20
309.399658203125
 11
122.9584655761719
 21
304.2034912109375
  0
LINE
  8
0
  6
CONTINUOUS
 62
     7
 10
119.9584579467773
 20
404.3996887207031
 11
122.9584732055664
 21
409.5958557128906
  0
LINE
  8
0
  6
CONTINUOUS
 62
     7
 10
154.9584655761719
 20
294.3997192382813
 11
201.3771209716797
 21
291.9670104980469
  0
LINE
  8
0
  6
CONTINUOUS
 62
     7
 10
99.95844268798828
 20
363.899658203125
 11
99.95844268798828
 21
349.899658203125
  0
LINE
  8
0
  6
CONTINUOUS
 62
     7
 10
114.9584426879883
 20
384.399658203125
 11
114.9584426879883
 21
329.399658203125
  0
LINE
  8
0
  6
CONTINUOUS
 62
     7
 10
114.9584426879883
 20
384.399658203125
 11
119.9584426879883
 21
384.399658203125
  0
LINE
  8
0
  6
CONTINUOUS
 62
     7
 10
114.9584426879883
 20
329.399658203125
 11
119.9584426879883
 21
329.399658203125
  0
LINE
  8
0
  6
CONTINUOUS
 62
     7
 10
122.9584426879883
 20
304.2034912109375
 11
122.9584426879883
 21
294.399658203125
  0
LINE
  8
0
  6
CONTINUOUS
 62
     3
 10
40.01816558837891
 20
356.899658203125
 11
408.0818176269531
 21
356.899658203125
  0
LINE
  8
0
  6
CONTINUOUS
 62
     7
 10
273.9584350585938
 20
449.399658203125
 11
273.9584350585938
 21
381.1758117675781
  0
LINE
  8
0
  6
CONTINUOUS
 62
     7
 10
323.9584350585938
 20
430.399658203125
 11
323.9584350585938
 21
283.3996887207031
  0
LINE
  8
0
  6
CONTINUOUS
 62
     7
 10
283.9584350585938
 20
449.399658203125
 11
283.9584350585938
 21
441.5375366210937
  0
LINE
  8
0
  6
CONTINUOUS
 62
     7
 10
313.9584350585937
 20
429.399658203125
 11
313.9584350585937
 21
284.3996887207031
  0
LINE
  8
0
  6
CONTINUOUS
 62
     7
 10
313.9584350585937
 20
284.399658203125
 11
323.9584350585938
 21
284.399658203125
  0
LINE
  8
0
  6
CONTINUOUS
 62
     7
 10
313.9584350585937
 20
429.3996276855469
 11
323.9584350585938
 21
429.3996276855469
  0
LINE
  8
0
  6
CONTINUOUS
 62
     7
 10
273.9584350585938
 20
264.399658203125
 11
283.9584350585938
 21
264.399658203125
  0
LINE
  8
0
  6
CONTINUOUS
 62
     7
 10
273.9584350585938
 20
449.3996276855469
 11
283.9584350585938
 21
449.3996276855469
  0
LINE
  8
0
  6
CONTINUOUS
 62
     7
 10
291.9584350585937
 20
371.6764221191406
 11
291.9584350585937
 21
340.8372192382812
  0
LINE
  8
0
  6
CONTINUOUS
 62
     7
 10
291.9584350585937
 20
441.5375366210937
 11
291.9584350585937
 21
400.553466796875
  0
LINE
  8
0
  6
CONTINUOUS
 62
     7
 10
283.9584350585938
 20
441.5375061035156
 11
291.9584350585937
 21
441.5375061035156
  0
LINE
  8
0
  6
CONTINUOUS
 62
     7
 10
283.9584350585938
 20
431.5375671386719
 11
291.9584350585937
 21
431.5375671386719
  0
LINE
  8
0
  6
CONTINUOUS
 62
     7
 10
283.9584350585938
 20
431.53759765625
 11
283.9584350585938
 21
381.6204833984375
  0
LINE
  8
0
  6
CONTINUOUS
 62
     7
 10
283.9584655761719
 20
403.2221069335937
 11
313.9584655761719
 21
393.2144775390625
  0
LINE
  8
0
  6
CONTINUOUS
 62
     7
 10
283.9584655761719
 20
310.5772399902344
 11
313.9584655761719
 21
320.5848693847656
  0
LINE
  8
0
  6
CONTINUOUS
 62
     7
 10
283.9584350585938
 20
282.2618103027344
 11
283.9584350585938
 21
332.2151794433594
  0
LINE
  8
0
  6
CONTINUOUS
 62
     7
 10
291.9584350585937
 20
272.2618408203125
 11
291.9584350585937
 21
313.2459106445313
  0
LINE
  8
0
  6
CONTINUOUS
 62
     7
 10
283.9584350585938
 20
282.2617797851562
 11
291.9584350585937
 21
282.2617797851562
  0
LINE
  8
0
  6
CONTINUOUS
 62
     7
 10
283.9584350585938
 20
272.2618103027344
 11
291.9584350585937
 21
272.2618103027344
  0
LINE
  8
0
  6
CONTINUOUS
 62
     7
 10
283.9584350585938
 20
264.3996887207031
 11
283.9584350585938
 21
272.2618408203125
  0
LINE
  8
0
  6
CONTINUOUS
 62
     7
 10
291.9584350585937
 20
304.399658203125
 11
313.9584350585937
 21
304.399658203125
  0
LINE
  8
0
  6
CONTINUOUS
 62
     7
 10
291.9584350585937
 20
409.399658203125
 11
313.9584350585937
 21
409.399658203125
  0
LINE
  8
0
  6
CONTINUOUS
 62
     7
 10
297.2944030761719
 20
378.7002258300781
 11
313.9584350585937
 21
378.7002258300781
  0
LINE
  8
0
  6
CONTINUOUS
 62
     7
 10
289.5406799316406
 20
335.09912109375
 11
313.9584350585937
 21
335.09912109375
  0
LINE
  8
0
  6
CONTINUOUS
 62
     7
 10
273.9584350585938
 20
371.3469848632812
 11
273.9584350585938
 21
264.3996887207031
  0
LINE
  8
0
  6
CONTINUOUS
 62
     7
 10
291.95849609375
 20
274.820068359375
 11
313.9584655761719
 21
289.5850524902344
  0
LINE
  8
0
  6
CONTINUOUS
 62
     7
 10
291.95849609375
 20
438.979248046875
 11
313.9584655761719
 21
424.2142944335938
  0
LINE
  8
0
  6
CONTINUOUS
 62
     7
 10
227.9584197998047
 20
367.8997192382813
 11
269.9585266113281
 21
367.8997192382813
  0
LINE
  8
0
  6
CONTINUOUS
 62
     7
 10
227.9584503173828
 20
261.899658203125
 11
269.9584350585937
 21
261.899658203125
  0
LINE
  8
0
  6
CONTINUOUS
 62
     7
 10
227.9584350585938
 20
451.8996276855469
 11
269.9584350585937
 21
451.8996276855469
  0
LINE
  8
0
  6
CONTINUOUS
 62
     7
 10
227.9586029052734
 20
451.8995361328125
 11
223.9585876464844
 21
447.8995361328125
  0
LINE
  8
0
  6
CONTINUOUS
 62
     7
 10
223.9584197998047
 20
265.8997192382813
 11
227.9584197998047
 21
261.8997192382812
  0
LINE
  8
0
  6
CONTINUOUS
 62
     7
 10
269.9585266113281
 20
261.8995971679687
 11
273.9585266113281
 21
265.8995971679687
  0
LINE
  8
0
  6
CONTINUOUS
 62
     7
 10
273.9584045410156
 20
447.8996887207031
 11
269.9584045410156
 21
451.8996887207031
  0
LINE
  8
0
  6
CONTINUOUS
 62
     7
 10
227.9584197998047
 20
269.6803588867187
 11
269.9585266113281
 21
269.6803588867187
  0
LINE
  8
0
  6
CONTINUOUS
 62
     7
 10
227.9584045410156
 20
444.1186218261719
 11
269.9585266113281
 21
444.1186218261719
  0
LINE
  8
0
  6
CONTINUOUS
 62
     7
 10
227.9584045410156
 20
433.1184387207031
 11
269.9585266113281
 21
433.1184387207031
  0
LINE
  8
0
  6
CONTINUOUS
 62
     7
 10
227.9584045410156
 20
425.2563171386719
 11
269.9585266113281
 21
425.2563171386719
  0
LINE
  8
0
  6
CONTINUOUS
 62
     7
 10
227.9584045410156
 20
417.9432983398437
 11
269.9585266113281
 21
417.9432983398437
  0
LINE
  8
0
  6
CONTINUOUS
 62
     7
 10
227.9584045410156
 20
408.6641540527344
 11
269.9585266113281
 21
408.6641540527344
  0
LINE
  8
0
  6
CONTINUOUS
 62
     7
 10
227.9584045410156
 20
400.0040893554688
 11
269.9585266113281
 21
400.0040893554688
  0
LINE
  8
0
  6
CONTINUOUS
 62
     7
 10
227.9584045410156
 20
389.4183044433594
 11
269.9585266113281
 21
389.4183044433594
  0
LINE
  8
0
  6
CONTINUOUS
 62
     7
 10
227.9584197998047
 20
379.8554077148438
 11
269.1170043945312
 21
379.8554077148438
  0
LINE
  8
0
  6
CONTINUOUS
 62
     7
 10
323.9584350585938
 20
430.3996276855469
 11
346.4584350585938
 21
430.3996276855469
  0
LINE
  8
0
  6
CONTINUOUS
 62
     7
 10
346.4584350585938
 20
430.399658203125
 11
346.4584350585938
 21
377.7507629394531
  0
LINE
  8
0
  6
CONTINUOUS
 62
     7
 10
323.9584350585938
 20
283.399658203125
 11
346.4584350585938
 21
283.399658203125
  0
LINE
  8
0
  6
CONTINUOUS
 62
     3
 10
-325.5010681152344
 20
-3.10033106803894
 11
-76.92023468017578
 21
-3.10033106803894
  0
LINE
  8
0
  6
CONTINUOUS
 62
     3
 10
-200.0415496826172
 20
104.3996658325195
 11
-200.0415496826172
 21
-148.0204467773438
  0
LINE
  8
0
  6
CONTINUOUS
 62
     7
 10
-210.0223388671875
 20
95.33561706542969
 11
-208.5728454589844
 21
91.35316467285156
  0
LINE
  8
0
  6
CONTINUOUS
 62
     7
 10
-214.3990631103516
 20
96.46536254882812
 11
-210.82861328125
 21
95.98470306396484
  0
LINE
  8
0
  6
CONTINUOUS
 62
     7
 10
-218.5846405029297
 20
120.2029495239258
 11
-213.6964416503906
 21
92.48062133789063
  0
LINE
  8
0
  6
CONTINUOUS
 62
     7
 10
-224.3297576904297
 20
92.81285858154297
 11
-224.3297576904297
 21
88.74237823486328
  0
LINE
  8
0
  6
CONTINUOUS
 62
     7
 10
-220.6033325195312
 20
95.371337890625
 11
-223.7940673828125
 21
93.69850158691406
  0
LINE
  8
0
  6
CONTINUOUS
 62
     7
 10
-224.7889099121094
 20
119.109001159668
 11
-219.9007263183594
 21
91.38666534423828
  0
LINE
  8
0
  6
CONTINUOUS
 62
     7
 10
-211.0416412353516
 20
91.26069641113281
 11
-211.7543182373047
 21
88.77431488037109
  0
LINE
  8
0
  6
CONTINUOUS
 62
     7
 10
-222.9972991943359
 20
89.08425140380859
 11
-221.9828338623047
 21
87.18919372558594
  0
LINE
  8
0
  6
CONTINUOUS
 62
     7
 10
-232.5602416992188
 20
86.16085052490234
 11
-232.3939056396484
 21
84.53444671630859
  0
LINE
  8
0
  6
CONTINUOUS
 62
     7
 10
-243.1459655761719
 20
81.55755615234375
 11
-242.5361938476562
 21
80.86005401611328
  0
LINE
  8
0
  6
CONTINUOUS
 62
     3
 10
-120.9408187866211
 20
42.56864929199219
 11
-140.2709808349609
 21
31.40837478637695
  0
LINE
  8
0
  6
CONTINUOUS
 62
     7
 10
-310.0415649414063
 20
-143.1003265380859
 11
-255.0415496826172
 21
-143.1003265380859
  0
LINE
  8
0
  6
CONTINUOUS
 62
     7
 10
-310.0415649414063
 20
-20.6003303527832
 11
-310.0415649414063
 21
-143.1003265380859
  0
LINE
  8
0
  6
CONTINUOUS
 62
     7
 10
-90.04155731201172
 20
-20.6003303527832
 11
-90.04155731201172
 21
-143.1003265380859
  0
LINE
  8
0
  6
CONTINUOUS
 62
     7
 10
-310.0415649414063
 20
-121.1003341674805
 11
-255.0415496826172
 21
-121.1003341674805
  0
LINE
  8
0
  6
CONTINUOUS
 62
     7
 10
-145.0415496826172
 20
-121.1003341674805
 11
-145.0415496826172
 21
-143.1003265380859
  0
LINE
  8
0
  6
CONTINUOUS
 62
     7
 10
-255.0415496826172
 20
-121.1003341674805
 11
-255.0415496826172
 21
-143.1003265380859
  0
LINE
  8
0
  6
CONTINUOUS
 62
     7
 10
-252.0415496826172
 20
-140.1003265380859
 11
-148.0415496826172
 21
-140.1003265380859
  0
LINE
  8
0
  6
CONTINUOUS
 62
     7
 10
-250.0415496826172
 20
-130.1003265380859
 11
-150.0415496826172
 21
-130.1003265380859
  0
LINE
  8
0
  6
CONTINUOUS
 62
     7
 10
-145.0415496826172
 20
-121.1003341674805
 11
-90.04155731201172
 21
-121.1003341674805
  0
LINE
  8
0
  6
CONTINUOUS
 62
     7
 10
-145.0415496826172
 20
-143.1003265380859
 11
-90.04155731201172
 21
-143.1003265380859
  0
LINE
  8
0
  6
CONTINUOUS
 62
     7
 10
-100.0415573120117
 20
-18.1003303527832
 11
-100.0415573120117
 21
-116.1003341674805
  0
LINE
  8
0
  6
CONTINUOUS
 62
     7
 10
-300.0415649414062
 20
-18.1003303527832
 11
-300.0415649414062
 21
-116.1003341674805
  0
LINE
  8
0
  6
CONTINUOUS
 62
     7
 10
-134.2292938232422
 20
-13.10033130645752
 11
-105.0415573120117
 21
-13.10033130645752
  0
LINE
  8
0
  6
CONTINUOUS
 62
     7
 10
-134.2292938232422
 20
6.89966869354248
 11
-97.48058319091797
 21
6.89966869354248
  0
LINE
  8
0
  6
CONTINUOUS
 62
     7
 10
-265.8538208007812
 20
-13.10033130645752
 11
-295.0415649414062
 21
-13.10033130645752
  0
LINE
  8
0
  6
CONTINUOUS
 62
     7
 10
-265.8538208007812
 20
6.89966869354248
 11
-302.6025390625
 21
6.89966869354248
  0
LINE
  8
0
  6
CONTINUOUS
 62
     7
 10
-145.0416564941406
 20
-121.1003952026367
 11
-157.4414825439453
 21
-62.76371383666992
  0
LINE
  8
0
  6
CONTINUOUS
 62
     7
 10
-134.1204528808594
 20
-114.7636489868164
 11
-149.1936798095703
 21
-43.84967803955078
  0
LINE
  8
0
  6
CONTINUOUS
 62
     7
 10
-255.0416107177734
 20
-121.1003036499023
 11
-242.6417694091797
 21
-62.76361846923828
  0
LINE
  8
0
  6
CONTINUOUS
 62
     7
 10
-265.9627685546875
 20
-114.7636489868164
 11
-250.8895263671875
 21
-43.849609375
  0
LINE
  8
0
  6
CONTINUOUS
 62
     7
 10
-193.0415496826172
 20
22.8996696472168
 11
-193.0415496826172
 21
13.89966869354248
  0
LINE
  8
0
  6
CONTINUOUS
 62
     7
 10
-207.0415496826172
 20
22.8996696472168
 11
-207.0415496826172
 21
13.89966869354248
  0
LINE
  8
0
  6
CONTINUOUS
 62
     7
 10
-207.0415496826172
 20
13.89966869354248
 11
-193.0415496826172
 21
13.89966869354248
  0
LINE
  8
0
  6
CONTINUOUS
 62
     3
 10
-279.1424560546875
 20
-48.76907730102539
 11
-259.812255859375
 21
-37.60879135131836
  0
LINE
  8
0
  6
CONTINUOUS
 62
     3
 10
-120.9407577514648
 20
-48.76922607421875
 11
-140.2709197998047
 21
-37.60894775390625
  0
LINE
  8
0
  6
CONTINUOUS
 62
     3
 10
-279.1423645019531
 20
42.56851959228516
 11
-259.8121948242187
 21
31.40824127197266
  0
LINE
  8
0
  6
CONTINUOUS
 62
     3
 10
-110.0415573120117
 20
-114.9514083862305
 11
-110.0415573120117
 21
-152.2847442626953
  0
LINE
  8
0
  6
CONTINUOUS
 62
     3
 10
-290.0415649414062
 20
-114.9514083862305
 11
-290.0415649414062
 21
-152.2847442626953
  0
LINE
  8
0
  6
DASHED
 62
     7
 10
-297.5415649414063
 20
-121.1003341674805
 11
-297.5415649414063
 21
-143.1003265380859
  0
LINE
  8
0
  6
DASHED
 62
     7
 10
-282.5415649414062
 20
-121.1003341674805
 11
-282.5415649414062
 21
-143.1003265380859
  0
LINE
  8
0
  6
DASHED
 62
     7
 10
-117.5415573120117
 20
-121.1003341674805
 11
-117.5415573120117
 21
-143.1003265380859
  0
LINE
  8
0
  6
DASHED
 62
     7
 10
-102.5415573120117
 20
-121.1003341674805
 11
-102.5415573120117
 21
-143.1003265380859
  0
LINE
  8
0
  6
CONTINUOUS
 62
     7
 10
-207.0415496826172
 20
22.8996696472168
 11
-193.0415496826172
 21
22.8996696472168
  0
LINE
  8
0
  6
CONTINUOUS
 62
     7
 10
346.4584350585938
 20
69.39966583251953
 11
349.5655517578125
 21
69.39966583251953
  0
LINE
  8
0
  6
CONTINUOUS
 62
     7
 10
346.4584350585938
 20
-75.60033416748047
 11
346.4584350585938
 21
69.39966583251953
  0
LINE
  8
0
  6
CONTINUOUS
 62
     7
 10
361.4584350585938
 20
-75.60033416748047
 11
361.4584350585938
 21
69.39966583251953
  0
LINE
  8
0
  6
CONTINUOUS
 62
     7
 10
346.4584350585938
 20
-75.60033416748047
 11
361.4584350585938
 21
-75.60033416748047
  0
LINE
  8
0
  6
CONTINUOUS
 62
     7
 10
346.4584350585938
 20
69.39966583251953
 11
361.4584350585938
 21
69.39966583251953
  0
LINE
  8
0
  6
CONTINUOUS
 62
     7
 10
346.4584350585938
 20
284.399658203125
 11
346.4584350585938
 21
367.922119140625
  0
LINE
  8
0
  6
CONTINUOUS
 62
     7
 10
361.4584350585938
 20
284.399658203125
 11
361.4584350585938
 21
366.0703125
  0
LINE
  8
0
  6
CONTINUOUS
 62
     7
 10
346.4584350585938
 20
284.399658203125
 11
361.4584350585938
 21
284.399658203125
  0
LINE
  8
0
  6
CONTINUOUS
 62
     7
 10
340.567626953125
 20
356.899658203125
 11
401.9420166015625
 21
356.899658203125
  0
LINE
  8
0
  6
CONTINUOUS
 62
     7
 10
346.4584350585938
 20
429.399658203125
 11
361.4584350585938
 21
429.399658203125
  0
LINE
  8
0
  6
CONTINUOUS
 62
     7
 10
361.4584350585938
 20
356.899658203125
 11
361.4584350585938
 21
429.399658203125
  0
LINE
  8
0
  6
CONTINUOUS
 62
     7
 10
346.4584350585938
 20
356.899658203125
 11
346.4584350585938
 21
429.399658203125
  0
LINE
  8
0
  6
CONTINUOUS
 62
     7
 10
396.4584350585938
 20
76.89966583251953
 11
396.4584350585938
 21
-83.10033416748047
  0
LINE
  8
0
  6
CONTINUOUS
 62
     7
 10
384.4584350585938
 20
76.89966583251953
 11
396.4584350585938
 21
76.89966583251953
  0
LINE
  8
0
  6
CONTINUOUS
 62
     7
 10
384.4584350585938
 20
76.89966583251953
 11
384.4584350585938
 21
-83.10033416748047
  0
LINE
  8
0
  6
CONTINUOUS
 62
     7
 10
366.4584350585938
 20
34.8996696472168
 11
379.4584350585937
 21
34.8996696472168
  0
LINE
  8
0
  6
CONTINUOUS
 62
     7
 10
384.4584350585938
 20
-83.10033416748047
 11
396.4584350585938
 21
-83.10033416748047
  0
LINE
  8
0
  6
CONTINUOUS
 62
     7
 10
366.4584350585938
 20
-41.1003303527832
 11
379.4584350585937
 21
-41.1003303527832
  0
LINE
  8
0
  6
CONTINUOUS
 62
     7
 10
361.4584350585938
 20
-59.1003303527832
 11
384.4584350585938
 21
-59.1003303527832
  0
LINE
  8
0
  6
CONTINUOUS
 62
     7
 10
361.4584350585938
 20
52.8996696472168
 11
384.4584350585938
 21
52.8996696472168
  0
LINE
  8
0
  6
CONTINUOUS
 62
     7
 10
361.4584350585938
 20
-8.10033130645752
 11
384.4584350585938
 21
-8.10033130645752
  0
LINE
  8
0
  6
CONTINUOUS
 62
     7
 10
361.4584350585938
 20
1.89966893196106
 11
384.4584350585938
 21
1.89966893196106
  0
LINE
  8
0
  6
CONTINUOUS
 62
     7
 10
361.4584350585938
 20
361.899658203125
 11
384.4584350585938
 21
361.899658203125
  0
LINE
  8
0
  6
CONTINUOUS
 62
     7
 10
361.4584350585938
 20
351.899658203125
 11
384.4584350585938
 21
351.899658203125
  0
LINE
  8
0
  6
CONTINUOUS
 62
     7
 10
361.4584350585938
 20
412.899658203125
 11
384.4584350585938
 21
412.899658203125
  0
LINE
  8
0
  6
CONTINUOUS
 62
     7
 10
361.4584350585938
 20
300.899658203125
 11
384.4584350585938
 21
300.899658203125
  0
LINE
  8
0
  6
CONTINUOUS
 62
     7
 10
366.4584350585938
 20
318.899658203125
 11
379.4584350585937
 21
318.899658203125
  0
LINE
  8
0
  6
CONTINUOUS
 62
     7
 10
384.4584350585938
 20
276.899658203125
 11
396.4584350585938
 21
276.899658203125
  0
LINE
  8
0
  6
CONTINUOUS
 62
     7
 10
366.4584350585938
 20
394.899658203125
 11
379.4584350585937
 21
394.899658203125
  0
LINE
  8
0
  6
CONTINUOUS
 62
     7
 10
384.4584350585938
 20
436.899658203125
 11
384.4584350585938
 21
276.899658203125
  0
LINE
  8
0
  6
CONTINUOUS
 62
     7
 10
384.4584350585938
 20
436.899658203125
 11
396.4584350585938
 21
436.899658203125
  0
LINE
  8
0
  6
CONTINUOUS
 62
     7
 10
396.4584350585938
 20
436.899658203125
 11
396.4584350585938
 21
276.899658203125
  0
LINE
  8
0
  6
CONTINUOUS
 62
     7
 10
346.4584350585938
 20
367.9218444824219
 11
346.4584350585938
 21
283.3996887207031
  0
LINE
  8
0
  6
CONTINUOUS
 62
     7
 10
259.8418273925781
 20
106.7057342529297
 11
303.3349914550781
 21
106.7057342529297
  0
LINE
  8
0
  6
CONTINUOUS
 62
     7
 10
281.9584350585938
 20
128.4520111083984
 11
281.9584350585938
 21
85.45877075195313
  0
LINE
  8
0
  6
CONTINUOUS
 62
     7
 10
-222.7965240478516
 20
125.9496688842773
 11
-215.6335601806641
 21
85.32651519775391
  0
ARC
  8
0
  6
CONTINUOUS
 62
     7
 10
190.9584503173828
 20
-113.1003265380859
 40
7.999999999999996
 50
270.0000179860892
 51
0
  0
ARC
  8
0
  6
CONTINUOUS
 62
     7
 10
206.9584503173828
 20
-1.100325703620911
 40
8.000000000000002
 50
103.3424218782613
 51
179.9999640278213
  0
ARC
  8
0
  6
CONTINUOUS
 62
     7
 10
203.9584503173828
 20
11.54878330230713
 40
5.000000000000003
 50
283.3423007560891
 51
360
  0
ARC
  8
0
  6
CONTINUOUS
 62
     7
 10
283.9584350585938
 20
4.82222318649292
 40
60
 50
179.9999776881997
 51
207.9999693604518
  0
ARC
  8
0
  6
CONTINUOUS
 62
     7
 10
291.9713745117188
 20
-106.1003265380859
 40
14.99999999999999
 50
207.9999866632957
 51
270.0000179860892
  0
ARC
  8
0
  6
CONTINUOUS
 62
     7
 10
113.1352386474609
 20
-100.5152130126953
 40
29.99999999999999
 50
316.6722476226335
 51
336.8987156231294
  0
ARC
  8
0
  6
CONTINUOUS
 62
     7
 10
141.5590972900391
 20
-45.43644714355469
 40
4.999999999999993
 50
355.0000172209265
 51
89.99998201391064
  0
ARC
  8
0
  6
CONTINUOUS
 62
     7
 10
200.9584350585938
 20
69.82136535644531
 40
7.999999999999998
 50
273.000000994099
 51
0
  0
ARC
  8
0
  6
CONTINUOUS
 62
     7
 10
294.9584350585937
 20
19.81538772583008
 40
2.999999999999977
 50
179.999991348578
 51
246.9539861971381
  0
ARC
  8
0
  6
CONTINUOUS
 62
     7
 10
294.9584350585937
 20
-26.01603317260742
 40
3.000000000000014
 50
119.3085286481109
 51
180.0000050089563
  0
ARC
  8
0
  6
CONTINUOUS
 62
     7
 10
316.9584350585937
 20
280.9137878417969
 40
8
 50
0
 51
18.10366228192906
  0
ARC
  8
0
  6
CONTINUOUS
 62
     7
 10
102.9584426879883
 20
356.899658203125
 40
7.000000000000004
 50
270.0000179860894
 51
89.99998201391062
  0
CIRCLE
  8
0
  6
CONTINUOUS
 62
     7
 10
304.9584350585938
 20
266.899658203125
 40
7.5
  0
CIRCLE
  8
0
  6
CONTINUOUS
 62
     7
 10
154.9584503173828
 20
266.8996276855469
 40
7.5
  0
CIRCLE
  8
0
  6
CONTINUOUS
 62
     7
 10
154.9584350585938
 20
446.8997192382812
 40
7.5
  0
CIRCLE
  8
0
  6
CONTINUOUS
 62
     7
 10
304.9584350585938
 20
446.8997497558594
 40
7.5
  0
ARC
  8
0
  6
CONTINUOUS
 62
     7
 10
200.9584350585938
 20
429.8213806152344
 40
8.000000000000027
 50
273.000000994099
 51
0
  0
ARC
  8
0
  6
CONTINUOUS
 62
     7
 10
200.9584503173828
 20
283.9779968261719
 40
8
 50
0
 51
86.99999900590103
  0
ARC
  8
0
  6
CONTINUOUS
 62
     7
 10
142.9584350585938
 20
458.899658203125
 40
8.000000000000007
 50
90.00000250447806
 51
180.0000050089561
  0
ARC
  8
0
  6
CONTINUOUS
 62
     7
 10
316.9584350585937
 20
458.8996887207031
 40
8
 50
0
 51
90.00000250447806
  0
ARC
  8
0
  6
CONTINUOUS
 62
     7
 10
142.9584503173828
 20
254.8996734619141
 40
8.000000000000007
 50
179.999991348578
 51
270.0000006832452
  0
ARC
  8
0
  6
CONTINUOUS
 62
     7
 10
316.9584350585937
 20
254.8996734619141
 40
8.000000000000007
 50
269.9999974955219
 51
0
  0
ARC
  8
0
  6
CONTINUOUS
 62
     7
 10
279.9584655761719
 20
453.8996887207031
 40
3.00000000000002
 50
27.44012277353354
 51
90.00000250447847
  0
ARC
  8
0
  6
CONTINUOUS
 62
     7
 10
279.9584655761719
 20
259.8996887207031
 40
3.000000000000003
 50
269.9999974955215
 51
347.8069477842734
  0
ARC
  8
0
  6
CONTINUOUS
 62
     7
 10
316.9584350585937
 20
432.8855895996094
 40
7.999999999999986
 50
341.8962830765577
 51
359.9999453584866
  0
ARC
  8
0
  6
CONTINUOUS
 62
     7
 10
-210.9620208740234
 20
94.99361419677734
 40
0.9999999999999882
 50
20.00001137101689
 51
82.33288293470687
  0
ARC
  8
0
  6
CONTINUOUS
 62
     7
 10
-221.6867523193359
 20
119.6559524536133
 40
3.15000009536742
 50
9.999998855319246
 51
189.9999620293669
  0
ARC
  8
0
  6
CONTINUOUS
 62
     7
 10
-212.7115936279297
 20
92.65425872802734
 40
0.9999999999999873
 50
189.9999793322114
 51
280.0000159876346
  0
ARC
  8
0
  6
CONTINUOUS
 62
     7
 10
-220.8855438232422
 20
91.21297454833984
 40
0.9999999999999978
 50
279.9999613461212
 51
9.999998855319683
  0
ARC
  8
0
  6
CONTINUOUS
 62
     7
 10
-223.3297576904297
 20
92.81285858154297
 40
0.9999999999999892
 50
117.6670839263942
 51
179.9999503674428
  0
ARC
  8
0
  6
CONTINUOUS
 62
     7
 10
-200.0415496826172
 20
-3.10033106803894
 40
95.00000000000001
 50
56.37779867353802
 51
96.64934875583648
  0
ARC
  8
0
  6
CONTINUOUS
 62
     7
 10
-200.0415496826172
 20
-3.10033106803894
 40
95
 50
103.982957018625
 51
110.0169373767111
  0
ARC
  8
0
  6
CONTINUOUS
 62
     7
 10
-200.0415496826172
 20
-3.10033106803894
 40
94.99999999999999
 50
116.9834366319897
 51
123.6222165807021
  0
ARC
  8
0
  6
CONTINUOUS
 62
     7
 10
-250.0415496826172
 20
-125.1003341674805
 40
5.00000000000001
 50
179.9999776881996
 51
270.0000280040019
  0
ARC
  8
0
  6
CONTINUOUS
 62
     7
 10
-150.0415496826172
 20
-125.1003341674805
 40
4.99999999999999
 50
270.0000179860893
 51
0
  0
ARC
  8
0
  6
CONTINUOUS
 62
     7
 10
-148.0415496826172
 20
-143.1003265380859
 40
3
 50
0
 51
89.99998201391043
  0
ARC
  8
0
  6
CONTINUOUS
 62
     7
 10
-252.0415496826172
 20
-143.1003265380859
 40
3.000000000000006
 50
89.99998201391043
 51
179.9999640278214
  0
ARC
  8
0
  6
CONTINUOUS
 62
     7
 10
-200.0415496826172
 20
-20.6003303527832
 40
110
 50
0
 51
179.9999640278213
  0
ARC
  8
0
  6
CONTINUOUS
 62
     7
 10
-105.0415573120117
 20
-116.1003341674805
 40
5.000000000000004
 50
270.0000179860893
 51
0
  0
ARC
  8
0
  6
CONTINUOUS
 62
     7
 10
-295.0415649414062
 20
-116.1003341674805
 40
4.999999999999981
 50
179.9999776881996
 51
270.0000280040023
  0
ARC
  8
0
  6
CONTINUOUS
 62
     7
 10
-105.0415573120117
 20
-18.1003303527832
 40
5
 50
0
 51
89.99998201391064
  0
ARC
  8
0
  6
CONTINUOUS
 62
     7
 10
-97.48058319091797
 20
1.89966893196106
 40
5.000000000000004
 50
12.3736133890774
 51
89.99998201391064
  0
CIRCLE
  8
0
  6
CONTINUOUS
 62
     7
 10
-200.0415496826172
 20
-3.10033106803894
 40
62.5
  0
ARC
  8
0
  6
CONTINUOUS
 62
     7
 10
-295.0415649414062
 20
-18.1003303527832
 40
4.999999999999999
 50
89.99998201391097
 51
179.9999640278213
  0
ARC
  8
0
  6
CONTINUOUS
 62
     7
 10
-302.6025390625
 20
1.89966893196106
 40
5
 50
89.99998201391097
 51
167.6263523462911
  0
ARC
  8
0
  6
CONTINUOUS
 62
     7
 10
-126.2951583862305
 20
-113.1003341674805
 40
7.999999999999997
 50
191.9999816645958
 51
270.0000179860893
  0
ARC
  8
0
  6
CONTINUOUS
 62
     7
 10
-273.7879638671875
 20
-113.1003341674805
 40
8.000000000000004
 50
269.9999633445761
 51
347.9999996660696
  0
CIRCLE
  8
0
  6
CONTINUOUS
 62
     7
 10
-200.0415496826172
 20
-3.10033106803894
 40
47.5
  0
ARC
  8
0
  6
CONTINUOUS
 62
     7
 10
-200.0415496826172
 20
-3.10033106803894
 40
22.5
 50
108.1262044106681
 51
71.87379012563336
  0
ARC
  8
0
  6
CONTINUOUS
 62
     3
 10
-200.0415496826172
 20
-3.10033106803894
 40
81
 50
23.68815472092557
 51
37.02404443386212
  0
ARC
  8
0
  6
CONTINUOUS
 62
     3
 10
-200.0415496826172
 20
-3.10033106803894
 40
81
 50
83.6881768811452
 51
97.02405976389255
  0
ARC
  8
0
  6
CONTINUOUS
 62
     3
 10
-200.0415496826172
 20
-3.10033106803894
 40
81
 50
203.6881702025368
 51
217.0240599154733
  0
ARC
  8
0
  6
CONTINUOUS
 62
     3
 10
-200.0415496826172
 20
-3.10033106803894
 40
81
 50
263.6881650419997
 51
277.0240547549362
  0
ARC
  8
0
  6
CONTINUOUS
 62
     3
 10
-200.0415496826172
 20
-3.10033106803894
 40
81.00000000000001
 50
323.6881598814626
 51
337.0240495943992
  0
ARC
  8
0
  6
CONTINUOUS
 62
     3
 10
-200.0415496826172
 20
-3.10033106803894
 40
81
 50
143.688164890419
 51
157.0240546033555
  0
ARC
  8
0
  6
CONTINUOUS
 62
     7
 10
-134.2292938232422
 20
11.89966869354248
 40
4.999999999999994
 50
192.8395894985087
 51
269.9999974955218
  0
ARC
  8
0
  6
CONTINUOUS
 62
     7
 10
-134.2292938232422
 20
-18.1003303527832
 40
4.999999999999999
 50
90.00000250447815
 51
167.1604105014912
  0
ARC
  8
0
  6
CONTINUOUS
 62
     7
 10
-265.8538208007812
 20
11.89966869354248
 40
5
 50
269.9999974955215
 51
347.1604114689504
  0
ARC
  8
0
  6
CONTINUOUS
 62
     7
 10
-265.8538208007812
 20
-18.1003303527832
 40
4.999999999999979
 50
12.83958853104959
 51
90.00000250447847
  0
ARC
  8
0
  6
CONTINUOUS
 62
     7
 10
-234.8165740966797
 20
-64.42690277099609
 40
7.999999999999993
 50
60.44473577707923
 51
168.0000046750259
  0
ARC
  8
0
  6
CONTINUOUS
 62
     7
 10
-165.2666473388672
 20
-64.42699432373047
 40
8.000000000000005
 50
11.99999606506218
 51
119.5551257979046
  0
ARC
  8
0
  6
CONTINUOUS
 62
     7
 10
-141.3684539794922
 20
-42.1863899230957
 40
8
 50
146.3297542122997
 51
191.9999916825084
  0
ARC
  8
0
  6
CONTINUOUS
 62
     7
 10
-258.7146606445312
 20
-42.18632888793945
 40
8.000000000000005
 50
348.0000039349378
 51
33.67016883438659
  0
ARC
  8
0
  6
CONTINUOUS
 62
     7
 10
379.4584350585937
 20
-46.1003303527832
 40
5
 50
0
 51
90.00000250447847
  0
ARC
  8
0
  6
CONTINUOUS
 62
     7
 10
379.4584350585937
 20
39.8996696472168
 40
4.999999999999997
 50
269.9999974955215
 51
0
  0
ARC
  8
0
  6
CONTINUOUS
 62
     7
 10
366.4584350585938
 20
39.8996696472168
 40
5
 50
179.999991348578
 51
270.0000006832456
  0
ARC
  8
0
  6
CONTINUOUS
 62
     7
 10
366.4584350585938
 20
-46.1003303527832
 40
4.999999999999997
 50
90.00000250447847
 51
180.0000050089563
  0
ARC
  8
0
  6
CONTINUOUS
 62
     7
 10
366.4584350585938
 20
313.899658203125
 40
5.000000000000004
 50
90.00000250447847
 51
180.0000050089563
  0
ARC
  8
0
  6
CONTINUOUS
 62
     7
 10
366.4584350585938
 20
399.899658203125
 40
5
 50
179.999991348578
 51
270.0000006832456
  0
ARC
  8
0
  6
CONTINUOUS
 62
     7
 10
379.4584350585937
 20
399.899658203125
 40
5.000000000000004
 50
269.9999974955215
 51
0
  0
ARC
  8
0
  6
CONTINUOUS
 62
     7
 10
379.4584350585937
 20
313.899658203125
 40
5
 50
0
 51
90.00000250447847
  0
POLYLINE
  8
0
  6
CONTINUOUS
 62
     7
 66
     1
 10
0
 20
0
 70
     1
  0
VERTEX
  8
0
  6
CONTINUOUS
 62
     7
 10
291.9584350585937
 20
106.7057342529297
 42
0.100569752083532
  0
VERTEX
  8
0
  6
CONTINUOUS
 62
     7
 10
291.187051422249
 20
110.4985415938425
 42
0.09931458988926554
  0
VERTEX
  8
0
  6
CONTINUOUS
 62
     7
 10
289.0033633400115
 20
113.695027306163
 42
0.09762476026720882
  0
VERTEX
  8
0
  6
CONTINUOUS
 62
     7
 10
285.7612085860434
 20
115.8139554350663
 42
0.09645743407315908
  0
VERTEX
  8
0
  6
CONTINUOUS
 62
     7
 10
281.9584350585938
 20
116.5538177490234
 42
0.09643682519511511
  0
VERTEX
  8
0
  6
CONTINUOUS
 62
     7
 10
278.156423998582
 20
115.8142640045958
 42
0.09759325067024675
  0
VERTEX
  8
0
  6
CONTINUOUS
 62
     7
 10
274.9149720099129
 20
113.6964593679154
 42
0.09935255585961977
  0
VERTEX
  8
0
  6
CONTINUOUS
 62
     7
 10
272.7300330582855
 20
110.499047720224
 42
0.1005840016215169
  0
VERTEX
  8
0
  6
CONTINUOUS
 62
     7
 10
271.9584350585938
 20
106.7057342529297
 42
0.1005699286825032
  0
VERTEX
  8
0
  6
CONTINUOUS
 62
     7
 10
272.729819592385
 20
102.9129272004485
 42
0.09931486154983274
  0
VERTEX
  8
0
  6
CONTINUOUS
 62
     7
 10
274.9135115082346
 20
99.71644425806168
 42
0.09762482064609071
  0
VERTEX
  8
0
  6
CONTINUOUS
 62
     7
 10
278.1556703209063
 20
97.59752242157614
 42
0.0964569388509337
  0
VERTEX
  8
0
  6
CONTINUOUS
 62
     7
 10
281.9584350585938
 20
96.857666015625
 42
0.09643658197644868
  0
VERTEX
  8
0
  6
CONTINUOUS
 62
     7
 10
285.7604466634002
 20
97.59721763263559
 42
0.09759331581766571
  0
VERTEX
  8
0
  6
CONTINUOUS
 62
     7
 10
289.001900598521
 20
99.71501925859327
 42
0.09935283165882962
  0
VERTEX
  8
0
  6
CONTINUOUS
 62
     7
 10
291.1868400991715
 20
102.9124303658548
 42
0.1005839174072331
  0
SEQEND
  8
0
  0
POLYLINE
  8
0
  6
CONTINUOUS
 62
     7
 66
     1
 10
0
 20
0
  0
VERTEX
  8
0
  6
CONTINUOUS
 62
     7
 10
289.5196277374811
 20
92.48768746930509
 42
0.08272205805290926
  0
VERTEX
  8
0
  6
CONTINUOUS
 62
     7
 10
293.8065745788214
 20
95.68902827953835
 42
0.08385209824764181
  0
VERTEX
  8
0
  6
CONTINUOUS
 62
     7
 10
296.8142858109658
 20
100.1139602415872
 42
0.08471377144471501
  0
VERTEX
  8
0
  6
CONTINUOUS
 62
     7
 10
298.1923512176519
 20
105.283316391488
 42
0.08490409511724749
  0
VERTEX
  8
0
  6
CONTINUOUS
 62
     7
 10
297.7750833822359
 20
110.6156656861
 42
0.08436961317623722
  0
VERTEX
  8
0
  6
CONTINUOUS
 62
     7
 10
295.6132982475695
 20
115.5089077534213
 42
0.08333429280745373
  0
VERTEX
  8
0
  6
CONTINUOUS
 62
     7
 10
291.9635188083364
 20
119.4211746125805
 42
0.08226390205000123
  0
VERTEX
  8
0
  6
CONTINUOUS
 62
     7
 10
287.2411500534475
 20
121.9382417361754
 42
0.08162584510578781
  0
VERTEX
  8
0
  6
CONTINUOUS
 62
     7
 10
281.9584350585938
 20
122.8059539794922
 42
0.08158655028586298
  0
VERTEX
  8
0
  6
CONTINUOUS
 62
     7
 10
276.6781674737459
 20
121.9390662096541
 42
0.0822471990909788
  0
VERTEX
  8
0
  6
CONTINUOUS
 62
     7
 10
271.9562541549541
 20
119.4233881506632
 42
0.08333894970718611
  0
VERTEX
  8
0
  6
CONTINUOUS
 62
     7
 10
268.3054123669887
 20
115.511654631879
 42
0.08437839006852753
  0
VERTEX
  8
0
  6
CONTINUOUS
 62
     7
 10
266.1424772239795
 20
110.6182791251737
 42
0.08490740763750246
  0
VERTEX
  8
0
  6
CONTINUOUS
 62
     7
 10
265.7243243815108
 20
105.2857657144974
 42
0.08470978086007352
  0
VERTEX
  8
0
  6
CONTINUOUS
 62
     7
 10
267.1014759100133
 20
100.116430830553
 42
0.08383838662879939
  0
VERTEX
  8
0
  6
CONTINUOUS
 62
     7
 10
270.1077927643091
 20
95.69165427096311
 42
0.08273753145908126
  0
VERTEX
  8
0
  6
CONTINUOUS
 62
     7
 10
274.3948555261554
 20
92.48892199463066
 42
0
  0
SEQEND
  8
0
  0
POLYLINE
  8
0
  6
CONTINUOUS
 62
     7
 66
     1
 10
0
 20
0
  0
VERTEX
  8
0
  6
CONTINUOUS
 62
     7
 10
289.0916953765163
 20
94.92531698437219
 42
0.2015076905991759
  0
VERTEX
  8
0
  6
CONTINUOUS
 62
     7
 10
288.3616932368351
 20
95.43380011660493
 42
0.03155975252135481
  0
VERTEX
  8
0
  6
CONTINUOUS
 62
     7
 10
287.4718652226214
 20
95.67288444321464
 42
0.01542706805183823
  0
VERTEX
  8
0
  6
CONTINUOUS
 62
     7
 10
286.564226264888
 20
95.83224862819853
 42
0.0102103875983419
  0
VERTEX
  8
0
  6
CONTINUOUS
 62
     7
 10
285.6487014658341
 20
95.94605552136095
 42
0.007829371658185041
  0
VERTEX
  8
0
  6
CONTINUOUS
 62
     7
 10
284.7296222567111
 20
96.02714585710834
 42
0.006588843920667093
  0
VERTEX
  8
0
  6
CONTINUOUS
 62
     7
 10
283.8083881835211
 20
96.08189190918701
 42
0.005931243019451742
  0
VERTEX
  8
0
  6
CONTINUOUS
 62
     7
 10
282.8859854312788
 20
96.11366032460366
 42
0.005641425016663292
  0
VERTEX
  8
0
  6
CONTINUOUS
 62
     7
 10
281.9630583360167
 20
96.12414524857869
 42
0.005639344148049621
  0
VERTEX
  8
0
  6
CONTINUOUS
 62
     7
 10
281.040240049182
 20
96.11387159568497
 42
0.005918301204307397
  0
VERTEX
  8
0
  6
CONTINUOUS
 62
     7
 10
280.1190712884326
 20
96.08238259876617
 42
0.006584502417314682
  0
VERTEX
  8
0
  6
CONTINUOUS
 62
     7
 10
279.1970612419443
 20
96.02786049736777
 42
0.007814639850342241
  0
VERTEX
  8
0
  6
CONTINUOUS
 62
     7
 10
278.2776273405627
 20
95.94704344941701
 42
0.01018500144529853
  0
VERTEX
  8
0
  6
CONTINUOUS
 62
     7
 10
277.3613646845748
 20
95.83352269502997
 42
0.01540577614243738
  0
VERTEX
  8
0
  6
CONTINUOUS
 62
     7
 10
276.451094182759
 20
95.67416594904527
 42
0.03141753870306163
  0
VERTEX
  8
0
  6
CONTINUOUS
 62
     7
 10
275.5598140279665
 20
95.43542930825528
 42
0.1997028641163676
  0
VERTEX
  8
0
  6
CONTINUOUS
 62
     7
 10
274.8255840793116
 20
94.92759751236397
 42
0
  0
SEQEND
  8
0
  0
POLYLINE
  8
0
  6
CONTINUOUS
 62
     7
 66
     1
 10
0
 20
0
  0
VERTEX
  8
0
  6
CONTINUOUS
 62
     7
 10
283.9578063729017
 20
84.2123036189795
 42
0.001962845878054377
  0
VERTEX
  8
0
  6
CONTINUOUS
 62
     7
 10
284.4750488396274
 20
84.22914845949543
 42
0.002046128639673513
  0
VERTEX
  8
0
  6
CONTINUOUS
 62
     7
 10
284.9924849965004
 20
84.25015103795707
 42
0.002154579440830415
  0
VERTEX
  8
0
  6
CONTINUOUS
 62
     7
 10
285.5101409129399
 20
84.27551677596321
 42
0.00229418267126671
  0
VERTEX
  8
0
  6
CONTINUOUS
 62
     7
 10
286.0280441994952
 20
84.30551141978671
 42
0.002473607967933438
  0
VERTEX
  8
0
  6
CONTINUOUS
 62
     7
 10
286.5462242165999
 20
84.34047688826239
 42
0.002692811877788775
  0
VERTEX
  8
0
  6
CONTINUOUS
 62
     7
 10
287.062363132679
 20
84.38065863580195
 42
0.002988807374733139
  0
VERTEX
  8
0
  6
CONTINUOUS
 62
     7
 10
287.5780235135473
 20
84.42669314693222
 42
0.003382632296516533
  0
VERTEX
  8
0
  6
CONTINUOUS
 62
     7
 10
288.0930733754781
 20
84.47928136316753
 42
0.003921217477020599
  0
VERTEX
  8
0
  6
CONTINUOUS
 62
     7
 10
288.6073285812673
 20
84.53936766351009
 42
0.004686256072834795
  0
VERTEX
  8
0
  6
CONTINUOUS
 62
     7
 10
289.120519420813
 20
84.60826653157596
 42
0.005831686340681333
  0
VERTEX
  8
0
  6
CONTINUOUS
 62
     7
 10
289.6322255008333
 20
84.68789202610195
 42
0.007680530372249326
  0
VERTEX
  8
0
  6
CONTINUOUS
 62
     7
 10
290.1417340158417
 20
84.78121462786554
 42
0.01102369556697353
  0
VERTEX
  8
0
  6
CONTINUOUS
 62
     7
 10
290.6476782070079
 20
84.89329991619638
 42
0.01832812285806277
  0
VERTEX
  8
0
  6
CONTINUOUS
 62
     7
 10
291.146851987764
 20
85.03419849161477
 42
0.04148853641572425
  0
VERTEX
  8
0
  6
CONTINUOUS
 62
     7
 10
291.6267679526961
 20
85.22973167135495
 42
0.2504883760646823
  0
VERTEX
  8
0
  6
CONTINUOUS
 62
     7
 10
291.9583313328893
 20
85.59485227567481
 42
0
  0
SEQEND
  8
0
  0
POLYLINE
  8
0
  6
CONTINUOUS
 62
     7
 66
     1
 10
0
 20
0
  0
VERTEX
  8
0
  6
CONTINUOUS
 62
     7
 10
283.9578366565545
 20
332.2149198838838
 42
0.01790621549009798
  0
VERTEX
  8
0
  6
CONTINUOUS
 62
     7
 10
284.7376357374072
 20
332.3839140390532
 42
0.01817274216375127
  0
VERTEX
  8
0
  6
CONTINUOUS
 62
     7
 10
285.5032046109764
 20
332.6086609187455
 42
0.01851592463550734
  0
VERTEX
  8
0
  6
CONTINUOUS
 62
     7
 10
286.2502571672308
 20
332.8889125514941
 42
0.01893468764401915
  0
VERTEX
  8
0
  6
CONTINUOUS
 62
     7
 10
286.9742904174895
 20
333.2242789703884
 42
0.01942677358852762
  0
VERTEX
  8
0
  6
CONTINUOUS
 62
     7
 10
287.67055142847
 20
333.6141645259871
 42
0.01998806590232286
  0
VERTEX
  8
0
  6
CONTINUOUS
 62
     7
 10
288.33401628373
 20
334.0576888174366
 42
0.02061176199575272
  0
VERTEX
  8
0
  6
CONTINUOUS
 62
     7
 10
288.9593867482295
 20
334.5535919837069
 42
0.02128743459253621
  0
VERTEX
  8
0
  6
CONTINUOUS
 62
     7
 10
289.5411118315062
 20
335.1001257439595
 42
0.0220000794600814
  0
VERTEX
  8
0
  6
CONTINUOUS
 62
     7
 10
290.0734425916816
 20
335.694934274977
 42
0.02272933076663674
  0
VERTEX
  8
0
  6
CONTINUOUS
 62
     7
 10
290.550528650858
 20
336.3349328689144
 42
0.02344911967591637
  0
VERTEX
  8
0
  6
CONTINUOUS
 62
     7
 10
290.9665631203302
 20
337.0161970940446
 42
0.02412812220792069
  0
VERTEX
  8
0
  6
CONTINUOUS
 62
     7
 10
291.3159780289774
 20
337.7338800624154
 42
0.02473132906551211
  0
VERTEX
  8
0
  6
CONTINUOUS
 62
     7
 10
291.5936843695744
 20
338.4821788069383
 42
0.02522290532089721
  0
VERTEX
  8
0
  6
CONTINUOUS
 62
     7
 10
291.7953400465422
 20
339.2543704893737
 42
0.02557016161594427
  0
VERTEX
  8
0
  6
CONTINUOUS
 62
     7
 10
291.9176175197499
 20
340.0429331150127
 42
0.02573507734897056
  0
VERTEX
  8
0
  6
CONTINUOUS
 62
     7
 10
291.9584347645882
 20
340.8393528768899
 42
0
  0
SEQEND
  8
0
  0
POLYLINE
  8
0
  6
CONTINUOUS
 62
     7
 66
     1
 10
0
 20
0
 70
     1
  0
VERTEX
  8
0
  6
CONTINUOUS
 62
     7
 10
281.9584350585938
 20
375.4427490234375
 42
0.0116244429946889
  0
VERTEX
  8
0
  6
CONTINUOUS
 62
     7
 10
278.54032411807
 20
375.3642606180313
 42
0.01447190914943947
  0
VERTEX
  8
0
  6
CONTINUOUS
 62
     7
 10
275.1298137796031
 20
375.1107390716585
 42
0.025560157489858
  0
VERTEX
  8
0
  6
CONTINUOUS
 62
     7
 10
271.7494782623162
 20
374.5985781615993
 42
0.1952857604347006
  0
VERTEX
  8
0
  6
CONTINUOUS
 62
     7
 10
268.8084472302726
 20
373.1571080730313
 42
0.1938970272381149
  0
VERTEX
  8
0
  6
CONTINUOUS
 62
     7
 10
271.752719293615
 20
371.7193200225163
 42
0.02553160240435704
  0
VERTEX
  8
0
  6
CONTINUOUS
 62
     7
 10
275.131362783734
 20
371.2076787785473
 42
0.01446609985518193
  0
VERTEX
  8
0
  6
CONTINUOUS
 62
     7
 10
278.540778269908
 20
370.9542932553613
 42
0.01162307916170757
  0
VERTEX
  8
0
  6
CONTINUOUS
 62
     7
 10
281.9584350585938
 20
370.8758239746094
 42
0.01162475978667175
  0
VERTEX
  8
0
  6
CONTINUOUS
 62
     7
 10
285.3765459302978
 20
370.9543146462497
 42
0.01447216993481998
  0
VERTEX
  8
0
  6
CONTINUOUS
 62
     7
 10
288.7870557862905
 20
371.2078423540875
 42
0.02556038377379197
  0
VERTEX
  8
0
  6
CONTINUOUS
 62
     7
 10
292.1673898420185
 20
371.7200126686806
 42
0.1952839088699649
  0
VERTEX
  8
0
  6
CONTINUOUS
 62
     7
 10
295.1084229152463
 20
373.1614903155376
 42
0.1938987617646444
  0
VERTEX
  8
0
  6
CONTINUOUS
 62
     7
 10
292.1641511034207
 20
374.5992711672533
 42
0.02553136464358037
  0
VERTEX
  8
0
  6
CONTINUOUS
 62
     7
 10
288.7855061394446
 20
375.1109028276659
 42
0.01446583649055398
  0
VERTEX
  8
0
  6
CONTINUOUS
 62
     7
 10
285.3760901723393
 20
375.3642820898368
 42
0.01162275601262758
  0
SEQEND
  8
0
  0
POLYLINE
  8
0
  6
CONTINUOUS
 62
     7
 66
     1
 10
0
 20
0
  0
VERTEX
  8
0
  6
CONTINUOUS
 62
     7
 10
271.0321350097656
 20
380.6341552734375
 42
0.0184374530205535
  0
VERTEX
  8
0
  6
CONTINUOUS
 62
     7
 10
270.0511633661217
 20
380.39433068594
 42
0.005075811189584457
  0
VERTEX
  8
0
  6
CONTINUOUS
 62
     7
 10
269.0817503688323
 20
380.111267295234
 42
0.02696775789315051
  0
VERTEX
  8
0
  6
CONTINUOUS
 62
     7
 10
268.1310430074481
 20
379.7713992462249
 42
0.05660860915045566
  0
VERTEX
  8
0
  6
CONTINUOUS
 62
     7
 10
267.2512433596852
 20
379.279805558071
 42
0.06337963988357646
  0
VERTEX
  8
0
  6
CONTINUOUS
 62
     7
 10
266.5234468752171
 20
378.5831426515038
 42
0.06341673131727814
  0
VERTEX
  8
0
  6
CONTINUOUS
 62
     7
 10
265.9871031728218
 20
377.7291306279679
 42
0.0721284097179285
  0
VERTEX
  8
0
  6
CONTINUOUS
 62
     7
 10
265.7015198019167
 20
376.7641801996992
 42
0.07237627549705881
  0
VERTEX
  8
0
  6
CONTINUOUS
 62
     7
 10
265.7016313011715
 20
375.7579278873567
 42
0.07211558823951901
  0
VERTEX
  8
0
  6
CONTINUOUS
 62
     7
 10
265.9873368241884
 20
374.7932183887219
 42
0.06331753580332854
  0
VERTEX
  8
0
  6
CONTINUOUS
 62
     7
 10
266.5227825260317
 20
373.9405295727462
 42
0.06336645381125484
  0
VERTEX
  8
0
  6
CONTINUOUS
 62
     7
 10
267.2503935824528
 20
373.2436751675753
 42
0.05664046506459341
  0
VERTEX
  8
0
  6
CONTINUOUS
 62
     7
 10
268.1300916239109
 20
372.7518682644165
 42
0.02700061982743495
  0
VERTEX
  8
0
  6
CONTINUOUS
 62
     7
 10
269.0809930195302
 20
372.4118233616557
 42
0.005081220920860001
  0
VERTEX
  8
0
  6
CONTINUOUS
 62
     7
 10
270.050924993784
 20
372.1285932966499
 42
0.01843986344257136
  0
VERTEX
  8
0
  6
CONTINUOUS
 62
     7
 10
271.0321350097656
 20
371.8887023925781
 42
0
  0
SEQEND
  8
0
  0
POLYLINE
  8
0
  6
CONTINUOUS
 62
     7
 66
     1
 10
0
 20
0
  0
VERTEX
  8
0
  6
CONTINUOUS
 62
     7
 10
274.2203373300927
 20
371.3100282840214
 42
0.0418873000455781
  0
VERTEX
  8
0
  6
CONTINUOUS
 62
     7
 10
274.6604695985022
 20
370.0820541368522
 42
0.0416559457670259
  0
VERTEX
  8
0
  6
CONTINUOUS
 62
     7
 10
275.2987163876742
 20
368.9441311298913
 42
0.04136510281236978
  0
VERTEX
  8
0
  6
CONTINUOUS
 62
     7
 10
276.1161732544851
 20
367.9272777811271
 42
0.04106114761386236
  0
VERTEX
  8
0
  6
CONTINUOUS
 62
     7
 10
277.0894832816098
 20
367.0581420681743
 42
0.04077357938311345
  0
VERTEX
  8
0
  6
CONTINUOUS
 62
     7
 10
278.1915557156847
 20
366.3589625908386
 42
0.0405287849691559
  0
VERTEX
  8
0
  6
CONTINUOUS
 62
     7
 10
279.3924147696509
 20
365.8472146611214
 42
0.04034729825627947
  0
VERTEX
  8
0
  6
CONTINUOUS
 62
     7
 10
280.6599895279352
 20
365.5354034860936
 42
0.0402351184308529
  0
VERTEX
  8
0
  6
CONTINUOUS
 62
     7
 10
281.960612886074
 20
365.4309390127091
 42
0.0402282304552322
  0
VERTEX
  8
0
  6
CONTINUOUS
 62
     7
 10
283.2609547361803
 20
365.5360645859805
 42
0.04031551202821989
  0
VERTEX
  8
0
  6
CONTINUOUS
 62
     7
 10
284.5273836887583
 20
365.8481919949232
 42
0.04051141253952073
  0
VERTEX
  8
0
  6
CONTINUOUS
 62
     7
 10
285.7275383359564
 20
366.3601320833976
 42
0.04075983030237599
  0
VERTEX
  8
0
  6
CONTINUOUS
 62
     7
 10
286.8290282311165
 20
367.0593823545776
 42
0.04106008047309836
  0
VERTEX
  8
0
  6
CONTINUOUS
 62
     7
 10
287.8020798485413
 20
367.9287340939488
 42
0.04137779510772129
  0
VERTEX
  8
0
  6
CONTINUOUS
 62
     7
 10
288.619493178332
 20
368.9461135316009
 42
0.04167556434240222
  0
VERTEX
  8
0
  6
CONTINUOUS
 62
     7
 10
289.2576403477236
 20
370.0847743543289
 42
0.04191649820972663
  0
VERTEX
  8
0
  6
CONTINUOUS
 62
     7
 10
289.6975313703728
 20
371.3137799134445
 42
0
  0
SEQEND
  8
0
  0
POLYLINE
  8
0
  6
CONTINUOUS
 62
     7
 66
     1
 10
0
 20
0
  0
VERTEX
  8
0
  6
CONTINUOUS
 62
     7
 10
292.8898398583781
 20
380.6328454966511
 42
0.01754289206237359
  0
VERTEX
  8
0
  6
CONTINUOUS
 62
     7
 10
291.548372685177
 20
380.9259930595126
 42
0.01105010099464847
  0
VERTEX
  8
0
  6
CONTINUOUS
 62
     7
 10
290.192085096436
 20
381.1440500598571
 42
0.008116856262930313
  0
VERTEX
  8
0
  6
CONTINUOUS
 62
     7
 10
288.8277111378295
 20
381.3107387513739
 42
0.006531319531266153
  0
VERTEX
  8
0
  6
CONTINUOUS
 62
     7
 10
287.45927886051
 20
381.4376733984271
 42
0.005600276674089329
  0
VERTEX
  8
0
  6
CONTINUOUS
 62
     7
 10
286.0879005031784
 20
381.5315515366096
 42
0.005037415645140547
  0
VERTEX
  8
0
  6
CONTINUOUS
 62
     7
 10
284.7145103953515
 20
381.5963478840943
 42
0.004711557238605906
  0
VERTEX
  8
0
  6
CONTINUOUS
 62
     7
 10
283.3400234611803
 20
381.6344262826686
 42
0.004561015432660165
  0
VERTEX
  8
0
  6
CONTINUOUS
 62
     7
 10
281.9650574016116
 20
381.6470639196503
 42
0.0045598792674312
  0
VERTEX
  8
0
  6
CONTINUOUS
 62
     7
 10
280.5902174162
 20
381.6346702963843
 42
0.004705611811949478
  0
VERTEX
  8
0
  6
CONTINUOUS
 62
     7
 10
279.2167823743149
 20
381.5968831014371
 42
0.005034937341129554
  0
VERTEX
  8
0
  6
CONTINUOUS
 62
     7
 10
277.8428347429169
 20
381.5323462262669
 42
0.005594484049836338
  0
VERTEX
  8
0
  6
CONTINUOUS
 62
     7
 10
276.4710971281024
 20
381.4387516924735
 42
0.006523229989731274
  0
VERTEX
  8
0
  6
CONTINUOUS
 62
     7
 10
275.1019263829156
 20
381.3120949789685
 42
0.008102249944020621
  0
VERTEX
  8
0
  6
CONTINUOUS
 62
     7
 10
273.7367789690062
 20
381.1457203473873
 42
0.01103438098654354
  0
VERTEX
  8
0
  6
CONTINUOUS
 62
     7
 10
272.3783420543469
 20
380.9278129537572
 42
0.01751382694737313
  0
VERTEX
  8
0
  6
CONTINUOUS
 62
     7
 10
271.0342222066039
 20
380.6347111194018
 42
0
  0
SEQEND
  8
0
  0
POLYLINE
  8
0
  6
CONTINUOUS
 62
     7
 66
     1
 10
0
 20
0
  0
VERTEX
  8
0
  6
CONTINUOUS
 62
     7
 10
292.8847351074219
 20
380.6341552734375
 42
-0.01843526470123737
  0
VERTEX
  8
0
  6
CONTINUOUS
 62
     7
 10
293.8657083955035
 20
380.3943363137637
 42
-0.005078822497395272
  0
VERTEX
  8
0
  6
CONTINUOUS
 62
     7
 10
294.8351226502957
 20
380.1112749434404
 42
-0.02696868575127439
  0
VERTEX
  8
0
  6
CONTINUOUS
 62
     7
 10
295.7858288509314
 20
379.7714032132234
 42
-0.05660728601609522
  0
VERTEX
  8
0
  6
CONTINUOUS
 62
     7
 10
296.6656266452671
 20
379.2798056403369
 42
-0.06337964927469537
  0
VERTEX
  8
0
  6
CONTINUOUS
 62
     7
 10
297.3934232724809
 20
378.5831426186098
 42
-0.063416761070379
  0
VERTEX
  8
0
  6
CONTINUOUS
 62
     7
 10
297.9297670279364
 20
377.729130421327
 42
-0.0721284475545116
  0
VERTEX
  8
0
  6
CONTINUOUS
 62
     7
 10
298.2153503683577
 20
376.7641797978765
 42
-0.07237625294679109
  0
VERTEX
  8
0
  6
CONTINUOUS
 62
     7
 10
298.2152388081721
 20
375.7579277977712
 42
-0.07211557612631586
  0
VERTEX
  8
0
  6
CONTINUOUS
 62
     7
 10
297.9295331904781
 20
374.7932181409257
 42
-0.06331752707094743
  0
VERTEX
  8
0
  6
CONTINUOUS
 62
     7
 10
297.3940872990119
 20
373.9405292190534
 42
-0.06336647464262532
  0
VERTEX
  8
0
  6
CONTINUOUS
 62
     7
 10
296.6664760204406
 20
373.2436747903773
 42
-0.05663917456540044
  0
VERTEX
  8
0
  6
CONTINUOUS
 62
     7
 10
295.7867797633293
 20
372.7518640555737
 42
-0.02700148977553424
  0
VERTEX
  8
0
  6
CONTINUOUS
 62
     7
 10
294.8358813942911
 20
372.4118161600681
 42
-0.005084236945723005
  0
VERTEX
  8
0
  6
CONTINUOUS
 62
     7
 10
293.865949180137
 20
372.1285883215372
 42
-0.01843766070418839
  0
VERTEX
  8
0
  6
CONTINUOUS
 62
     7
 10
292.8847351074219
 20
371.8887023925781
 42
0
  0
SEQEND
  8
0
  0
TEXT
  8
0
  6
CONTINUOUS
 62
     7
 10
-296.4701189994812
 20
347.899658203125
 40
18
 41
1.031321647970434
  1
ERK-NAC-400
  0
ENDSEC
  0
EOF
