  0
SECTION
  2
HEADER
  0
ENDSEC
  0
SECTION
  2
TABLES
  0
TABLE
  2
LTYPE
 70
    22
  0
LTYPE
  2
CONTINUOUS
 70
    64
  3
Solid line
 72
    65
 73
     0
 40
0.000000
  0
LTYPE
  2
DASHED
 70
    64
  3
__ __ __ __ __ __ __ __ __ __ __ __ __ __ __
 72
    65
 73
     2
 40
3.500000
 49
2.000000
 49
-1.500000
  0
LTYPE
  2
CENTER
 70
    64
  3
____ _ ____ _ ____ _ ____ _ ____ _ ____ _ ____
 72
    65
 73
     4
 40
17.500000
 49
13.000000
 49
-1.500000
 49
1.500000
 49
-1.500000
  0
LTYPE
  2
PHANTOM
 70
    64
  3
_____ _ _ _____ _ _ _____ _ _ _____ _ _ ____  
 72
    65
 73
     6
 40
15.500000
 49
8.000000
 49
-1.500000
 49
1.500000
 49
-1.500000
 49
1.500000
 49
-1.500000
  0
LTYPE
  2
DOT
 70
    64
  3
. . . . . . . . . . . . . . . . . . . . . . . .
 72
    65
 73
     2
 40
0.25
 49
0.0
 49
-0.25
  0
ENDTAB
  0
TABLE
  2
LAYER
 70
     1
  0
LAYER
  2
0
 70
     0
 62
     7
  6
CONTINUOUS
  0
ENDTAB
  0
TABLE
  2
STYLE
 70
     1
  0
STYLE
  2
STANDARD
 70
     0
 40
0.000000
 41
1.000000
 50
0.000000
 71
     0
 42
0.200000
  3
txt
  4
BIGFONT
  0
ENDTAB
  0
TABLE
  2
VIEW
 70
     0
  0
ENDTAB
  0
ENDSEC
  0
SECTION
  2
BLOCKS
  0
ENDSEC
  0
SECTION
  2
ENTITIES
  0
LINE
  8
0
  6
CONTINUOUS
 62
     3
 10
570.8502197265625
 20
219.6440887451172
 11
570.8502197265625
 21
302.1662902832031
  0
LINE
  8
0
  6
CONTINUOUS
 62
     3
 10
570.8502197265625
 20
-140.3558959960938
 11
570.8502197265625
 21
-68.85590362548828
  0
LINE
  8
0
  6
CONTINUOUS
 62
     3
 10
570.8502197265625
 20
2.644081115722656
 11
570.8502197265625
 21
-68.85590362548828
  0
LINE
  8
0
  6
CONTINUOUS
 62
     3
 10
-69.41873168945313
 20
-68.85590362548828
 11
177.4715118408203
 21
-68.85590362548828
  0
LINE
  8
0
  6
CONTINUOUS
 62
     3
 10
54.35022354125977
 20
38.64409637451172
 11
54.35022354125977
 21
-213.7760314941406
  0
LINE
  8
0
  6
CONTINUOUS
 62
     7
 10
44.36939239501953
 20
29.58004188537598
 11
45.81888961791992
 21
25.59758949279785
  0
LINE
  8
0
  6
CONTINUOUS
 62
     7
 10
39.99267959594727
 20
30.70979499816895
 11
43.56313323974609
 21
30.2291374206543
  0
LINE
  8
0
  6
CONTINUOUS
 62
     7
 10
35.80712509155273
 20
54.44737243652344
 11
40.69531631469727
 21
26.72504425048828
  0
LINE
  8
0
  6
CONTINUOUS
 62
     7
 10
30.06201553344727
 20
27.05728912353516
 11
30.06201553344727
 21
22.98680877685547
  0
LINE
  8
0
  6
CONTINUOUS
 62
     7
 10
33.78841400146484
 20
29.61576843261719
 11
30.59767913818359
 21
27.94293212890625
  0
LINE
  8
0
  6
CONTINUOUS
 62
     7
 10
29.60284233093262
 20
53.35342407226563
 11
34.49103546142578
 21
25.6310920715332
  0
LINE
  8
0
  6
CONTINUOUS
 62
     7
 10
43.35009002685547
 20
25.50512886047363
 11
42.63742446899414
 21
23.01874542236328
  0
LINE
  8
0
  6
CONTINUOUS
 62
     7
 10
31.39445304870605
 20
23.32867240905762
 11
32.40891647338867
 21
21.43361473083496
  0
LINE
  8
0
  6
CONTINUOUS
 62
     7
 10
21.83152198791504
 20
20.4052848815918
 11
21.99785995483398
 21
18.77888107299805
  0
LINE
  8
0
  6
CONTINUOUS
 62
     7
 10
11.24576473236084
 20
15.80197811126709
 11
11.85554599761963
 21
15.1044750213623
  0
LINE
  8
0
  6
CONTINUOUS
 62
     3
 10
133.4509429931641
 20
-23.18691825866699
 11
114.1207427978516
 21
-34.34720993041992
  0
LINE
  8
0
  6
CONTINUOUS
 62
     7
 10
-55.64977645874023
 20
-208.8558959960937
 11
-0.6497764587402344
 21
-208.8558959960937
  0
LINE
  8
0
  6
CONTINUOUS
 62
     7
 10
-55.64977645874023
 20
-86.35590362548828
 11
-55.64977645874023
 21
-208.8558959960937
  0
LINE
  8
0
  6
CONTINUOUS
 62
     7
 10
164.3501892089844
 20
-86.35590362548828
 11
164.3501892089844
 21
-208.8558959960937
  0
LINE
  8
0
  6
CONTINUOUS
 62
     7
 10
-55.64977645874023
 20
-186.8558959960938
 11
-0.6497764587402344
 21
-186.8558959960938
  0
LINE
  8
0
  6
CONTINUOUS
 62
     7
 10
109.3501892089844
 20
-186.8558959960938
 11
109.3501892089844
 21
-208.8558959960937
  0
LINE
  8
0
  6
CONTINUOUS
 62
     7
 10
-0.6497764587402344
 20
-186.8558959960938
 11
-0.6497764587402344
 21
-208.8558959960937
  0
LINE
  8
0
  6
CONTINUOUS
 62
     7
 10
2.350223541259766
 20
-205.8558959960937
 11
106.3501892089844
 21
-205.8558959960937
  0
LINE
  8
0
  6
CONTINUOUS
 62
     7
 10
4.350223541259766
 20
-195.8558959960937
 11
104.3501892089844
 21
-195.8558959960937
  0
LINE
  8
0
  6
CONTINUOUS
 62
     7
 10
109.3501892089844
 20
-186.8558959960938
 11
164.3501892089844
 21
-186.8558959960938
  0
LINE
  8
0
  6
CONTINUOUS
 62
     7
 10
109.3501892089844
 20
-208.8558959960937
 11
164.3501892089844
 21
-208.8558959960937
  0
LINE
  8
0
  6
CONTINUOUS
 62
     7
 10
154.3501892089844
 20
-83.85590362548828
 11
154.3501892089844
 21
-181.8558959960937
  0
LINE
  8
0
  6
CONTINUOUS
 62
     7
 10
-45.64977645874023
 20
-83.85590362548828
 11
-45.64977645874023
 21
-181.8558959960937
  0
LINE
  8
0
  6
CONTINUOUS
 62
     7
 10
120.1624450683594
 20
-78.85590362548828
 11
149.3501892089844
 21
-78.85590362548828
  0
LINE
  8
0
  6
CONTINUOUS
 62
     7
 10
120.1624450683594
 20
-58.85590362548828
 11
156.9111633300781
 21
-58.85590362548828
  0
LINE
  8
0
  6
CONTINUOUS
 62
     7
 10
-11.46203231811523
 20
-78.85590362548828
 11
-40.64977645874023
 21
-78.85590362548828
  0
LINE
  8
0
  6
CONTINUOUS
 62
     7
 10
-11.46203231811523
 20
-58.85590362548828
 11
-48.21075057983398
 21
-58.85590362548828
  0
LINE
  8
0
  6
CONTINUOUS
 62
     7
 10
109.3501129150391
 20
-186.85595703125
 11
96.95027160644531
 21
-128.5193023681641
  0
LINE
  8
0
  6
CONTINUOUS
 62
     7
 10
120.2713088989258
 20
-180.5191955566406
 11
105.1980895996094
 21
-109.6052627563477
  0
LINE
  8
0
  6
CONTINUOUS
 62
     7
 10
-0.6498724818229675
 20
-186.8558959960938
 11
11.74996566772461
 21
-128.5192260742187
  0
LINE
  8
0
  6
CONTINUOUS
 62
     7
 10
-11.57102870941162
 20
-180.5192413330078
 11
3.502213478088379
 21
-109.6051788330078
  0
LINE
  8
0
  6
CONTINUOUS
 62
     7
 10
61.35022354125977
 20
-42.85588836669922
 11
61.35022354125977
 21
-51.85590362548828
  0
LINE
  8
0
  6
CONTINUOUS
 62
     7
 10
47.35022354125977
 20
-42.85588836669922
 11
47.35022354125977
 21
-51.85590362548828
  0
LINE
  8
0
  6
CONTINUOUS
 62
     7
 10
47.35022354125977
 20
-51.85590362548828
 11
61.35022354125977
 21
-51.85590362548828
  0
LINE
  8
0
  6
CONTINUOUS
 62
     3
 10
-24.75070190429688
 20
-114.5246505737305
 11
-5.4205322265625
 21
-103.364372253418
  0
LINE
  8
0
  6
CONTINUOUS
 62
     3
 10
133.4509887695312
 20
-114.5247955322266
 11
114.1208267211914
 21
-103.3645172119141
  0
LINE
  8
0
  6
CONTINUOUS
 62
     3
 10
-24.75060272216797
 20
-23.18704795837402
 11
-5.420434474945068
 21
-34.34732818603516
  0
LINE
  8
0
  6
CONTINUOUS
 62
     3
 10
144.3501892089844
 20
-180.7069702148437
 11
144.3501892089844
 21
-218.0403137207031
  0
LINE
  8
0
  6
CONTINUOUS
 62
     3
 10
-35.64977645874023
 20
-180.7069702148437
 11
-35.64977645874023
 21
-218.0403137207031
  0
LINE
  8
0
  6
DASHED
 62
     7
 10
-43.14977645874023
 20
-186.8558959960938
 11
-43.14977645874023
 21
-208.8558959960937
  0
LINE
  8
0
  6
DASHED
 62
     7
 10
-28.14977645874023
 20
-186.8558959960938
 11
-28.14977645874023
 21
-208.8558959960937
  0
LINE
  8
0
  6
DASHED
 62
     7
 10
136.8501892089844
 20
-186.8558959960938
 11
136.8501892089844
 21
-208.8558959960937
  0
LINE
  8
0
  6
DASHED
 62
     7
 10
151.8501892089844
 20
-186.8558959960938
 11
151.8501892089844
 21
-208.8558959960937
  0
LINE
  8
0
  6
CONTINUOUS
 62
     7
 10
47.35022354125977
 20
-42.85588836669922
 11
61.35022354125977
 21
-42.85588836669922
  0
LINE
  8
0
  6
CONTINUOUS
 62
     7
 10
344.3501892089844
 20
-21.35588836669922
 11
344.3501892089844
 21
-116.3558883666992
  0
LINE
  8
0
  6
CONTINUOUS
 62
     7
 10
549.3502197265625
 20
-186.8558959960938
 11
549.3502197265625
 21
-208.8558959960937
  0
LINE
  8
0
  6
CONTINUOUS
 62
     7
 10
359.3501892089844
 20
-208.8558959960937
 11
549.3502197265625
 21
-208.8558959960937
  0
LINE
  8
0
  6
CONTINUOUS
 62
     7
 10
433.3501892089844
 20
23.64409637451172
 11
448.3501892089844
 21
23.64409637451172
  0
LINE
  8
0
  6
CONTINUOUS
 62
     7
 10
347.3501892089844
 20
-6.355888366699219
 11
347.3501892089844
 21
-16.15972137451172
  0
LINE
  8
0
  6
CONTINUOUS
 62
     7
 10
347.3501892089844
 20
-6.355888366699219
 11
379.3501892089844
 21
-6.355888366699219
  0
LINE
  8
0
  6
CONTINUOUS
 62
     7
 10
347.3501892089844
 20
-131.3558959960937
 11
369.205810546875
 21
-131.3558959960937
  0
LINE
  8
0
  6
CONTINUOUS
 62
     7
 10
448.3501892089844
 20
23.64410400390625
 11
448.3501892089844
 21
-60.93334197998047
  0
LINE
  8
0
  6
CONTINUOUS
 62
     7
 10
433.3501892089844
 20
23.64410400390625
 11
433.3501892089844
 21
-54.20677947998047
  0
LINE
  8
0
  6
CONTINUOUS
 62
     7
 10
359.3501892089844
 20
-186.8558959960938
 11
415.3501892089844
 21
-186.8558959960938
  0
LINE
  8
0
  6
CONTINUOUS
 62
     7
 10
359.3501892089844
 20
-186.8558959960938
 11
359.3501892089844
 21
-208.8558959960937
  0
LINE
  8
0
  6
CONTINUOUS
 62
     7
 10
423.3501892089844
 20
-66.85588836669922
 11
423.3501892089844
 21
-178.8558959960938
  0
LINE
  8
0
  6
CONTINUOUS
 62
     7
 10
503.118896484375
 20
-178.8979797363281
 11
455.3733215332031
 21
-89.10163879394531
  0
LINE
  8
0
  6
CONTINUOUS
 62
     7
 10
365.1213073730469
 20
-178.0415344238281
 11
370.9317626953125
 21
-111.6277923583984
  0
LINE
  8
0
  6
CONTINUOUS
 62
     3
 10
379.3501892089844
 20
-180.0403137207031
 11
379.3501892089844
 21
-216.0403137207031
  0
LINE
  8
0
  6
CONTINUOUS
 62
     3
 10
529.3502197265625
 20
-180.0403137207031
 11
529.3502197265625
 21
-214.7069702148437
  0
LINE
  8
0
  6
CONTINUOUS
 62
     7
 10
274.3501892089844
 20
-42.85588836669922
 11
274.3501892089844
 21
-91.35590362548828
  0
LINE
  8
0
  6
CONTINUOUS
 62
     7
 10
274.3501892089844
 20
-46.35588836669922
 11
339.3501892089844
 21
-46.35588836669922
  0
LINE
  8
0
  6
CONTINUOUS
 62
     7
 10
274.3501892089844
 20
-91.35590362548828
 11
339.3501892089844
 21
-91.35590362548828
  0
LINE
  8
0
  6
DASHED
 62
     7
 10
371.8501892089844
 20
-186.8558959960938
 11
371.8501892089844
 21
-208.8558959960937
  0
LINE
  8
0
  6
DASHED
 62
     7
 10
386.8501892089844
 20
-186.8558959960938
 11
386.8501892089844
 21
-208.8558959960937
  0
LINE
  8
0
  6
DASHED
 62
     7
 10
521.8502197265625
 20
-186.8558959960938
 11
521.8502197265625
 21
-208.8558959960937
  0
LINE
  8
0
  6
DASHED
 62
     7
 10
536.8502197265625
 20
-186.8558959960938
 11
536.8502197265625
 21
-208.8558959960937
  0
LINE
  8
0
  6
CONTINUOUS
 62
     7
 10
344.3501892089844
 20
-116.3558731079102
 11
347.3502197265625
 21
-121.5520248413086
  0
LINE
  8
0
  6
CONTINUOUS
 62
     7
 10
344.3501892089844
 20
-21.35590171813965
 11
347.3501892089844
 21
-16.15973663330078
  0
LINE
  8
0
  6
CONTINUOUS
 62
     7
 10
379.3502197265625
 20
-6.355947971343994
 11
425.7688598632812
 21
-3.923249006271362
  0
LINE
  8
0
  6
CONTINUOUS
 62
     7
 10
324.3501892089844
 20
-42.85588836669922
 11
324.3501892089844
 21
-46.35588836669922
  0
LINE
  8
0
  6
CONTINUOUS
 62
     7
 10
274.3501892089844
 20
-42.85588836669922
 11
324.3501892089844
 21
-42.85588836669922
  0
LINE
  8
0
  6
CONTINUOUS
 62
     7
 10
339.3501892089844
 20
-41.35588836669922
 11
339.3501892089844
 21
-96.35588836669922
  0
LINE
  8
0
  6
CONTINUOUS
 62
     7
 10
339.3501892089844
 20
-41.35588836669922
 11
344.3501892089844
 21
-41.35588836669922
  0
LINE
  8
0
  6
CONTINUOUS
 62
     7
 10
339.3501892089844
 20
-96.35590362548828
 11
344.3501892089844
 21
-96.35590362548828
  0
LINE
  8
0
  6
CONTINUOUS
 62
     7
 10
347.3501892089844
 20
-121.5520248413086
 11
347.3501892089844
 21
-131.3558959960937
  0
LINE
  8
0
  6
CONTINUOUS
 62
     3
 10
259.3501892089844
 20
-68.85590362548828
 11
639.94970703125
 21
-68.85590362548828
  0
LINE
  8
0
  6
CONTINUOUS
 62
     7
 10
498.3501892089844
 20
24.22967529296875
 11
498.3501892089844
 21
-161.3558959960938
  0
LINE
  8
0
  6
CONTINUOUS
 62
     7
 10
548.3502197265625
 20
4.644111633300781
 11
548.3502197265625
 21
-142.3558959960937
  0
LINE
  8
0
  6
CONTINUOUS
 62
     7
 10
508.3501892089844
 20
18.45676422119141
 11
508.3501892089844
 21
-16.73229217529297
  0
LINE
  8
0
  6
CONTINUOUS
 62
     7
 10
538.3502197265625
 20
3.644111633300781
 11
538.3502197265625
 21
-141.3558959960938
  0
LINE
  8
0
  6
CONTINUOUS
 62
     7
 10
538.3502197265625
 20
-141.3558959960938
 11
548.3502197265625
 21
-141.3558959960938
  0
LINE
  8
0
  6
CONTINUOUS
 62
     7
 10
538.3502197265625
 20
3.644111633300781
 11
548.3502197265625
 21
3.644111633300781
  0
LINE
  8
0
  6
CONTINUOUS
 62
     7
 10
498.3501892089844
 20
-161.3558959960938
 11
516.3502197265625
 21
-161.3558959960938
  0
LINE
  8
0
  6
CONTINUOUS
 62
     7
 10
508.3501892089844
 20
-71.85590362548828
 11
538.3502197265625
 21
-71.85590362548828
  0
LINE
  8
0
  6
CONTINUOUS
 62
     7
 10
508.3501892089844
 20
-65.85590362548828
 11
538.3502197265625
 21
-65.85590362548828
  0
LINE
  8
0
  6
CONTINUOUS
 62
     7
 10
516.3502197265625
 20
-16.73229217529297
 11
516.3502197265625
 21
-45.94017791748047
  0
LINE
  8
0
  6
CONTINUOUS
 62
     7
 10
508.3502197265625
 20
8.376846313476563
 11
538.3502197265625
 21
-8.956873893737793
  0
LINE
  8
0
  6
CONTINUOUS
 62
     7
 10
508.3501892089844
 20
-34.05278778076172
 11
508.3501892089844
 21
-103.6589889526367
  0
LINE
  8
0
  6
CONTINUOUS
 62
     7
 10
516.3502197265625
 20
23.64410400390625
 11
516.3502197265625
 21
3.754493713378906
  0
LINE
  8
0
  6
CONTINUOUS
 62
     7
 10
508.3501892089844
 20
-161.3558959960938
 11
508.3501892089844
 21
-120.9794845581055
  0
LINE
  8
0
  6
CONTINUOUS
 62
     7
 10
516.3502197265625
 20
-161.3558959960938
 11
516.3502197265625
 21
-141.4662780761719
  0
LINE
  8
0
  6
CONTINUOUS
 62
     7
 10
508.3501892089844
 20
-146.0886383056641
 11
538.3501586914062
 21
-128.7549133300781
  0
LINE
  8
0
  6
CONTINUOUS
 62
     7
 10
516.3502197265625
 20
-26.09619903564453
 11
538.3502197265625
 21
-26.09619903564453
  0
LINE
  8
0
  6
CONTINUOUS
 62
     7
 10
516.3502197265625
 20
-111.6155624389648
 11
538.3502197265625
 21
-111.6155624389648
  0
LINE
  8
0
  6
CONTINUOUS
 62
     7
 10
499.2169494628906
 20
29.17004203796387
 11
498.3501892089844
 21
24.22969436645508
  0
LINE
  8
0
  6
CONTINUOUS
 62
     7
 10
506.3501892089844
 20
31.10208892822266
 11
511.90625
 21
29.90823936462402
  0
LINE
  8
0
  6
CONTINUOUS
 62
     7
 10
506.3501892089844
 20
31.10210800170898
 11
500.7940673828125
 21
29.90823936462402
  0
LINE
  8
0
  6
CONTINUOUS
 62
     7
 10
513.4834594726563
 20
29.17002296447754
 11
514.3464965820313
 21
24.2507209777832
  0
LINE
  8
0
  6
CONTINUOUS
 62
     7
 10
498.3501892089844
 20
23.64409637451172
 11
516.3502197265625
 21
23.64409637451172
  0
LINE
  8
0
  6
CONTINUOUS
 62
     7
 10
508.3501892089844
 20
-16.73229217529297
 11
516.3502197265625
 21
-16.73229217529297
  0
LINE
  8
0
  6
CONTINUOUS
 62
     7
 10
508.3501892089844
 20
-34.05278778076172
 11
516.3502197265625
 21
-34.05278778076172
  0
LINE
  8
0
  6
CONTINUOUS
 62
     7
 10
508.3501892089844
 20
-103.6590042114258
 11
516.3502197265625
 21
-103.6590042114258
  0
LINE
  8
0
  6
CONTINUOUS
 62
     7
 10
516.3502197265625
 20
-120.9794845581055
 11
516.3502197265625
 21
-91.77159881591797
  0
LINE
  8
0
  6
CONTINUOUS
 62
     7
 10
508.3501892089844
 20
-120.9795150756836
 11
516.3502197265625
 21
-120.9795150756836
  0
LINE
  8
0
  6
CONTINUOUS
 62
     7
 10
514.3464965820313
 20
24.250732421875
 11
514.3464965820313
 21
23.64410400390625
  0
LINE
  8
0
  6
CONTINUOUS
 62
     7
 10
489.6222839355469
 20
-153.5146179199219
 11
494.3501892089844
 21
-153.5146179199219
  0
LINE
  8
0
  6
CONTINUOUS
 62
     7
 10
452.3501892089844
 20
26.14409637451172
 11
494.3501892089844
 21
26.14409637451172
  0
LINE
  8
0
  6
CONTINUOUS
 62
     7
 10
452.3502807617188
 20
26.14400482177734
 11
448.3502807617188
 21
22.14400100708008
  0
LINE
  8
0
  6
CONTINUOUS
 62
     7
 10
494.8533630371094
 20
-163.3528289794922
 11
498.3502502441406
 21
-159.8559417724609
  0
LINE
  8
0
  6
CONTINUOUS
 62
     7
 10
498.3501281738281
 20
22.14412879943848
 11
494.3501281738281
 21
26.14413452148438
  0
LINE
  8
0
  6
CONTINUOUS
 62
     7
 10
492.0695190429688
 20
-158.1171569824219
 11
494.3501892089844
 21
-158.1171569824219
  0
LINE
  8
0
  6
CONTINUOUS
 62
     7
 10
452.3501892089844
 20
-31.20203399658203
 11
494.3501892089844
 21
-31.20203399658203
  0
LINE
  8
0
  6
CONTINUOUS
 62
     7
 10
452.3501892089844
 20
-42.64357757568359
 11
494.3501892089844
 21
-42.64357757568359
  0
LINE
  8
0
  6
CONTINUOUS
 62
     7
 10
452.3501892089844
 20
-52.38712310791016
 11
494.3501892089844
 21
-52.38712310791016
  0
LINE
  8
0
  6
CONTINUOUS
 62
     7
 10
452.3501892089844
 20
-63.85642242431641
 11
494.3501892089844
 21
-63.85642242431641
  0
LINE
  8
0
  6
CONTINUOUS
 62
     7
 10
452.3501892089844
 20
-73.85602569580078
 11
494.3501892089844
 21
-73.85602569580078
  0
LINE
  8
0
  6
CONTINUOUS
 62
     7
 10
453.3654174804688
 20
-85.32535552978516
 11
494.3501892089844
 21
-85.32535552978516
  0
LINE
  8
0
  6
CONTINUOUS
 62
     7
 10
458.5458679199219
 20
-95.06836700439453
 11
494.3501892089844
 21
-95.06836700439453
  0
LINE
  8
0
  6
CONTINUOUS
 62
     7
 10
464.6293029785156
 20
-106.5096054077148
 11
494.3501892089844
 21
-106.5096054077148
  0
LINE
  8
0
  6
CONTINUOUS
 62
     7
 10
474.7599487304688
 20
-125.562614440918
 11
494.3501892089844
 21
-125.562614440918
  0
LINE
  8
0
  6
CONTINUOUS
 62
     7
 10
479.686279296875
 20
-134.8276977539062
 11
494.3501892089844
 21
-134.8276977539062
  0
LINE
  8
0
  6
CONTINUOUS
 62
     7
 10
483.3132934570312
 20
-141.6490783691406
 11
494.3501892089844
 21
-141.6490783691406
  0
LINE
  8
0
  6
CONTINUOUS
 62
     7
 10
486.963623046875
 20
-148.5143737792969
 11
494.3501892089844
 21
-148.5143737792969
  0
LINE
  8
0
  6
CONTINUOUS
 62
     7
 10
548.3502197265625
 20
4.644096374511719
 11
570.8502197265625
 21
4.644096374511719
  0
LINE
  8
0
  6
CONTINUOUS
 62
     7
 10
570.8502197265625
 20
4.644111633300781
 11
570.8502197265625
 21
-142.3558959960937
  0
LINE
  8
0
  6
CONTINUOUS
 62
     7
 10
548.3502197265625
 20
-142.3558959960937
 11
570.8502197265625
 21
-142.3558959960937
  0
LINE
  8
0
  6
CONTINUOUS
 62
     7
 10
516.3631591796875
 20
-186.8558959960938
 11
549.3502197265625
 21
-186.8558959960938
  0
LINE
  8
0
  6
CONTINUOUS
 62
     7
 10
379.3502502441406
 20
353.6440734863281
 11
425.7688903808594
 21
356.0767822265625
  0
LINE
  8
0
  6
CONTINUOUS
 62
     7
 10
274.3501892089844
 20
313.6441040039062
 11
274.3501892089844
 21
268.6441040039062
  0
LINE
  8
0
  6
CONTINUOUS
 62
     7
 10
274.3501892089844
 20
313.6441040039062
 11
339.3501892089844
 21
313.6441040039062
  0
LINE
  8
0
  6
CONTINUOUS
 62
     7
 10
274.3501892089844
 20
268.6441040039062
 11
339.3501892089844
 21
268.6441040039062
  0
LINE
  8
0
  6
CONTINUOUS
 62
     7
 10
344.3501892089844
 20
338.6441040039062
 11
344.3501892089844
 21
243.6441040039062
  0
LINE
  8
0
  6
CONTINUOUS
 62
     7
 10
347.3501892089844
 20
353.6441040039063
 11
347.3501892089844
 21
343.8402404785156
  0
LINE
  8
0
  6
CONTINUOUS
 62
     7
 10
347.3501892089844
 20
353.6441040039063
 11
379.3501892089844
 21
353.6441040039063
  0
LINE
  8
0
  6
CONTINUOUS
 62
     7
 10
347.3501892089844
 20
228.6440887451172
 11
379.3501892089844
 21
228.6440887451172
  0
LINE
  8
0
  6
CONTINUOUS
 62
     7
 10
448.3501892089844
 20
391.1441040039063
 11
448.3501892089844
 21
191.1441040039063
  0
LINE
  8
0
  6
CONTINUOUS
 62
     7
 10
433.3501892089844
 20
401.1441040039063
 11
433.3501892089844
 21
181.1441040039063
  0
LINE
  8
0
  6
CONTINUOUS
 62
     7
 10
359.3501892089844
 20
393.1441040039063
 11
359.3501892089844
 21
353.6441040039063
  0
LINE
  8
0
  6
CONTINUOUS
 62
     7
 10
367.3501892089844
 20
181.1441040039063
 11
541.3502197265625
 21
181.1441040039063
  0
LINE
  8
0
  6
CONTINUOUS
 62
     7
 10
367.3501892089844
 20
401.1441040039063
 11
541.3502197265625
 21
401.1441040039063
  0
LINE
  8
0
  6
CONTINUOUS
 62
     7
 10
549.3502197265625
 20
215.158203125
 11
549.3502197265625
 21
189.1441040039062
  0
LINE
  8
0
  6
CONTINUOUS
 62
     7
 10
359.3501892089844
 20
228.6441040039063
 11
359.3501892089844
 21
189.1441040039062
  0
LINE
  8
0
  6
CONTINUOUS
 62
     7
 10
549.3502197265625
 20
367.1300048828125
 11
549.3502197265625
 21
393.1441040039063
  0
LINE
  8
0
  6
CONTINUOUS
 62
     7
 10
448.3501892089844
 20
191.1441040039063
 11
504.3502197265625
 21
191.1441040039063
  0
LINE
  8
0
  6
CONTINUOUS
 62
     7
 10
423.3501892089844
 20
226.3381958007813
 11
423.3501892089844
 21
181.1441040039063
  0
LINE
  8
0
  6
CONTINUOUS
 62
     7
 10
423.3501892089844
 20
355.9500122070313
 11
423.3501892089844
 21
401.1441040039063
  0
LINE
  8
0
  6
CONTINUOUS
 62
     7
 10
448.3501892089844
 20
391.1441040039063
 11
504.3502197265625
 21
391.1441040039063
  0
LINE
  8
0
  6
CONTINUOUS
 62
     7
 10
274.3501892089844
 20
298.1441040039062
 11
327.3501892089844
 21
298.1441040039062
  0
LINE
  8
0
  6
CONTINUOUS
 62
     7
 10
274.3501892089844
 20
284.1441040039063
 11
327.3501892089844
 21
284.1441040039063
  0
LINE
  8
0
  6
CONTINUOUS
 62
     3
 10
515.288330078125
 20
201.1440734863281
 11
544.3111572265625
 21
201.1440734863281
  0
LINE
  8
0
  6
CONTINUOUS
 62
     3
 10
529.3502197265625
 20
213.75
 11
529.3502197265625
 21
187.6294555664063
  0
LINE
  8
0
  6
CONTINUOUS
 62
     3
 10
379.3501892089844
 20
213.75
 11
379.3501892089844
 21
185.6946105957031
  0
LINE
  8
0
  6
CONTINUOUS
 62
     3
 10
365.2882995605469
 20
201.1440734863281
 11
394.3111267089844
 21
201.1440734863281
  0
LINE
  8
0
  6
CONTINUOUS
 62
     3
 10
365.2882995605469
 20
381.1441650390625
 11
394.3111267089844
 21
381.1441650390625
  0
LINE
  8
0
  6
CONTINUOUS
 62
     3
 10
379.3501892089844
 20
368.5382080078125
 11
379.3501892089844
 21
396.5936279296875
  0
LINE
  8
0
  6
CONTINUOUS
 62
     3
 10
515.288330078125
 20
381.1441650390625
 11
544.3111572265625
 21
381.1441650390625
  0
LINE
  8
0
  6
CONTINUOUS
 62
     3
 10
529.3502197265625
 20
368.5382080078125
 11
529.3502197265625
 21
394.6587524414063
  0
LINE
  8
0
  6
CONTINUOUS
 62
     7
 10
344.3502197265625
 20
243.6441040039062
 11
347.3502197265625
 21
238.4479217529297
  0
LINE
  8
0
  6
CONTINUOUS
 62
     7
 10
344.3501892089844
 20
338.6441040039062
 11
347.3502197265625
 21
343.8402709960937
  0
LINE
  8
0
  6
CONTINUOUS
 62
     7
 10
379.3502197265625
 20
228.6441192626953
 11
425.7688598632812
 21
226.21142578125
  0
LINE
  8
0
  6
CONTINUOUS
 62
     7
 10
324.3501892089844
 20
298.1441040039062
 11
324.3501892089844
 21
284.1441040039063
  0
LINE
  8
0
  6
CONTINUOUS
 62
     7
 10
339.3501892089844
 20
318.6441040039062
 11
339.3501892089844
 21
263.6441040039062
  0
LINE
  8
0
  6
CONTINUOUS
 62
     7
 10
339.3501892089844
 20
318.6441040039062
 11
344.3501892089844
 21
318.6441040039062
  0
LINE
  8
0
  6
CONTINUOUS
 62
     7
 10
339.3501892089844
 20
263.6441040039062
 11
344.3501892089844
 21
263.6441040039062
  0
LINE
  8
0
  6
CONTINUOUS
 62
     7
 10
347.3501892089844
 20
238.4479370117187
 11
347.3501892089844
 21
228.6441040039063
  0
LINE
  8
0
  6
CONTINUOUS
 62
     3
 10
259.3501892089844
 20
291.1441040039063
 11
636.1384887695313
 21
291.1441040039063
  0
LINE
  8
0
  6
CONTINUOUS
 62
     7
 10
498.3501892089844
 20
383.6440734863281
 11
498.3501892089844
 21
315.4202270507812
  0
LINE
  8
0
  6
CONTINUOUS
 62
     7
 10
548.3502197265625
 20
364.6440734863281
 11
548.3502197265625
 21
217.6441040039062
  0
LINE
  8
0
  6
CONTINUOUS
 62
     7
 10
508.3501892089844
 20
383.6440734863281
 11
508.3501892089844
 21
375.7819519042969
  0
LINE
  8
0
  6
CONTINUOUS
 62
     7
 10
538.3502197265625
 20
363.6440734863281
 11
538.3502197265625
 21
218.6441040039062
  0
LINE
  8
0
  6
CONTINUOUS
 62
     7
 10
538.3502197265625
 20
218.6440887451172
 11
548.3502197265625
 21
218.6440887451172
  0
LINE
  8
0
  6
CONTINUOUS
 62
     7
 10
538.3502197265625
 20
363.6440734863281
 11
548.3502197265625
 21
363.6440734863281
  0
LINE
  8
0
  6
CONTINUOUS
 62
     7
 10
498.3501892089844
 20
198.6441040039063
 11
508.3501892089844
 21
198.6441040039063
  0
LINE
  8
0
  6
CONTINUOUS
 62
     7
 10
498.3501892089844
 20
383.6440734863281
 11
508.3501892089844
 21
383.6440734863281
  0
LINE
  8
0
  6
CONTINUOUS
 62
     7
 10
516.3502197265625
 20
305.9208374023438
 11
516.3502197265625
 21
275.0816345214844
  0
LINE
  8
0
  6
CONTINUOUS
 62
     7
 10
516.3502197265625
 20
375.7819519042969
 11
516.3502197265625
 21
334.7978820800781
  0
LINE
  8
0
  6
CONTINUOUS
 62
     7
 10
508.3501892089844
 20
375.7819519042969
 11
516.3502197265625
 21
375.7819519042969
  0
LINE
  8
0
  6
CONTINUOUS
 62
     7
 10
508.3501892089844
 20
365.7820129394531
 11
516.3502197265625
 21
365.7820129394531
  0
LINE
  8
0
  6
CONTINUOUS
 62
     7
 10
508.3501892089844
 20
365.7820129394531
 11
508.3501892089844
 21
315.8648986816406
  0
LINE
  8
0
  6
CONTINUOUS
 62
     7
 10
508.3501892089844
 20
337.466552734375
 11
538.3502197265625
 21
327.4589233398438
  0
LINE
  8
0
  6
CONTINUOUS
 62
     7
 10
508.3501892089844
 20
244.8216552734375
 11
538.3502197265625
 21
254.8292846679688
  0
LINE
  8
0
  6
CONTINUOUS
 62
     7
 10
508.3501892089844
 20
216.5062255859375
 11
508.3501892089844
 21
266.4595947265625
  0
LINE
  8
0
  6
CONTINUOUS
 62
     7
 10
516.3502197265625
 20
206.5062561035156
 11
516.3502197265625
 21
247.4903259277344
  0
LINE
  8
0
  6
CONTINUOUS
 62
     7
 10
508.3501892089844
 20
216.5062103271484
 11
516.3502197265625
 21
216.5062103271484
  0
LINE
  8
0
  6
CONTINUOUS
 62
     7
 10
508.3501892089844
 20
206.5062561035156
 11
516.3502197265625
 21
206.5062561035156
  0
LINE
  8
0
  6
CONTINUOUS
 62
     7
 10
508.3501892089844
 20
198.6441040039063
 11
508.3501892089844
 21
206.5062561035156
  0
LINE
  8
0
  6
CONTINUOUS
 62
     7
 10
516.3502197265625
 20
238.6440887451172
 11
538.3502197265625
 21
238.6440887451172
  0
LINE
  8
0
  6
CONTINUOUS
 62
     7
 10
516.3502197265625
 20
343.6441040039062
 11
538.3502197265625
 21
343.6441040039062
  0
LINE
  8
0
  6
CONTINUOUS
 62
     7
 10
521.6861572265625
 20
312.9446716308594
 11
538.3502197265625
 21
312.9446716308594
  0
LINE
  8
0
  6
CONTINUOUS
 62
     7
 10
513.9324340820312
 20
269.3435668945313
 11
538.3502197265625
 21
269.3435668945313
  0
LINE
  8
0
  6
CONTINUOUS
 62
     7
 10
498.3501892089844
 20
305.5914001464844
 11
498.3501892089844
 21
198.6441040039063
  0
LINE
  8
0
  6
CONTINUOUS
 62
     7
 10
516.3502807617187
 20
209.0645141601562
 11
538.3502197265625
 21
223.8294982910156
  0
LINE
  8
0
  6
CONTINUOUS
 62
     7
 10
516.3502197265625
 20
373.2236633300781
 11
538.3501586914062
 21
358.4587097167969
  0
LINE
  8
0
  6
CONTINUOUS
 62
     7
 10
452.3501586914062
 20
302.1441650390625
 11
494.3502807617188
 21
302.1441650390625
  0
LINE
  8
0
  6
CONTINUOUS
 62
     7
 10
452.3501892089844
 20
196.1441040039063
 11
494.3501892089844
 21
196.1441040039063
  0
LINE
  8
0
  6
CONTINUOUS
 62
     7
 10
452.3501892089844
 20
386.1440734863281
 11
494.3501892089844
 21
386.1440734863281
  0
LINE
  8
0
  6
CONTINUOUS
 62
     7
 10
452.350341796875
 20
386.1439819335937
 11
448.350341796875
 21
382.1439819335937
  0
LINE
  8
0
  6
CONTINUOUS
 62
     7
 10
448.3501892089844
 20
200.1441650390625
 11
452.3501892089844
 21
196.1441650390625
  0
LINE
  8
0
  6
CONTINUOUS
 62
     7
 10
494.3502502441406
 20
196.1440124511719
 11
498.3502502441406
 21
200.1440124511719
  0
LINE
  8
0
  6
CONTINUOUS
 62
     7
 10
498.3501892089844
 20
382.1441650390625
 11
494.3501892089844
 21
386.1441650390625
  0
LINE
  8
0
  6
CONTINUOUS
 62
     7
 10
452.3501586914062
 20
203.9248046875
 11
494.3502807617188
 21
203.9248046875
  0
LINE
  8
0
  6
CONTINUOUS
 62
     7
 10
452.3501586914062
 20
378.3630676269531
 11
494.3502807617188
 21
378.3630676269531
  0
LINE
  8
0
  6
CONTINUOUS
 62
     7
 10
452.3501586914062
 20
367.3628845214844
 11
494.3502807617188
 21
367.3628845214844
  0
LINE
  8
0
  6
CONTINUOUS
 62
     7
 10
452.3501586914062
 20
359.5007629394531
 11
494.3502807617188
 21
359.5007629394531
  0
LINE
  8
0
  6
CONTINUOUS
 62
     7
 10
452.3501586914062
 20
352.187744140625
 11
494.3502807617188
 21
352.187744140625
  0
LINE
  8
0
  6
CONTINUOUS
 62
     7
 10
452.3501586914062
 20
342.9085998535156
 11
494.3502807617188
 21
342.9085998535156
  0
LINE
  8
0
  6
CONTINUOUS
 62
     7
 10
452.3501586914062
 20
334.24853515625
 11
494.3502807617188
 21
334.24853515625
  0
LINE
  8
0
  6
CONTINUOUS
 62
     7
 10
452.3501586914062
 20
323.6627502441406
 11
494.3502807617188
 21
323.6627502441406
  0
LINE
  8
0
  6
CONTINUOUS
 62
     7
 10
452.3501586914062
 20
314.099853515625
 11
493.5087585449219
 21
314.099853515625
  0
LINE
  8
0
  6
CONTINUOUS
 62
     7
 10
548.3502197265625
 20
364.6440734863281
 11
570.8502197265625
 21
364.6440734863281
  0
LINE
  8
0
  6
CONTINUOUS
 62
     7
 10
570.8502197265625
 20
364.6440734863281
 11
570.8502197265625
 21
311.9952087402344
  0
LINE
  8
0
  6
CONTINUOUS
 62
     7
 10
548.3502197265625
 20
217.6440887451172
 11
570.8502197265625
 21
217.6440887451172
  0
LINE
  8
0
  6
CONTINUOUS
 62
     7
 10
570.8502197265625
 20
3.644096374511719
 11
573.9573364257812
 21
3.644096374511719
  0
LINE
  8
0
  6
CONTINUOUS
 62
     7
 10
570.8502197265625
 20
-141.3558959960938
 11
570.8502197265625
 21
3.644096374511719
  0
LINE
  8
0
  6
CONTINUOUS
 62
     7
 10
585.8502197265625
 20
-141.3558959960938
 11
585.8502197265625
 21
3.644096374511719
  0
LINE
  8
0
  6
CONTINUOUS
 62
     7
 10
570.8502197265625
 20
-141.3558959960938
 11
585.8502197265625
 21
-141.3558959960938
  0
LINE
  8
0
  6
CONTINUOUS
 62
     7
 10
570.8502197265625
 20
3.644096374511719
 11
585.8502197265625
 21
3.644096374511719
  0
LINE
  8
0
  6
CONTINUOUS
 62
     7
 10
570.8502197265625
 20
218.6441040039062
 11
570.8502197265625
 21
302.1665649414062
  0
LINE
  8
0
  6
CONTINUOUS
 62
     7
 10
585.8502197265625
 20
218.6441040039062
 11
585.8502197265625
 21
300.3147583007813
  0
LINE
  8
0
  6
CONTINUOUS
 62
     7
 10
570.8502197265625
 20
218.6441040039062
 11
585.8502197265625
 21
218.6441040039062
  0
LINE
  8
0
  6
CONTINUOUS
 62
     7
 10
570.8502197265625
 20
363.6441040039062
 11
585.8502197265625
 21
363.6441040039062
  0
LINE
  8
0
  6
CONTINUOUS
 62
     7
 10
585.8502197265625
 20
291.1441040039063
 11
585.8502197265625
 21
363.6441040039062
  0
LINE
  8
0
  6
CONTINUOUS
 62
     7
 10
570.8502197265625
 20
311.9951782226562
 11
570.8502197265625
 21
363.6441040039062
  0
LINE
  8
0
  6
CONTINUOUS
 62
     7
 10
570.8502197265625
 20
302.1662902832031
 11
570.8502197265625
 21
217.6441040039062
  0
LINE
  8
0
  6
CONTINUOUS
 62
     3
 10
570.8502197265625
 20
291.1441040039063
 11
570.8502197265625
 21
362.6440734863281
  0
LINE
  8
0
  6
CONTINUOUS
 62
     7
 10
585.8502197265625
 20
-141.3558959960938
 11
585.8502197265625
 21
3.644096374511719
  0
LINE
  8
0
  6
CONTINUOUS
 62
     7
 10
620.8502197265625
 20
11.14409637451172
 11
620.8502197265625
 21
-148.8558959960938
  0
LINE
  8
0
  6
CONTINUOUS
 62
     7
 10
608.8502197265625
 20
11.14409637451172
 11
620.8502197265625
 21
11.14409637451172
  0
LINE
  8
0
  6
CONTINUOUS
 62
     7
 10
608.8502197265625
 20
11.14409637451172
 11
608.8502197265625
 21
-148.8558959960938
  0
LINE
  8
0
  6
CONTINUOUS
 62
     7
 10
590.8502197265625
 20
-30.85590362548828
 11
603.8502197265625
 21
-30.85590362548828
  0
LINE
  8
0
  6
CONTINUOUS
 62
     7
 10
608.8502197265625
 20
-148.8558959960938
 11
620.8502197265625
 21
-148.8558959960938
  0
LINE
  8
0
  6
CONTINUOUS
 62
     7
 10
590.8502197265625
 20
-106.8559036254883
 11
603.8502197265625
 21
-106.8559036254883
  0
LINE
  8
0
  6
CONTINUOUS
 62
     7
 10
585.8502197265625
 20
-124.8559036254883
 11
608.8502197265625
 21
-124.8559036254883
  0
LINE
  8
0
  6
CONTINUOUS
 62
     7
 10
585.8502197265625
 20
-12.85590362548828
 11
608.8502197265625
 21
-12.85590362548828
  0
LINE
  8
0
  6
CONTINUOUS
 62
     7
 10
585.8502197265625
 20
-73.85590362548828
 11
608.8502197265625
 21
-73.85590362548828
  0
LINE
  8
0
  6
CONTINUOUS
 62
     7
 10
585.8502197265625
 20
-63.85590362548828
 11
608.8502197265625
 21
-63.85590362548828
  0
LINE
  8
0
  6
CONTINUOUS
 62
     7
 10
585.8502197265625
 20
296.1441040039063
 11
608.8502197265625
 21
296.1441040039063
  0
LINE
  8
0
  6
CONTINUOUS
 62
     7
 10
585.8502197265625
 20
286.1441040039063
 11
608.8502197265625
 21
286.1441040039063
  0
LINE
  8
0
  6
CONTINUOUS
 62
     7
 10
585.8502197265625
 20
347.1441040039062
 11
608.8502197265625
 21
347.1441040039062
  0
LINE
  8
0
  6
CONTINUOUS
 62
     7
 10
585.8502197265625
 20
235.1441040039063
 11
608.8502197265625
 21
235.1441040039063
  0
LINE
  8
0
  6
CONTINUOUS
 62
     7
 10
590.8502197265625
 20
253.1441040039062
 11
603.8502197265625
 21
253.1441040039062
  0
LINE
  8
0
  6
CONTINUOUS
 62
     7
 10
608.8502197265625
 20
211.1441040039063
 11
620.8502197265625
 21
211.1441040039063
  0
LINE
  8
0
  6
CONTINUOUS
 62
     7
 10
590.8502197265625
 20
329.1441040039062
 11
603.8502197265625
 21
329.1441040039062
  0
LINE
  8
0
  6
CONTINUOUS
 62
     7
 10
608.8502197265625
 20
371.1441040039063
 11
608.8502197265625
 21
211.1441040039063
  0
LINE
  8
0
  6
CONTINUOUS
 62
     7
 10
608.8502197265625
 20
371.1441040039063
 11
620.8502197265625
 21
371.1441040039063
  0
LINE
  8
0
  6
CONTINUOUS
 62
     7
 10
620.8502197265625
 20
371.1441040039063
 11
620.8502197265625
 21
211.1441040039063
  0
LINE
  8
0
  6
CONTINUOUS
 62
     7
 10
506.3502197265625
 20
60.83784866333008
 11
506.3502197265625
 21
19.59811592102051
  0
LINE
  8
0
  6
CONTINUOUS
 62
     7
 10
486.1219787597656
 20
40.97409057617188
 11
525.8822631835937
 21
40.97409057617188
  0
LINE
  8
0
  6
CONTINUOUS
 62
     7
 10
31.4170970916748
 20
61.2043571472168
 11
39.00506973266602
 21
18.17082595825195
  0
ARC
  8
0
  6
CONTINUOUS
 62
     7
 10
43.42975234985352
 20
29.23804473876953
 40
1.000000000000003
 50
20.0000113710168
 51
82.33288293470724
  0
ARC
  8
0
  6
CONTINUOUS
 62
     7
 10
32.70502090454102
 20
53.90038299560547
 40
3.150000095367433
 50
10.00000056286661
 51
189.9999756897453
  0
ARC
  8
0
  6
CONTINUOUS
 62
     7
 10
41.68017959594727
 20
26.89868927001953
 40
1
 50
189.9999793322109
 51
280.000015987635
  0
ARC
  8
0
  6
CONTINUOUS
 62
     7
 10
33.50622940063477
 20
25.45740509033203
 40
0.9999999999999991
 50
279.9999613461216
 51
10.00000056286658
  0
ARC
  8
0
  6
CONTINUOUS
 62
     7
 10
31.06201553344727
 20
27.05728912353516
 40
1.000000000000002
 50
117.6670839263947
 51
179.999950367443
  0
ARC
  8
0
  6
CONTINUOUS
 62
     7
 10
54.35022354125977
 20
-68.85590362548828
 40
95
 50
56.37779867353802
 51
96.64934192564732
  0
ARC
  8
0
  6
CONTINUOUS
 62
     7
 10
54.35022354125977
 20
-68.85590362548828
 40
95
 50
103.9829638488142
 51
110.0169442069002
  0
ARC
  8
0
  6
CONTINUOUS
 62
     7
 10
54.35022354125977
 20
-68.85590362548828
 40
95.00000000000001
 50
116.9834366319897
 51
123.6222165807021
  0
ARC
  8
0
  6
CONTINUOUS
 62
     7
 10
4.350223541259766
 20
-190.8558959960937
 40
5
 50
179.9999776881996
 51
270.000028004002
  0
ARC
  8
0
  6
CONTINUOUS
 62
     7
 10
104.3501892089844
 20
-190.8558959960937
 40
4.99999999999999
 50
270.0000179860893
 51
2.504478146909864E-06
  0
ARC
  8
0
  6
CONTINUOUS
 62
     7
 10
106.3501892089844
 20
-208.8558959960937
 40
3.000000000000003
 50
2.504477929783997E-06
 51
89.99997518372153
  0
ARC
  8
0
  6
CONTINUOUS
 62
     7
 10
2.350223541259766
 20
-208.8558959960937
 40
2.999999999999997
 50
89.99997518372149
 51
179.9999776881997
  0
ARC
  8
0
  6
CONTINUOUS
 62
     7
 10
54.35022354125977
 20
-86.35590362548828
 40
110
 50
2.504478065487667E-06
 51
179.9999776881997
  0
ARC
  8
0
  6
CONTINUOUS
 62
     7
 10
149.3501892089844
 20
-181.8558959960937
 40
4.99999999999999
 50
270.0000179860893
 51
2.504478146909864E-06
  0
ARC
  8
0
  6
CONTINUOUS
 62
     7
 10
-40.64977645874023
 20
-181.8558959960937
 40
5.000000000000003
 50
179.9999776881996
 51
270.000028004002
  0
ARC
  8
0
  6
CONTINUOUS
 62
     7
 10
149.3501892089844
 20
-83.85590362548828
 40
5.000000000000004
 50
2.504478146909864E-06
 51
89.99997518372147
  0
ARC
  8
0
  6
CONTINUOUS
 62
     7
 10
156.9111633300781
 20
-63.85590362548828
 40
5.000000000000009
 50
12.37361424285106
 51
89.99997518372147
  0
CIRCLE
  8
0
  6
CONTINUOUS
 62
     7
 10
54.35022354125977
 20
-68.85590362548828
 40
62.5
  0
ARC
  8
0
  6
CONTINUOUS
 62
     7
 10
-40.64977645874023
 20
-83.85590362548828
 40
5
 50
89.99997518372147
 51
179.9999776881996
  0
ARC
  8
0
  6
CONTINUOUS
 62
     7
 10
-48.21075057983398
 20
-63.85590362548828
 40
5
 50
89.99997518372147
 51
167.6263523462912
  0
ARC
  8
0
  6
CONTINUOUS
 62
     7
 10
128.0965881347656
 20
-178.8558959960938
 40
7.999999999999995
 50
191.9999816645957
 51
270.0000179860892
  0
ARC
  8
0
  6
CONTINUOUS
 62
     7
 10
-19.39617538452148
 20
-178.8558959960938
 40
7.999999999999989
 50
269.999963344576
 51
348.0000022273906
  0
CIRCLE
  8
0
  6
CONTINUOUS
 62
     7
 10
54.35022354125977
 20
-68.85590362548828
 40
47.5
  0
ARC
  8
0
  6
CONTINUOUS
 62
     7
 10
54.35022354125977
 20
-68.85590362548828
 40
22.5
 50
108.1262112408573
 51
71.87379012563336
  0
ARC
  8
0
  6
CONTINUOUS
 62
     3
 10
54.35022354125977
 20
-68.85590362548828
 40
80.99999999999999
 50
23.68815642847287
 51
37.02404784895669
  0
ARC
  8
0
  6
CONTINUOUS
 62
     3
 10
54.35022354125977
 20
-68.85590362548828
 40
81
 50
83.68817005095602
 51
97.02405976389255
  0
ARC
  8
0
  6
CONTINUOUS
 62
     3
 10
54.35022354125977
 20
-68.85590362548828
 40
81
 50
203.6881702025367
 51
217.0240599154733
  0
ARC
  8
0
  6
CONTINUOUS
 62
     3
 10
54.35022354125977
 20
-68.85590362548828
 40
81
 50
263.6881650419997
 51
277.0240547549362
  0
ARC
  8
0
  6
CONTINUOUS
 62
     3
 10
54.35022354125977
 20
-68.85590362548828
 40
81
 50
323.6881598814626
 51
337.0240513019465
  0
ARC
  8
0
  6
CONTINUOUS
 62
     3
 10
54.35022354125977
 20
-68.85590362548828
 40
81
 50
143.688164890419
 51
157.0240546033555
  0
ARC
  8
0
  6
CONTINUOUS
 62
     7
 10
120.1624450683594
 20
-53.85590362548828
 40
4.999999999999995
 50
192.8395894985088
 51
269.9999974955218
  0
ARC
  8
0
  6
CONTINUOUS
 62
     7
 10
120.1624450683594
 20
-83.85590362548828
 40
4.999999999999996
 50
90.00000933466731
 51
167.1604105014912
  0
ARC
  8
0
  6
CONTINUOUS
 62
     7
 10
-11.46203231811523
 20
-53.85590362548828
 40
4.999999999999997
 50
269.9999974955218
 51
347.1604148840451
  0
ARC
  8
0
  6
CONTINUOUS
 62
     7
 10
-11.46203231811523
 20
-83.85590362548828
 40
5
 50
12.83959023859679
 51
90.00000250447816
  0
ARC
  8
0
  6
CONTINUOUS
 62
     7
 10
19.57519912719727
 20
-130.1824645996094
 40
8.000000000000007
 50
60.44473577707917
 51
168.0000183354043
  0
ARC
  8
0
  6
CONTINUOUS
 62
     7
 10
89.12509155273437
 20
-130.1825561523437
 40
8.000000000000007
 50
11.99999606506228
 51
119.5551257979047
  0
ARC
  8
0
  6
CONTINUOUS
 62
     7
 10
113.0232849121094
 20
-107.9419784545898
 40
8.000000000000004
 50
146.3297542122997
 51
191.9999916825084
  0
ARC
  8
0
  6
CONTINUOUS
 62
     7
 10
-4.322872161865234
 20
-107.9419174194336
 40
8
 50
348.0000022273905
 51
33.67016541929193
  0
ARC
  8
0
  6
CONTINUOUS
 62
     7
 10
415.3501892089844
 20
-178.8558959960938
 40
7.999999999999996
 50
270.0000179860895
 51
2.504478065487664E-06
  0
ARC
  8
0
  6
CONTINUOUS
 62
     7
 10
431.3501892089844
 20
-66.85588836669922
 40
8.000000000000007
 50
103.3424287084505
 51
179.9999640278213
  0
ARC
  8
0
  6
CONTINUOUS
 62
     7
 10
428.3501892089844
 20
-54.20677947998047
 40
5.000000000000002
 50
283.3423007560891
 51
2.504478065487664E-06
  0
ARC
  8
0
  6
CONTINUOUS
 62
     7
 10
508.3501892089844
 20
-60.93334197998047
 40
60
 50
179.9999776881997
 51
207.9999693604518
  0
ARC
  8
0
  6
CONTINUOUS
 62
     7
 10
516.3631591796875
 20
-171.8558959960937
 40
14.99999999999999
 50
207.9999866632957
 51
270.0000179860892
  0
ARC
  8
0
  6
CONTINUOUS
 62
     7
 10
337.5269775390625
 20
-166.2707824707031
 40
29.99999999999999
 50
316.6722476226335
 51
336.8987173306767
  0
ARC
  8
0
  6
CONTINUOUS
 62
     7
 10
365.9508361816406
 20
-111.192008972168
 40
5.000000000000021
 50
355.0000172209265
 51
89.99997518372179
  0
ARC
  8
0
  6
CONTINUOUS
 62
     7
 10
425.3501892089844
 20
4.065803527832031
 40
8.000000000000002
 50
273.0000009940992
 51
2.504478052765445E-06
  0
ARC
  8
0
  6
CONTINUOUS
 62
     7
 10
519.3502197265625
 20
-45.94017791748047
 40
3.000000000000034
 50
179.9999913485779
 51
246.9539861971381
  0
ARC
  8
0
  6
CONTINUOUS
 62
     7
 10
519.3502197265625
 20
-91.77159881591797
 40
3.000000000000014
 50
119.3085286481109
 51
180.0000050089564
  0
ARC
  8
0
  6
CONTINUOUS
 62
     7
 10
541.3502197265625
 20
215.158203125
 40
8.000000000000007
 50
2.504478065487664E-06
 51
18.10366398947621
  0
ARC
  8
0
  6
CONTINUOUS
 62
     7
 10
327.3501892089844
 20
291.1441040039063
 40
7.000000000000004
 50
270.0000179860895
 51
89.99997518372133
  0
CIRCLE
  8
0
  6
CONTINUOUS
 62
     7
 10
529.3502197265625
 20
201.1440734863281
 40
7.5
  0
CIRCLE
  8
0
  6
CONTINUOUS
 62
     7
 10
379.3501892089844
 20
201.1440734863281
 40
7.5
  0
CIRCLE
  8
0
  6
CONTINUOUS
 62
     7
 10
379.3501892089844
 20
381.1441650390625
 40
7.5
  0
CIRCLE
  8
0
  6
CONTINUOUS
 62
     7
 10
529.3502197265625
 20
381.1441650390625
 40
7.5
  0
ARC
  8
0
  6
CONTINUOUS
 62
     7
 10
425.3501892089844
 20
364.0657958984375
 40
8.000000000000028
 50
273.0000009940992
 51
2.504478065487664E-06
  0
ARC
  8
0
  6
CONTINUOUS
 62
     7
 10
425.3501892089844
 20
218.222412109375
 40
8.000000000000007
 50
2.504478065487664E-06
 51
86.99999217571178
  0
ARC
  8
0
  6
CONTINUOUS
 62
     7
 10
367.3501892089844
 20
393.1441040039063
 40
7.999999999999993
 50
90.00000933466724
 51
180.0000050089561
  0
ARC
  8
0
  6
CONTINUOUS
 62
     7
 10
541.3502197265625
 20
393.1441040039063
 40
8.000000000000007
 50
2.504478065487664E-06
 51
90.00000250447847
  0
ARC
  8
0
  6
CONTINUOUS
 62
     7
 10
367.3501892089844
 20
189.1441040039062
 40
7.999999999999977
 50
179.999991348578
 51
270.0000006832454
  0
ARC
  8
0
  6
CONTINUOUS
 62
     7
 10
541.3502197265625
 20
189.1441040039062
 40
8.000000000000007
 50
269.9999974955215
 51
2.504478065487664E-06
  0
ARC
  8
0
  6
CONTINUOUS
 62
     7
 10
504.3502197265625
 20
388.1441040039063
 40
3.000000000000006
 50
27.44011594334416
 51
90.00000250447847
  0
ARC
  8
0
  6
CONTINUOUS
 62
     7
 10
504.3502197265625
 20
194.1441040039063
 40
3.000000000000003
 50
269.9999974955215
 51
347.8069469304999
  0
ARC
  8
0
  6
CONTINUOUS
 62
     7
 10
541.3502197265625
 20
367.1300048828125
 40
8.00000000000005
 50
341.896284784105
 51
359.9999478629651
  0
ARC
  8
0
  6
CONTINUOUS
 62
     7
 10
603.8502197265625
 20
-111.8559036254883
 40
5
 50
0
 51
90.00000250447782
  0
ARC
  8
0
  6
CONTINUOUS
 62
     7
 10
603.8502197265625
 20
-25.85590362548828
 40
5.000000000000001
 50
269.9999974955222
 51
0
  0
ARC
  8
0
  6
CONTINUOUS
 62
     7
 10
590.8502197265625
 20
-25.85590362548828
 40
4.999999999999943
 50
179.999991348578
 51
270.0000006832456
  0
ARC
  8
0
  6
CONTINUOUS
 62
     7
 10
590.8502197265625
 20
-111.8559036254883
 40
5.000000000000004
 50
90.00000250447782
 51
180.0000050089563
  0
ARC
  8
0
  6
CONTINUOUS
 62
     7
 10
590.8502197265625
 20
248.1441040039062
 40
5.000000000000004
 50
90.00000250447782
 51
180.0000050089563
  0
ARC
  8
0
  6
CONTINUOUS
 62
     7
 10
590.8502197265625
 20
334.1441040039063
 40
4.999999999999943
 50
179.999991348578
 51
270.0000006832456
  0
ARC
  8
0
  6
CONTINUOUS
 62
     7
 10
603.8502197265625
 20
334.1441040039063
 40
5.000000000000004
 50
269.9999974955222
 51
0
  0
ARC
  8
0
  6
CONTINUOUS
 62
     7
 10
603.8502197265625
 20
248.1441040039062
 40
5
 50
0
 51
90.00000250447782
  0
POLYLINE
  8
0
  6
CONTINUOUS
 62
     7
 66
     1
 10
0
 20
0
 70
     1
  0
VERTEX
  8
0
  6
CONTINUOUS
 62
     7
 10
516.3502197265625
 20
40.95016479492188
 42
0.1005703077340631
  0
VERTEX
  8
0
  6
CONTINUOUS
 62
     7
 10
515.5788307936559
 20
44.74297327816775
 42
0.09931449812833346
  0
VERTEX
  8
0
  6
CONTINUOUS
 62
     7
 10
513.3951342260312
 20
47.93945629909252
 42
0.09762428285193318
  0
VERTEX
  8
0
  6
CONTINUOUS
 62
     7
 10
510.1529751366496
 20
50.05838285815813
 42
0.09645742257269131
  0
VERTEX
  8
0
  6
CONTINUOUS
 62
     7
 10
506.3501892089844
 20
50.79824829101563
 42
0.09643688895926227
  0
VERTEX
  8
0
  6
CONTINUOUS
 62
     7
 10
502.5481757841958
 20
50.05869358926378
 42
0.09759331655719371
  0
VERTEX
  8
0
  6
CONTINUOUS
 62
     7
 10
499.3067225109424
 20
47.94088634388154
 42
0.09935262410765344
  0
VERTEX
  8
0
  6
CONTINUOUS
 62
     7
 10
497.1217842207158
 20
44.74347121226193
 42
0.100583803778527
  0
VERTEX
  8
0
  6
CONTINUOUS
 62
     7
 10
496.3501892089844
 20
40.95016479492188
 42
0.1005699947687442
  0
VERTEX
  8
0
  6
CONTINUOUS
 62
     7
 10
497.1215747391526
 20
37.15735539117464
 42
0.09931492531922925
  0
VERTEX
  8
0
  6
CONTINUOUS
 62
     7
 10
499.3052693080356
 20
33.96087123252259
 42
0.09762488241832855
  0
VERTEX
  8
0
  6
CONTINUOUS
 62
     7
 10
502.5474315689372
 20
31.84195008960238
 42
0.09645674717906383
  0
VERTEX
  8
0
  6
CONTINUOUS
 62
     7
 10
506.3501892089844
 20
31.10209655761719
 42
0.09643631329063193
  0
VERTEX
  8
0
  6
CONTINUOUS
 62
     7
 10
510.1522036810089
 20
31.84164743432164
 42
0.09759283387108915
  0
VERTEX
  8
0
  6
CONTINUOUS
 62
     7
 10
513.393664113858
 20
33.95944415256679
 42
0.09935273675254222
  0
VERTEX
  8
0
  6
CONTINUOUS
 62
     7
 10
515.5786154718696
 20
37.15685033383692
 42
0.1005847378932498
  0
SEQEND
  8
0
  0
POLYLINE
  8
0
  6
CONTINUOUS
 62
     7
 66
     1
 10
0
 20
0
  0
VERTEX
  8
0
  6
CONTINUOUS
 62
     7
 10
513.9113818879072
 20
26.73211629835188
 42
0.08272208764927906
  0
VERTEX
  8
0
  6
CONTINUOUS
 62
     7
 10
518.1983297136683
 20
29.93345582742877
 42
0.08385217041265687
  0
VERTEX
  8
0
  6
CONTINUOUS
 62
     7
 10
521.2060413324372
 20
34.35838751373669
 42
0.08471382843513726
  0
VERTEX
  8
0
  6
CONTINUOUS
 62
     7
 10
522.5841057838352
 20
39.52774391569076
 42
0.08490407548014731
  0
VERTEX
  8
0
  6
CONTINUOUS
 62
     7
 10
522.1668365106832
 20
44.86009313814866
 42
0.08436954178625036
  0
VERTEX
  8
0
  6
CONTINUOUS
 62
     7
 10
520.0050509951918
 20
49.75333512218011
 42
0.08333423576392797
  0
VERTEX
  8
0
  6
CONTINUOUS
 62
     7
 10
516.3552722850637
 20
53.66560275803252
 42
0.08226390420858694
  0
VERTEX
  8
0
  6
CONTINUOUS
 62
     7
 10
511.6329042944679
 20
56.18267138169588
 42
0.08162591794676764
  0
VERTEX
  8
0
  6
CONTINUOUS
 62
     7
 10
506.3501892089844
 20
57.05038452148438
 42
0.08158655077867408
  0
VERTEX
  8
0
  6
CONTINUOUS
 62
     7
 10
501.0699215935906
 20
56.18349674133075
 42
0.08224719959432007
  0
VERTEX
  8
0
  6
CONTINUOUS
 62
     7
 10
496.3480082542067
 20
53.66781865345894
 42
0.0833389502263525
  0
VERTEX
  8
0
  6
CONTINUOUS
 62
     7
 10
492.6971664640602
 20
49.7560850932374
 42
0.08437839059442315
  0
VERTEX
  8
0
  6
CONTINUOUS
 62
     7
 10
490.5342313427885
 20
44.86270954221721
 42
0.08490740815315256
  0
VERTEX
  8
0
  6
CONTINUOUS
 62
     7
 10
490.1160785465669
 20
39.53019609609532
 42
0.08470978135291049
  0
VERTEX
  8
0
  6
CONTINUOUS
 62
     7
 10
491.4932301408816
 20
34.36086119667645
 42
0.08383838709161368
  0
VERTEX
  8
0
  6
CONTINUOUS
 62
     7
 10
494.499547070728
 20
29.93608465000656
 42
0.0827375319096583
  0
VERTEX
  8
0
  6
CONTINUOUS
 62
     7
 10
498.7866099056724
 20
26.73335241824622
 42
0
  0
SEQEND
  8
0
  0
POLYLINE
  8
0
  6
CONTINUOUS
 62
     7
 66
     1
 10
0
 20
0
  0
VERTEX
  8
0
  6
CONTINUOUS
 62
     7
 10
513.483449526907
 20
29.16974752636439
 42
0.2015076905991525
  0
VERTEX
  8
0
  6
CONTINUOUS
 62
     7
 10
512.7534473872257
 20
29.67823065859712
 42
0.0315597525213892
  0
VERTEX
  8
0
  6
CONTINUOUS
 62
     7
 10
511.863619373012
 20
29.91731498520683
 42
0.01542706805182362
  0
VERTEX
  8
0
  6
CONTINUOUS
 62
     7
 10
510.9559804152786
 20
30.07667917019073
 42
0.01021038759835317
  0
VERTEX
  8
0
  6
CONTINUOUS
 62
     7
 10
510.0404556162247
 20
30.19048606335313
 42
0.007829371658198697
  0
VERTEX
  8
0
  6
CONTINUOUS
 62
     7
 10
509.1213764071018
 20
30.27157639910052
 42
0.006588843920689742
  0
VERTEX
  8
0
  6
CONTINUOUS
 62
     7
 10
508.2001423339117
 20
30.32632245117918
 42
0.005931243019432145
  0
VERTEX
  8
0
  6
CONTINUOUS
 62
     7
 10
507.2777395816694
 20
30.35809086659584
 42
0.005641425016677836
  0
VERTEX
  8
0
  6
CONTINUOUS
 62
     7
 10
506.3548124864073
 20
30.36857579057088
 42
0.005639344148056005
  0
VERTEX
  8
0
  6
CONTINUOUS
 62
     7
 10
505.4319941995726
 20
30.35830213767716
 42
0.005918301204307952
  0
VERTEX
  8
0
  6
CONTINUOUS
 62
     7
 10
504.5108254388233
 20
30.32681314075836
 42
0.006584502417318179
  0
VERTEX
  8
0
  6
CONTINUOUS
 62
     7
 10
503.5888153923349
 20
30.27229103935996
 42
0.007814639850325199
  0
VERTEX
  8
0
  6
CONTINUOUS
 62
     7
 10
502.6693814909533
 20
30.19147399140918
 42
0.01018500144528437
  0
VERTEX
  8
0
  6
CONTINUOUS
 62
     7
 10
501.7531188349654
 20
30.07795323702216
 42
0.01540577614244804
  0
VERTEX
  8
0
  6
CONTINUOUS
 62
     7
 10
500.8428483331496
 20
29.91859649103745
 42
0.0314175387030723
  0
VERTEX
  8
0
  6
CONTINUOUS
 62
     7
 10
499.9515681783572
 20
29.67985985024746
 42
0.1997028641164105
  0
VERTEX
  8
0
  6
CONTINUOUS
 62
     7
 10
499.2173382297022
 20
29.17202805435614
 42
0
  0
SEQEND
  8
0
  0
POLYLINE
  8
0
  6
CONTINUOUS
 62
     7
 66
     1
 10
0
 20
0
  0
VERTEX
  8
0
  6
CONTINUOUS
 62
     7
 10
508.3495618867967
 20
18.456741790233
 42
0.001962844233737132
  0
VERTEX
  8
0
  6
CONTINUOUS
 62
     7
 10
508.8668060848596
 20
18.47358666602288
 42
0.002046125475003061
  0
VERTEX
  8
0
  6
CONTINUOUS
 62
     7
 10
509.3842439730087
 20
18.49458928864097
 42
0.002154574729960835
  0
VERTEX
  8
0
  6
CONTINUOUS
 62
     7
 10
509.9019016211874
 20
18.51995507719184
 42
0.00229417632560662
  0
VERTEX
  8
0
  6
CONTINUOUS
 62
     7
 10
510.4198066405193
 20
18.54994977553338
 42
0.002473599822371334
  0
VERTEX
  8
0
  6
CONTINUOUS
 62
     7
 10
510.9379883921047
 20
18.58491530007189
 42
0.00269280185282894
  0
VERTEX
  8
0
  6
CONTINUOUS
 62
     7
 10
511.4541290622556
 20
18.6250971045044
 42
0.002988794951984584
  0
VERTEX
  8
0
  6
CONTINUOUS
 62
     7
 10
511.9697911984525
 20
18.67113166932398
 42
0.003382616888388873
  0
VERTEX
  8
0
  6
CONTINUOUS
 62
     7
 10
512.4848428177629
 20
18.72371993297708
 42
0.003921198165737532
  0
VERTEX
  8
0
  6
CONTINUOUS
 62
     7
 10
512.9990997841774
 20
18.78380627075243
 42
0.004686231365814466
  0
VERTEX
  8
0
  6
CONTINUOUS
 62
     7
 10
513.5122923894711
 20
18.85270516147782
 42
0.005831653651772539
  0
VERTEX
  8
0
  6
CONTINUOUS
 62
     7
 10
514.0240002435
 20
18.93233065725669
 42
0.007680484788111408
  0
VERTEX
  8
0
  6
CONTINUOUS
 62
     7
 10
514.5335105465058
 20
19.02565322886072
 42
0.01102362637983278
  0
VERTEX
  8
0
  6
CONTINUOUS
 62
     7
 10
515.0394565515727
 20
19.1377384388205
 42
0.01832800109162801
  0
VERTEX
  8
0
  6
CONTINUOUS
 62
     7
 10
515.538632202738
 20
19.27863685517891
 42
0.0414882487682754
  0
VERTEX
  8
0
  6
CONTINUOUS
 62
     7
 10
516.0185502007314
 20
19.47416972269061
 42
0.2504881817017497
  0
VERTEX
  8
0
  6
CONTINUOUS
 62
     7
 10
516.3501160030748
 20
19.83929035499487
 42
0
  0
SEQEND
  8
0
  0
POLYLINE
  8
0
  6
CONTINUOUS
 62
     7
 66
     1
 10
0
 20
0
  0
VERTEX
  8
0
  6
CONTINUOUS
 62
     7
 10
508.3495922038284
 20
266.459335172239
 42
0.0179061678479855
  0
VERTEX
  8
0
  6
CONTINUOUS
 62
     7
 10
509.129392553716
 20
266.6283293439837
 42
0.01817267756436852
  0
VERTEX
  8
0
  6
CONTINUOUS
 62
     7
 10
509.8949627411528
 20
266.8530761587282
 42
0.01851584713657368
  0
VERTEX
  8
0
  6
CONTINUOUS
 62
     7
 10
510.6420166925138
 20
267.1333276100094
 42
0.01893460157351719
  0
VERTEX
  8
0
  6
CONTINUOUS
 62
     7
 10
511.3660514587631
 20
267.4686937152188
 42
0.01942668369864284
  0
VERTEX
  8
0
  6
CONTINUOUS
 62
     7
 10
512.0623141448222
 20
267.8585788293688
 42
0.0199879774990384
  0
VERTEX
  8
0
  6
CONTINUOUS
 62
     7
 10
512.7257808656155
 20
268.3021025765209
 42
0.02061168101969429
  0
VERTEX
  8
0
  6
CONTINUOUS
 62
     7
 10
513.3511534044832
 20
268.7980051403486
 42
0.02128736761160691
  0
VERTEX
  8
0
  6
CONTINUOUS
 62
     7
 10
513.9328807696255
 20
269.3445383022674
 42
0.02200003352183273
  0
VERTEX
  8
0
  6
CONTINUOUS
 62
     7
 10
514.4652139913228
 20
269.9393463144282
 42
0.02272931305618988
  0
VERTEX
  8
0
  6
CONTINUOUS
 62
     7
 10
514.942302631453
 20
270.5793445502783
 42
0.02344913693932504
  0
VERTEX
  8
0
  6
CONTINUOUS
 62
     7
 10
515.3583397051826
 20
271.2606086551674
 42
0.02412817994171183
  0
VERTEX
  8
0
  6
CONTINUOUS
 62
     7
 10
515.7077571099861
 20
271.9782918014078
 42
0.02473143054829523
  0
VERTEX
  8
0
  6
CONTINUOUS
 62
     7
 10
515.985465678444
 20
272.7265910518184
 42
0.02522305066347906
  0
VERTEX
  8
0
  6
CONTINUOUS
 62
     7
 10
516.1871231392714
 20
273.4987835558165
 42
0.02557034707846197
  0
VERTEX
  8
0
  6
CONTINUOUS
 62
     7
 10
516.3094017805317
 20
274.2873472571393
 42
0.02573529459296112
  0
VERTEX
  8
0
  6
CONTINUOUS
 62
     7
 10
516.3502194325373
 20
275.0837682234978
 42
0
  0
SEQEND
  8
0
  0
POLYLINE
  8
0
  6
CONTINUOUS
 62
     7
 66
     1
 10
0
 20
0
 70
     1
  0
VERTEX
  8
0
  6
CONTINUOUS
 62
     7
 10
506.3501892089844
 20
309.6871643066406
 42
0.01162444299467141
  0
VERTEX
  8
0
  6
CONTINUOUS
 62
     7
 10
502.9320782684606
 20
309.6086759012345
 42
0.01447190914942336
  0
VERTEX
  8
0
  6
CONTINUOUS
 62
     7
 10
499.5215679299936
 20
309.3551543548616
 42
0.02556015748985089
  0
VERTEX
  8
0
  6
CONTINUOUS
 62
     7
 10
496.1412324127069
 20
308.8429934448024
 42
0.1952857604347385
  0
VERTEX
  8
0
  6
CONTINUOUS
 62
     7
 10
493.2002013806633
 20
307.4015233562343
 42
0.1938970272380738
  0
VERTEX
  8
0
  6
CONTINUOUS
 62
     7
 10
496.1444734440057
 20
305.9637353057195
 42
0.02553160240440503
  0
VERTEX
  8
0
  6
CONTINUOUS
 62
     7
 10
499.5231169341246
 20
305.4520940617504
 42
0.01446609985519925
  0
VERTEX
  8
0
  6
CONTINUOUS
 62
     7
 10
502.9325324202987
 20
305.1987085385645
 42
0.01162307916172511
  0
VERTEX
  8
0
  6
CONTINUOUS
 62
     7
 10
506.3501892089844
 20
305.1202392578125
 42
0.01162475978672128
  0
VERTEX
  8
0
  6
CONTINUOUS
 62
     7
 10
509.7683000806884
 20
305.1987299294528
 42
0.01447216993486507
  0
VERTEX
  8
0
  6
CONTINUOUS
 62
     7
 10
513.1788099366811
 20
305.4522576372906
 42
0.02556038377380664
  0
VERTEX
  8
0
  6
CONTINUOUS
 62
     7
 10
516.5591439924091
 20
305.9644279518837
 42
0.1952839088699702
  0
VERTEX
  8
0
  6
CONTINUOUS
 62
     7
 10
519.5001770656369
 20
307.4059055987407
 42
0.1938987617646008
  0
VERTEX
  8
0
  6
CONTINUOUS
 62
     7
 10
516.5559052538113
 20
308.8436864504565
 42
0.02553136464353332
  0
VERTEX
  8
0
  6
CONTINUOUS
 62
     7
 10
513.1772602898352
 20
309.3553181108691
 42
0.01446583649055481
  0
VERTEX
  8
0
  6
CONTINUOUS
 62
     7
 10
509.7678443227298
 20
309.6086973730398
 42
0.01162275601261153
  0
SEQEND
  8
0
  0
POLYLINE
  8
0
  6
CONTINUOUS
 62
     7
 66
     1
 10
0
 20
0
  0
VERTEX
  8
0
  6
CONTINUOUS
 62
     7
 10
495.4238891601563
 20
314.8785705566406
 42
0.01843745302055794
  0
VERTEX
  8
0
  6
CONTINUOUS
 62
     7
 10
494.4429175165124
 20
314.6387459691431
 42
0.005075811189583902
  0
VERTEX
  8
0
  6
CONTINUOUS
 62
     7
 10
493.473504519223
 20
314.3556825784372
 42
0.02696775789314657
  0
VERTEX
  8
0
  6
CONTINUOUS
 62
     7
 10
492.5227971578387
 20
314.015814529428
 42
0.05660860915045761
  0
VERTEX
  8
0
  6
CONTINUOUS
 62
     7
 10
491.6429975100759
 20
313.5242208412741
 42
0.06337963988358282
  0
VERTEX
  8
0
  6
CONTINUOUS
 62
     7
 10
490.9152010256078
 20
312.8275579347069
 42
0.06341673131728795
  0
VERTEX
  8
0
  6
CONTINUOUS
 62
     7
 10
490.3788573232124
 20
311.973545911171
 42
0.07212840971791634
  0
VERTEX
  8
0
  6
CONTINUOUS
 62
     7
 10
490.0932739523074
 20
311.0085954829023
 42
0.07237627549706116
  0
VERTEX
  8
0
  6
CONTINUOUS
 62
     7
 10
490.0933854515621
 20
310.0023431705598
 42
0.07211558823951655
  0
VERTEX
  8
0
  6
CONTINUOUS
 62
     7
 10
490.379090974579
 20
309.0376336719251
 42
0.06331753580333299
  0
VERTEX
  8
0
  6
CONTINUOUS
 62
     7
 10
490.9145366764223
 20
308.1849448559493
 42
0.06336645381125629
  0
VERTEX
  8
0
  6
CONTINUOUS
 62
     7
 10
491.6421477328435
 20
307.4880904507784
 42
0.05664046506459185
  0
VERTEX
  8
0
  6
CONTINUOUS
 62
     7
 10
492.5218457743015
 20
306.9962835476196
 42
0.02700061982743584
  0
VERTEX
  8
0
  6
CONTINUOUS
 62
     7
 10
493.4727471699208
 20
306.6562386448588
 42
0.005081220920860001
  0
VERTEX
  8
0
  6
CONTINUOUS
 62
     7
 10
494.4426791441746
 20
306.373008579853
 42
0.01843986344257047
  0
VERTEX
  8
0
  6
CONTINUOUS
 62
     7
 10
495.4238891601563
 20
306.1331176757813
 42
0
  0
SEQEND
  8
0
  0
POLYLINE
  8
0
  6
CONTINUOUS
 62
     7
 66
     1
 10
0
 20
0
  0
VERTEX
  8
0
  6
CONTINUOUS
 62
     7
 10
498.6120914804833
 20
305.5544435672244
 42
0.04188734016533711
  0
VERTEX
  8
0
  6
CONTINUOUS
 62
     7
 10
499.0522242685506
 20
304.3264682803949
 42
0.04165598534641859
  0
VERTEX
  8
0
  6
CONTINUOUS
 62
     7
 10
499.6904719404261
 20
303.188544338146
 42
0.04136514178279594
  0
VERTEX
  8
0
  6
CONTINUOUS
 62
     7
 10
500.5079299921125
 20
302.1716903405831
 42
0.04106118601441724
  0
VERTEX
  8
0
  6
CONTINUOUS
 62
     7
 10
501.4812414294728
 20
301.3025543317237
 42
0.04077361735765875
  0
VERTEX
  8
0
  6
CONTINUOUS
 62
     7
 10
502.5833154104546
 20
300.6033749597946
 42
0.04052882274007111
  0
VERTEX
  8
0
  6
CONTINUOUS
 62
     7
 10
503.7841760512615
 20
300.0916275660506
 42
0.04034733608750127
  0
VERTEX
  8
0
  6
CONTINUOUS
 62
     7
 10
505.051752334972
 20
299.7798173670241
 42
0.04023512791696564
  0
VERTEX
  8
0
  6
CONTINUOUS
 62
     7
 10
506.3523761243845
 20
299.675354298354
 42
0.04022818555588476
  0
VERTEX
  8
0
  6
CONTINUOUS
 62
     7
 10
507.652719102819
 20
299.7804813801652
 42
0.04031534063042002
  0
VERTEX
  8
0
  6
CONTINUOUS
 62
     7
 10
508.9191491007979
 20
300.0926099023619
 42
0.04051117113714119
  0
VERTEX
  8
0
  6
CONTINUOUS
 62
     7
 10
510.1193050079854
 20
300.6045502412878
 42
0.04075958027913899
  0
VERTEX
  8
0
  6
CONTINUOUS
 62
     7
 10
511.2207968072137
 20
301.3037998690502
 42
0.04105987956230917
  0
VERTEX
  8
0
  6
CONTINUOUS
 62
     7
 10
512.1938512094378
 20
302.1731504000964
 42
0.04137769258896903
  0
VERTEX
  8
0
  6
CONTINUOUS
 62
     7
 10
513.0112681149277
 20
303.1905286015277
 42
0.04167559504991666
  0
VERTEX
  8
0
  6
CONTINUOUS
 62
     7
 10
513.6494191835505
 20
304.3291886950905
 42
0.04191667698333929
  0
VERTEX
  8
0
  6
CONTINUOUS
 62
     7
 10
514.0893136543629
 20
305.5581943523109
 42
0
  0
SEQEND
  8
0
  0
POLYLINE
  8
0
  6
CONTINUOUS
 62
     7
 66
     1
 10
0
 20
0
  0
VERTEX
  8
0
  6
CONTINUOUS
 62
     7
 10
517.2815940087687
 20
314.8772607798542
 42
0.01754289206237548
  0
VERTEX
  8
0
  6
CONTINUOUS
 62
     7
 10
515.9401268355678
 20
315.1704083427157
 42
0.01105010099460656
  0
VERTEX
  8
0
  6
CONTINUOUS
 62
     7
 10
514.5838392468268
 20
315.3884653430601
 42
0.008116856262946413
  0
VERTEX
  8
0
  6
CONTINUOUS
 62
     7
 10
513.2194652882202
 20
315.5551540345771
 42
0.006531319531220632
  0
VERTEX
  8
0
  6
CONTINUOUS
 62
     7
 10
511.8510330109008
 20
315.6820886816302
 42
0.005600276674168324
  0
VERTEX
  8
0
  6
CONTINUOUS
 62
     7
 10
510.4796546535691
 20
315.7759668198127
 42
0.005037415645223206
  0
VERTEX
  8
0
  6
CONTINUOUS
 62
     7
 10
509.1062645457422
 20
315.8407631672973
 42
0.004711557238688508
  0
VERTEX
  8
0
  6
CONTINUOUS
 62
     7
 10
507.731777611571
 20
315.8788415658717
 42
0.004561015432577619
  0
VERTEX
  8
0
  6
CONTINUOUS
 62
     7
 10
506.3568115520023
 20
315.8914792028534
 42
0.004559879267554104
  0
VERTEX
  8
0
  6
CONTINUOUS
 62
     7
 10
504.9819715665907
 20
315.8790855795875
 42
0.004705611812032358
  0
VERTEX
  8
0
  6
CONTINUOUS
 62
     7
 10
503.6085365247056
 20
315.8412983846402
 42
0.005034937341090361
  0
VERTEX
  8
0
  6
CONTINUOUS
 62
     7
 10
502.2345888933076
 20
315.7767615094701
 42
0.005594484049797812
  0
VERTEX
  8
0
  6
CONTINUOUS
 62
     7
 10
500.8628512784931
 20
315.6831669756767
 42
0.006523229989895705
  0
VERTEX
  8
0
  6
CONTINUOUS
 62
     7
 10
499.4936805333062
 20
315.5565102621716
 42
0.008102249944051653
  0
VERTEX
  8
0
  6
CONTINUOUS
 62
     7
 10
498.1285331193969
 20
315.3901356305905
 42
0.01103438098658373
  0
VERTEX
  8
0
  6
CONTINUOUS
 62
     7
 10
496.7700962047376
 20
315.1722282369603
 42
0.01751382694738846
  0
VERTEX
  8
0
  6
CONTINUOUS
 62
     7
 10
495.4259763569947
 20
314.879126402605
 42
0
  0
SEQEND
  8
0
  0
POLYLINE
  8
0
  6
CONTINUOUS
 62
     7
 66
     1
 10
0
 20
0
  0
VERTEX
  8
0
  6
CONTINUOUS
 62
     7
 10
517.2764892578125
 20
314.8785705566406
 42
-0.0184374770221514
  0
VERTEX
  8
0
  6
CONTINUOUS
 62
     7
 10
518.2574607734372
 20
314.6387459966314
 42
-0.005076613611180877
  0
VERTEX
  8
0
  6
CONTINUOUS
 62
     7
 10
519.2268734267766
 20
314.3556818764361
 42
-0.02696945053092063
  0
VERTEX
  8
0
  6
CONTINUOUS
 62
     7
 10
520.1775782808226
 20
314.0158073863162
 42
-0.05660805088246838
  0
VERTEX
  8
0
  6
CONTINUOUS
 62
     7
 10
521.0573722325012
 20
313.5242048546314
 42
-0.06337873051251949
  0
VERTEX
  8
0
  6
CONTINUOUS
 62
     7
 10
521.7851801997954
 20
312.8275546267384
 42
-0.06341097238268363
  0
VERTEX
  8
0
  6
CONTINUOUS
 62
     7
 10
522.3215442774606
 20
311.9735523499835
 42
-0.07216219936146308
  0
VERTEX
  8
0
  6
CONTINUOUS
 62
     7
 10
522.6070973155311
 20
311.0085982749407
 42
-0.07232946736619524
  0
VERTEX
  8
0
  6
CONTINUOUS
 62
     7
 10
522.6069856723223
 20
310.0023389155358
 42
-0.07214927077565808
  0
VERTEX
  8
0
  6
CONTINUOUS
 62
     7
 10
522.3213104270818
 20
309.0376267824531
 42
-0.06331170791291833
  0
VERTEX
  8
0
  6
CONTINUOUS
 62
     7
 10
521.7858447396956
 20
308.184948402895
 42
-0.06336567709440713
  0
VERTEX
  8
0
  6
CONTINUOUS
 62
     7
 10
521.0582214863217
 20
307.488106060615
 42
-0.05663995310383727
  0
VERTEX
  8
0
  6
CONTINUOUS
 62
     7
 10
520.1785285340173
 20
306.9962901700283
 42
-0.02700223427492504
  0
VERTEX
  8
0
  6
CONTINUOUS
 62
     7
 10
519.2276315390197
 20
306.6562396003708
 42
-0.005082037604044134
  0
VERTEX
  8
0
  6
CONTINUOUS
 62
     7
 10
518.2576999387113
 20
306.3730087566886
 42
-0.01843984306434612
  0
VERTEX
  8
0
  6
CONTINUOUS
 62
     7
 10
517.2764892578125
 20
306.1331176757813
 42
0
  0
SEQEND
  8
0
  0
TEXT
  8
0
  6
CONTINUOUS
 62
     7
 10
-42.07834577560425
 20
282.1441040039062
 40
18
 41
0.8440876583091353
  1
ＥＲＫ－ＮＡＣ－２００
  0
ENDSEC
  0
EOF
