  0
SECTION
  2
HEADER
  0
ENDSEC
  0
SECTION
  2
TABLES
  0
TABLE
  2
LTYPE
 70
    22
  0
LTYPE
  2
CONTINUOUS
 70
    64
  3
Solid line
 72
    65
 73
     0
 40
0.000000
  0
LTYPE
  2
DASHED
 70
    64
  3
__ __ __ __ __ __ __ __ __ __ __ __ __ __ __
 72
    65
 73
     2
 40
3.500000
 49
2.000000
 49
-1.500000
  0
LTYPE
  2
CENTER
 70
    64
  3
____ _ ____ _ ____ _ ____ _ ____ _ ____ _ ____
 72
    65
 73
     4
 40
17.500000
 49
13.000000
 49
-1.500000
 49
1.500000
 49
-1.500000
  0
LTYPE
  2
PHANTOM
 70
    64
  3
_____ _ _ _____ _ _ _____ _ _ _____ _ _ ____  
 72
    65
 73
     6
 40
15.500000
 49
8.000000
 49
-1.500000
 49
1.500000
 49
-1.500000
 49
1.500000
 49
-1.500000
  0
LTYPE
  2
DOT
 70
    64
  3
. . . . . . . . . . . . . . . . . . . . . . . .
 72
    65
 73
     2
 40
0.25
 49
0.0
 49
-0.25
  0
ENDTAB
  0
TABLE
  2
LAYER
 70
     1
  0
LAYER
  2
0
 70
     0
 62
     7
  6
CONTINUOUS
  0
ENDTAB
  0
TABLE
  2
STYLE
 70
     1
  0
STYLE
  2
STANDARD
 70
     0
 40
0.000000
 41
1.000000
 50
0.000000
 71
     0
 42
0.200000
  3
txt
  0
ENDTAB
  0
TABLE
  2
VIEW
 70
     0
  0
ENDTAB
  0
ENDSEC
  0
SECTION
  2
BLOCKS
  0
ENDSEC
  0
SECTION
  2
ENTITIES
  0
LINE
  8
0
  6
CONTINUOUS
 62
     7
 10
378
 20
-206.6106872558594
 11
378
 21
-352.5
  0
LINE
  8
0
  6
CONTINUOUS
 62
     7
 10
378
 20
-352.5
 11
393
 21
-352.5
  0
LINE
  8
0
  6
CONTINUOUS
 62
     7
 10
423
 20
-206.5
 11
423
 21
-353.5
  0
LINE
  8
0
  6
CONTINUOUS
 62
     7
 10
393
 20
-207.5
 11
393
 21
-222.5
  0
LINE
  8
0
  6
CONTINUOUS
 62
     7
 10
413
 20
-207.5
 11
413
 21
-352.5
  0
LINE
  8
0
  6
CONTINUOUS
 62
     7
 10
413
 20
-207.5
 11
423
 21
-207.5
  0
LINE
  8
0
  6
CONTINUOUS
 62
     7
 10
413
 20
-352.5
 11
423
 21
-352.5
  0
LINE
  8
0
  6
CONTINUOUS
 62
     7
 10
393
 20
-227.5
 11
408
 21
-227.5
  0
LINE
  8
0
  6
CONTINUOUS
 62
     7
 10
393
 20
-332.5
 11
408
 21
-332.5
  0
LINE
  8
0
  6
CONTINUOUS
 62
     7
 10
388
 20
-210.4266357421875
 11
388
 21
-349.5733642578125
  0
LINE
  8
0
  6
CONTINUOUS
 62
     7
 10
393
 20
-337.5
 11
393
 21
-352.5
  0
LINE
  8
0
  6
CONTINUOUS
 62
     7
 10
388
 20
-210.4266357421875
 11
393
 21
-210.4266357421875
  0
LINE
  8
0
  6
CONTINUOUS
 62
     7
 10
388
 20
-349.5733642578125
 11
393
 21
-349.5733642578125
  0
LINE
  8
0
  6
CONTINUOUS
 62
     7
 10
378
 20
-207.5
 11
394
 21
-207.5
  0
LINE
  8
0
  6
CONTINUOUS
 62
     7
 10
378.8667907714844
 20
-201.6702270507812
 11
378
 21
-206.6106719970703
  0
LINE
  8
0
  6
CONTINUOUS
 62
     7
 10
393.1332092285156
 20
-201.6702423095703
 11
394.0000305175781
 21
-206.6107025146484
  0
LINE
  8
0
  6
CONTINUOUS
 62
     7
 10
386.0000305175781
 20
-199.7381896972656
 11
380.4438781738281
 21
-200.9320526123047
  0
LINE
  8
0
  6
CONTINUOUS
 62
     7
 10
386.0000305175781
 20
-199.7381744384766
 11
391.5560302734375
 21
-200.9320220947266
  0
LINE
  8
0
  6
CONTINUOUS
 62
     7
 10
394
 20
-206.6106872558594
 11
394
 21
-207.5
  0
LINE
  8
0
  6
CONTINUOUS
 62
     7
 10
372.29443359375
 20
-355
 11
374.5
 21
-355
  0
LINE
  8
0
  6
CONTINUOUS
 62
     3
 10
185
 20
-280
 11
512.1875
 21
-280
  0
LINE
  8
0
  6
CONTINUOUS
 62
     7
 10
341.5
 20
-205
 11
374.5
 21
-205
  0
LINE
  8
0
  6
CONTINUOUS
 62
     7
 10
341.5000305175781
 20
-205.0000152587891
 11
338
 21
-209.1609191894531
  0
LINE
  8
0
  6
CONTINUOUS
 62
     7
 10
374.5
 20
-205
 11
378
 21
-209.160888671875
  0
LINE
  8
0
  6
CONTINUOUS
 62
     7
 10
374.5000305175781
 20
-355
 11
378.0000305175781
 21
-350.839111328125
  0
LINE
  8
0
  6
CONTINUOUS
 62
     7
 10
341.5
 20
-250.5653228759766
 11
374.5
 21
-250.5653228759766
  0
LINE
  8
0
  6
CONTINUOUS
 62
     7
 10
341.5
 20
-259.2552795410156
 11
374.5
 21
-259.2552795410156
  0
LINE
  8
0
  6
CONTINUOUS
 62
     7
 10
341.5
 20
-267.0502319335938
 11
374.5
 21
-267.0502319335938
  0
LINE
  8
0
  6
CONTINUOUS
 62
     7
 10
341.5
 20
-276.0000610351563
 11
374.5
 21
-276.0000610351563
  0
LINE
  8
0
  6
CONTINUOUS
 62
     7
 10
341.5
 20
-284.0000915527344
 11
374.5
 21
-284.0000915527344
  0
LINE
  8
0
  6
CONTINUOUS
 62
     7
 10
342.0305480957031
 20
-292.9499206542969
 11
374.5
 21
-292.9499206542969
  0
LINE
  8
0
  6
CONTINUOUS
 62
     7
 10
345.8323974609375
 20
-300.744873046875
 11
374.5
 21
-300.744873046875
  0
LINE
  8
0
  6
CONTINUOUS
 62
     7
 10
350.0707397460937
 20
-309.4347839355469
 11
374.5
 21
-309.4347839355469
  0
LINE
  8
0
  6
CONTINUOUS
 62
     7
 10
357.6737670898437
 20
-325.0232543945312
 11
374.5
 21
-325.0232543945312
  0
LINE
  8
0
  6
CONTINUOUS
 62
     7
 10
361.0987243652344
 20
-332.0454406738281
 11
374.5
 21
-332.0454406738281
  0
LINE
  8
0
  6
CONTINUOUS
 62
     7
 10
363.7597961425781
 20
-337.5014343261719
 11
374.5
 21
-337.5014343261719
  0
LINE
  8
0
  6
CONTINUOUS
 62
     7
 10
366.3730773925781
 20
-342.8594360351562
 11
374.5
 21
-342.8594360351562
  0
LINE
  8
0
  6
CONTINUOUS
 62
     7
 10
368.3240051269531
 20
-346.8594360351562
 11
374.5
 21
-346.8594360351562
  0
LINE
  8
0
  6
CONTINUOUS
 62
     7
 10
370.0758666992188
 20
-350.4512939453125
 11
374.5
 21
-350.4512939453125
  0
LINE
  8
0
  6
CONTINUOUS
 62
     7
 10
423
 20
-353.5
 11
445.5
 21
-353.5
  0
LINE
  8
0
  6
CONTINUOUS
 62
     7
 10
445.5
 20
-206.5
 11
445.5
 21
-353.5
  0
LINE
  8
0
  6
CONTINUOUS
 62
     7
 10
423
 20
-206.5
 11
445.5
 21
-206.5
  0
LINE
  8
0
  6
CONTINUOUS
 62
     7
 10
270
 20
-379
 11
270
 21
-395
  0
LINE
  8
0
  6
CONTINUOUS
 62
     7
 10
255
 20
-242.5
 11
255
 21
-317.5
  0
LINE
  8
0
  6
CONTINUOUS
 62
     7
 10
270
 20
-379
 11
311
 21
-379
  0
LINE
  8
0
  6
CONTINUOUS
 62
     7
 10
270
 20
-395
 11
420
 21
-395
  0
LINE
  8
0
  6
CONTINUOUS
 62
     7
 10
257
 20
-330
 11
277.5679931640625
 21
-330
  0
LINE
  8
0
  6
CONTINUOUS
 62
     7
 10
257
 20
-230
 11
285
 21
-230
  0
LINE
  8
0
  6
CONTINUOUS
 62
     7
 10
257
 20
-230
 11
257
 21
-241.3452606201172
  0
LINE
  8
0
  6
CONTINUOUS
 62
     7
 10
255
 20
-242.4999847412109
 11
257
 21
-241.3452758789063
  0
LINE
  8
0
  6
CONTINUOUS
 62
     7
 10
255.0000152587891
 20
-317.5
 11
257
 21
-318.6546936035156
  0
LINE
  8
0
  6
CONTINUOUS
 62
     7
 10
338
 20
-207.5000152587891
 11
338
 21
-273.1427001953125
  0
LINE
  8
0
  6
CONTINUOUS
 62
     7
 10
326
 20
-207.5000152587891
 11
326
 21
-265.3508911132812
  0
LINE
  8
0
  6
CONTINUOUS
 62
     7
 10
326
 20
-207.5000152587891
 11
338
 21
-207.5000152587891
  0
LINE
  8
0
  6
CONTINUOUS
 62
     7
 10
275
 20
-379
 11
278.0782165527344
 21
-320.26416015625
  0
LINE
  8
0
  6
CONTINUOUS
 62
     7
 10
316
 20
-278
 11
316
 21
-374
  0
LINE
  8
0
  6
CONTINUOUS
 62
     7
 10
200
 20
-259.5
 11
200
 21
-297.5
  0
LINE
  8
0
  6
CONTINUOUS
 62
     7
 10
200
 20
-262.5
 11
250
 21
-262.5
  0
LINE
  8
0
  6
CONTINUOUS
 62
     7
 10
200
 20
-297.5
 11
250
 21
-297.5
  0
LINE
  8
0
  6
CONTINUOUS
 62
     7
 10
250
 20
-302.5
 11
255
 21
-302.5
  0
LINE
  8
0
  6
CONTINUOUS
 62
     7
 10
250
 20
-257.5
 11
255
 21
-257.5
  0
LINE
  8
0
  6
CONTINUOUS
 62
     7
 10
200
 20
-259.5
 11
240
 21
-259.5
  0
LINE
  8
0
  6
CONTINUOUS
 62
     7
 10
240
 20
-259.5
 11
240
 21
-262.5
  0
LINE
  8
0
  6
CONTINUOUS
 62
     7
 10
250
 20
-257.5
 11
250
 21
-302.5
  0
LINE
  8
0
  6
CONTINUOUS
 62
     7
 10
420
 20
-379
 11
420
 21
-395
  0
LINE
  8
0
  6
CONTINUOUS
 62
     3
 10
405
 20
-369.7850341796875
 11
405
 21
-404.6123657226562
  0
LINE
  8
0
  6
CONTINUOUS
 62
     3
 10
285
 20
-369.7850341796875
 11
285
 21
-404.6123657226562
  0
LINE
  8
0
  6
DASHED
 62
     7
 10
291
 20
-379
 11
291
 21
-395
  0
LINE
  8
0
  6
DASHED
 62
     7
 10
279
 20
-379
 11
279
 21
-395
  0
LINE
  8
0
  6
DASHED
 62
     7
 10
411
 20
-379
 11
411
 21
-395
  0
LINE
  8
0
  6
DASHED
 62
     7
 10
399
 20
-379
 11
399
 21
-395
  0
LINE
  8
0
  6
CONTINUOUS
 62
     7
 10
343.060302734375
 20
-295.0612487792969
 11
381.2607421875
 21
-373.3836975097656
  0
LINE
  8
0
  6
CONTINUOUS
 62
     7
 10
285
 20
-230.0000152587891
 11
321.2616577148438
 21
-228.0996246337891
  0
LINE
  8
0
  6
CONTINUOUS
 62
     7
 10
257
 20
-318.6546936035156
 11
257
 21
-330
  0
LINE
  8
0
  6
CONTINUOUS
 62
     7
 10
390.2486877441406
 20
-379
 11
420
 21
-379
  0
LINE
  8
0
  6
CONTINUOUS
 62
     7
 10
378
 20
72.5
 11
378
 21
20.80316162109375
  0
LINE
  8
0
  6
CONTINUOUS
 62
     7
 10
378
 20
-72.5
 11
388
 21
-72.5
  0
LINE
  8
0
  6
CONTINUOUS
 62
     7
 10
378
 20
72.5
 11
388
 21
72.5
  0
LINE
  8
0
  6
CONTINUOUS
 62
     7
 10
423
 20
73.5
 11
423
 21
-73.5
  0
LINE
  8
0
  6
CONTINUOUS
 62
     7
 10
413
 20
72.5
 11
413
 21
-72.5
  0
LINE
  8
0
  6
CONTINUOUS
 62
     7
 10
413
 20
72.5
 11
423
 21
72.5
  0
LINE
  8
0
  6
CONTINUOUS
 62
     7
 10
413
 20
-72.5
 11
423
 21
-72.5
  0
LINE
  8
0
  6
CONTINUOUS
 62
     7
 10
393
 20
52.5
 11
408
 21
52.5
  0
LINE
  8
0
  6
CONTINUOUS
 62
     7
 10
393
 20
-52.5
 11
408
 21
-52.5
  0
LINE
  8
0
  6
CONTINUOUS
 62
     7
 10
388
 20
72.5
 11
388
 21
21.24783325195312
  0
LINE
  8
0
  6
CONTINUOUS
 62
     7
 10
393
 20
9.123565673828125
 11
393
 21
-20.39105224609375
  0
LINE
  8
0
  6
CONTINUOUS
 62
     7
 10
388
 20
-20.39105224609375
 11
393
 21
-20.39105224609375
  0
LINE
  8
0
  6
CONTINUOUS
 62
     7
 10
388
 20
-20.39105224609375
 11
388
 21
-72.5
  0
LINE
  8
0
  6
CONTINUOUS
 62
     7
 10
378
 20
10.97433471679687
 11
378
 21
-72.5
  0
LINE
  8
0
  6
CONTINUOUS
 62
     3
 10
185
 20
0
 11
508.1671752929687
 21
0
  0
LINE
  8
0
  6
CONTINUOUS
 62
     7
 10
341.5
 20
75
 11
374.5
 21
75
  0
LINE
  8
0
  6
CONTINUOUS
 62
     7
 10
341.4999694824219
 20
74.99999237060547
 11
337.9999694824219
 21
70.83909606933594
  0
LINE
  8
0
  6
CONTINUOUS
 62
     7
 10
374.5000305175781
 20
74.99993896484375
 11
378.0000305175781
 21
70.83904266357422
  0
LINE
  8
0
  6
CONTINUOUS
 62
     7
 10
374.4999694824219
 20
-74.99997711181641
 11
377.9999694824219
 21
-70.83908081054688
  0
LINE
  8
0
  6
CONTINUOUS
 62
     7
 10
341.5
 20
-75
 11
374.5
 21
-75
  0
LINE
  8
0
  6
CONTINUOUS
 62
     7
 10
341.5000305175781
 20
-75.00002288818359
 11
338.0000305175781
 21
-70.83914947509766
  0
LINE
  8
0
  6
CONTINUOUS
 62
     7
 10
341.5
 20
72.07391357421875
 11
374.5
 21
72.07391357421875
  0
LINE
  8
0
  6
CONTINUOUS
 62
     7
 10
341.5
 20
68.98251342773437
 11
374.5
 21
68.98251342773437
  0
LINE
  8
0
  6
CONTINUOUS
 62
     7
 10
341.5
 20
59.98248291015625
 11
374.5
 21
59.98248291015625
  0
LINE
  8
0
  6
CONTINUOUS
 62
     7
 10
341.5
 20
54.0025634765625
 11
374.5
 21
54.0025634765625
  0
LINE
  8
0
  6
CONTINUOUS
 62
     7
 10
341.5
 20
40.91079711914063
 11
374.5
 21
40.91079711914063
  0
LINE
  8
0
  6
CONTINUOUS
 62
     7
 10
341.5
 20
48.15170288085938
 11
374.5
 21
48.15170288085938
  0
LINE
  8
0
  6
CONTINUOUS
 62
     7
 10
341.5
 20
33.98257446289063
 11
374.5
 21
33.98257446289063
  0
LINE
  8
0
  6
CONTINUOUS
 62
     7
 10
341.5
 20
25.72195434570313
 11
374.5
 21
25.72195434570313
  0
LINE
  8
0
  6
CONTINUOUS
 62
     7
 10
341.5
 20
18.07150268554688
 11
370.4561767578125
 21
18.07150268554688
  0
LINE
  8
0
  6
CONTINUOUS
 62
     7
 10
341.5
 20
9.00006103515625
 11
374.5
 21
9.00006103515625
  0
LINE
  8
0
  6
CONTINUOUS
 62
     7
 10
341.5
 20
-68.98260498046875
 11
374.5
 21
-68.98260498046875
  0
LINE
  8
0
  6
CONTINUOUS
 62
     7
 10
341.5
 20
-72.07395935058594
 11
374.5
 21
-72.07395935058594
  0
LINE
  8
0
  6
CONTINUOUS
 62
     7
 10
423
 20
73.5
 11
445.5
 21
73.5
  0
LINE
  8
0
  6
CONTINUOUS
 62
     7
 10
423
 20
-73.5
 11
445.5
 21
-73.5
  0
LINE
  8
0
  6
CONTINUOUS
 62
     7
 10
445.5
 20
73.5
 11
445.5
 21
20.85109329223633
  0
LINE
  8
0
  6
CONTINUOUS
 62
     7
 10
284.9999694824219
 20
49.99997711181641
 11
321.2616882324219
 21
51.90037536621094
  0
LINE
  8
0
  6
CONTINUOUS
 62
     7
 10
255
 20
37.5
 11
255
 21
-37.5
  0
LINE
  8
0
  6
CONTINUOUS
 62
     7
 10
285
 20
-50
 11
257
 21
-50
  0
LINE
  8
0
  6
CONTINUOUS
 62
     7
 10
285
 20
50
 11
257
 21
50
  0
LINE
  8
0
  6
CONTINUOUS
 62
     7
 10
257
 20
50
 11
257
 21
37.5
  0
LINE
  8
0
  6
CONTINUOUS
 62
     7
 10
257
 20
-37.5
 11
255
 21
-37.5
  0
LINE
  8
0
  6
CONTINUOUS
 62
     7
 10
257
 20
37.5
 11
255
 21
37.5
  0
LINE
  8
0
  6
CONTINUOUS
 62
     7
 10
338
 20
79.50003051757813
 11
338
 21
-79.5
  0
LINE
  8
0
  6
CONTINUOUS
 62
     7
 10
326
 20
87.50003051757812
 11
326
 21
-87.5
  0
LINE
  8
0
  6
CONTINUOUS
 62
     7
 10
415
 20
87.50003051757812
 11
275
 21
87.50003051757812
  0
LINE
  8
0
  6
CONTINUOUS
 62
     7
 10
415
 20
-87.5
 11
275
 21
-87.5
  0
LINE
  8
0
  6
CONTINUOUS
 62
     7
 10
270
 20
82.50003051757812
 11
270
 21
50
  0
LINE
  8
0
  6
CONTINUOUS
 62
     7
 10
420
 20
-72.5
 11
420
 21
-82.5
  0
LINE
  8
0
  6
CONTINUOUS
 62
     7
 10
270
 20
-50
 11
270
 21
-82.5
  0
LINE
  8
0
  6
CONTINUOUS
 62
     7
 10
316
 20
-51.6246337890625
 11
316
 21
-87.5
  0
LINE
  8
0
  6
CONTINUOUS
 62
     7
 10
381
 20
-79.5
 11
338
 21
-79.5
  0
LINE
  8
0
  6
CONTINUOUS
 62
     7
 10
316
 20
51.6246337890625
 11
316
 21
87.50003051757812
  0
LINE
  8
0
  6
CONTINUOUS
 62
     7
 10
381
 20
79.50003051757813
 11
338
 21
79.50003051757813
  0
LINE
  8
0
  6
CONTINUOUS
 62
     7
 10
420
 20
72.5
 11
420
 21
82.50003051757812
  0
LINE
  8
0
  6
CONTINUOUS
 62
     3
 10
294.5550537109375
 20
-72.5
 11
275.9156494140625
 21
-72.5
  0
LINE
  8
0
  6
CONTINUOUS
 62
     3
 10
285
 20
-63.43426513671875
 11
285
 21
-81.3128662109375
  0
LINE
  8
0
  6
CONTINUOUS
 62
     3
 10
294.5550537109375
 20
72.5
 11
275.9156494140625
 21
72.5
  0
LINE
  8
0
  6
CONTINUOUS
 62
     3
 10
285
 20
63.43426513671875
 11
285
 21
81.31289672851562
  0
LINE
  8
0
  6
CONTINUOUS
 62
     3
 10
395.4449462890625
 20
-72.5
 11
413
 21
-72.5
  0
LINE
  8
0
  6
CONTINUOUS
 62
     3
 10
405
 20
-63.43426513671875
 11
405
 21
-81.3128662109375
  0
LINE
  8
0
  6
CONTINUOUS
 62
     3
 10
395.4449462890625
 20
72.5
 11
413
 21
72.5
  0
LINE
  8
0
  6
CONTINUOUS
 62
     3
 10
405
 20
63.43426513671875
 11
405
 21
81.31289672851562
  0
LINE
  8
0
  6
CONTINUOUS
 62
     7
 10
200
 20
17.5
 11
200
 21
-17.5
  0
LINE
  8
0
  6
CONTINUOUS
 62
     7
 10
200
 20
-17.5
 11
250
 21
-17.5
  0
LINE
  8
0
  6
CONTINUOUS
 62
     7
 10
200
 20
17.5
 11
250
 21
17.5
  0
LINE
  8
0
  6
CONTINUOUS
 62
     7
 10
250
 20
-22.5
 11
255
 21
-22.5
  0
LINE
  8
0
  6
CONTINUOUS
 62
     7
 10
250
 20
22.5
 11
255
 21
22.5
  0
LINE
  8
0
  6
CONTINUOUS
 62
     7
 10
250
 20
22.5
 11
250
 21
-22.5
  0
LINE
  8
0
  6
CONTINUOUS
 62
     7
 10
240
 20
5
 11
240
 21
-5
  0
LINE
  8
0
  6
CONTINUOUS
 62
     7
 10
243
 20
-5
 11
200
 21
-5
  0
LINE
  8
0
  6
CONTINUOUS
 62
     7
 10
243
 20
5
 11
200
 21
5
  0
LINE
  8
0
  6
CONTINUOUS
 62
     7
 10
285
 20
-49.99999618530273
 11
321.2616882324219
 21
-51.900390625
  0
LINE
  8
0
  6
CONTINUOUS
 62
     7
 10
257
 20
-37.5
 11
257
 21
-50
  0
LINE
  8
0
  6
CONTINUOUS
 62
     3
 10
-99.5
 20
-280
 11
99.64495849609375
 21
-280
  0
LINE
  8
0
  6
CONTINUOUS
 62
     3
 10
61.28524398803711
 20
-244.6160125732422
 11
45.14468383789062
 21
-253.9347686767578
  0
LINE
  8
0
  6
CONTINUOUS
 62
     7
 10
-87.5
 20
-295
 11
-87.5
 21
-395
  0
LINE
  8
0
  6
CONTINUOUS
 62
     7
 10
87.5
 20
-295
 11
87.5
 21
-395
  0
LINE
  8
0
  6
CONTINUOUS
 62
     7
 10
-87.5
 20
-395
 11
-42.5
 21
-395
  0
LINE
  8
0
  6
CONTINUOUS
 62
     7
 10
-87.5
 20
-379
 11
-42.5
 21
-379
  0
LINE
  8
0
  6
CONTINUOUS
 62
     7
 10
-42.5
 20
-379
 11
-42.5
 21
-395
  0
LINE
  8
0
  6
CONTINUOUS
 62
     7
 10
42.5
 20
-379
 11
42.5
 21
-395
  0
LINE
  8
0
  6
CONTINUOUS
 62
     7
 10
-39.5
 20
-392
 11
39.5
 21
-392
  0
LINE
  8
0
  6
CONTINUOUS
 62
     7
 10
-37.5
 20
-384
 11
37.5
 21
-384
  0
LINE
  8
0
  6
CONTINUOUS
 62
     7
 10
42.5
 20
-379
 11
87.5
 21
-379
  0
LINE
  8
0
  6
CONTINUOUS
 62
     7
 10
42.5
 20
-395
 11
87.5
 21
-395
  0
LINE
  8
0
  6
CONTINUOUS
 62
     7
 10
-79.5
 20
-295
 11
-79.5
 21
-374
  0
LINE
  8
0
  6
CONTINUOUS
 62
     7
 10
79.5
 20
-295
 11
79.5
 21
-374
  0
LINE
  8
0
  6
CONTINUOUS
 62
     7
 10
-42.49986267089844
 20
-379
 11
-29.79076385498047
 21
-331.5690002441406
  0
LINE
  8
0
  6
CONTINUOUS
 62
     7
 10
-51.26393890380859
 20
-373.0705261230469
 11
-36.82963943481445
 21
-319.2009887695313
  0
LINE
  8
0
  6
CONTINUOUS
 62
     7
 10
51.26400375366211
 20
-373.070556640625
 11
36.82970809936523
 21
-319.2010192871094
  0
LINE
  8
0
  6
CONTINUOUS
 62
     7
 10
42.50005340576172
 20
-379.0000610351563
 11
29.79095268249512
 21
-331.5690307617187
  0
LINE
  8
0
  6
CONTINUOUS
 62
     7
 10
-80.0390625
 20
-270
 11
-52.9150390625
 21
-270
  0
LINE
  8
0
  6
CONTINUOUS
 62
     7
 10
-74.5
 20
-290
 11
-52.9150390625
 21
-290
  0
LINE
  8
0
  6
CONTINUOUS
 62
     7
 10
74.5
 20
-290
 11
52.9150390625
 21
-290
  0
LINE
  8
0
  6
CONTINUOUS
 62
     7
 10
80.0390625
 20
-270
 11
52.9150390625
 21
-270
  0
LINE
  8
0
  6
CONTINUOUS
 62
     3
 10
0
 20
-192.5
 11
0
 21
-401.7731628417969
  0
LINE
  8
0
  6
CONTINUOUS
 62
     3
 10
-61.28562164306641
 20
-244.6167602539063
 11
-45.14506149291992
 21
-253.9355163574219
  0
LINE
  8
0
  6
CONTINUOUS
 62
     3
 10
-61.28576278686523
 20
-315.3829956054688
 11
-45.14520263671875
 21
-306.0642395019531
  0
LINE
  8
0
  6
CONTINUOUS
 62
     3
 10
61.28557205200195
 20
-315.3834533691406
 11
45.14501571655273
 21
-306.0646667480469
  0
LINE
  8
0
  6
CONTINUOUS
 62
     3
 10
72.5
 20
-370.30615234375
 11
72.5
 21
-402.2312622070313
  0
LINE
  8
0
  6
CONTINUOUS
 62
     3
 10
-72.5
 20
-370.30615234375
 11
-72.5
 21
-402.2312622070313
  0
LINE
  8
0
  6
CONTINUOUS
 62
     7
 10
-5
 20
-259.5
 11
-5
 21
-267.5
  0
LINE
  8
0
  6
CONTINUOUS
 62
     7
 10
5
 20
-259.5
 11
5
 21
-267.5
  0
LINE
  8
0
  6
CONTINUOUS
 62
     7
 10
-5
 20
-267.5
 11
5
 21
-267.5
  0
LINE
  8
0
  6
CONTINUOUS
 62
     7
 10
-5
 20
-259.5
 11
5
 21
-259.5
  0
LINE
  8
0
  6
DASHED
 62
     7
 10
-66.5
 20
-379
 11
-66.5
 21
-395
  0
LINE
  8
0
  6
DASHED
 62
     7
 10
-78.5
 20
-379
 11
-78.5
 21
-395
  0
LINE
  8
0
  6
DASHED
 62
     7
 10
66.5
 20
-379
 11
66.5
 21
-395
  0
LINE
  8
0
  6
DASHED
 62
     7
 10
78.5
 20
-379
 11
78.5
 21
-395
  0
LINE
  8
0
  6
CONTINUOUS
 62
     7
 10
-40.91072845458984
 20
-217.1405639648437
 11
-40.76251220703125
 21
-217.5747833251953
  0
LINE
  8
0
  6
CONTINUOUS
 62
     7
 10
-33.98255157470703
 20
-213.1405792236328
 11
-33.19535064697266
 21
-214.041259765625
  0
LINE
  8
0
  6
CONTINUOUS
 62
     7
 10
-25.72198486328125
 20
-209.5489807128906
 11
-25.54156875610352
 21
-211.3107757568359
  0
LINE
  8
0
  6
CONTINUOUS
 62
     7
 10
-18.07146072387695
 20
-207.2098693847656
 11
-17.02162551879883
 21
-209.171630859375
  0
LINE
  8
0
  6
CONTINUOUS
 62
     7
 10
-9.000118255615234
 20
-205.5420684814453
 11
-9.477849006652832
 21
-208.0148162841797
  0
LINE
  8
0
  6
CONTINUOUS
 62
     7
 10
-6.507799625396729
 20
-201.2601928710937
 11
-5.058305263519287
 21
-205.2426300048828
  0
LINE
  8
0
  6
CONTINUOUS
 62
     7
 10
-10.88455009460449
 20
-200.1304779052734
 11
-7.314095973968506
 21
-200.6111450195312
  0
LINE
  8
0
  6
CONTINUOUS
 62
     7
 10
-15.07009601593018
 20
-176.3928375244141
 11
-10.1819019317627
 21
-204.1151733398438
  0
LINE
  8
0
  6
CONTINUOUS
 62
     7
 10
-20.81521606445312
 20
-203.7829742431641
 11
-20.81521606445312
 21
-208.02099609375
  0
LINE
  8
0
  6
CONTINUOUS
 62
     7
 10
-17.08880043029785
 20
-201.2244873046875
 11
-20.2795352935791
 21
-202.8973236083984
  0
LINE
  8
0
  6
CONTINUOUS
 62
     7
 10
-21.27437210083008
 20
-177.4868774414062
 11
-16.38617897033691
 21
-205.2091979980469
  0
LINE
  8
0
  6
CONTINUOUS
 62
     7
 10
445.5
 20
-207.5
 11
448.6070861816406
 21
-207.5
  0
LINE
  8
0
  6
CONTINUOUS
 62
     7
 10
445.5
 20
-352.5
 11
445.5
 21
-207.5
  0
LINE
  8
0
  6
CONTINUOUS
 62
     7
 10
460.5
 20
-352.5
 11
460.5
 21
-207.5
  0
LINE
  8
0
  6
CONTINUOUS
 62
     7
 10
445.5
 20
-352.5
 11
460.5
 21
-352.5
  0
LINE
  8
0
  6
CONTINUOUS
 62
     7
 10
495.5
 20
-200
 11
495.5
 21
-360
  0
LINE
  8
0
  6
CONTINUOUS
 62
     7
 10
483.5
 20
-200
 11
495.5
 21
-200
  0
LINE
  8
0
  6
CONTINUOUS
 62
     7
 10
483.5
 20
-200
 11
483.5
 21
-360
  0
LINE
  8
0
  6
CONTINUOUS
 62
     7
 10
465.5
 20
-242
 11
478.5
 21
-242
  0
LINE
  8
0
  6
CONTINUOUS
 62
     7
 10
460.5
 20
-224
 11
483.5
 21
-224
  0
LINE
  8
0
  6
CONTINUOUS
 62
     7
 10
483.5
 20
-360
 11
495.5
 21
-360
  0
LINE
  8
0
  6
CONTINUOUS
 62
     7
 10
465.5
 20
-318
 11
478.5
 21
-318
  0
LINE
  8
0
  6
CONTINUOUS
 62
     7
 10
460.5
 20
-336
 11
483.5
 21
-336
  0
LINE
  8
0
  6
CONTINUOUS
 62
     7
 10
460.5
 20
-285
 11
483.5
 21
-285
  0
LINE
  8
0
  6
CONTINUOUS
 62
     7
 10
460.5
 20
-275
 11
483.5
 21
-275
  0
LINE
  8
0
  6
CONTINUOUS
 62
     7
 10
460.5
 20
5
 11
483.5
 21
5
  0
LINE
  8
0
  6
CONTINUOUS
 62
     7
 10
460.5
 20
-5
 11
483.5
 21
-5
  0
LINE
  8
0
  6
CONTINUOUS
 62
     7
 10
460.5
 20
-56
 11
483.5
 21
-56
  0
LINE
  8
0
  6
CONTINUOUS
 62
     7
 10
465.5
 20
-38
 11
478.5
 21
-38
  0
LINE
  8
0
  6
CONTINUOUS
 62
     7
 10
445.5
 20
0
 11
445.5
 21
72.5
  0
LINE
  8
0
  6
CONTINUOUS
 62
     7
 10
495.5
 20
80
 11
495.5
 21
-80
  0
LINE
  8
0
  6
CONTINUOUS
 62
     7
 10
483.5
 20
80
 11
495.5
 21
80
  0
LINE
  8
0
  6
CONTINUOUS
 62
     7
 10
483.5
 20
80
 11
483.5
 21
-80
  0
LINE
  8
0
  6
CONTINUOUS
 62
     7
 10
465.5
 20
38
 11
478.5
 21
38
  0
LINE
  8
0
  6
CONTINUOUS
 62
     7
 10
460.5
 20
56
 11
483.5
 21
56
  0
LINE
  8
0
  6
CONTINUOUS
 62
     7
 10
483.5
 20
-80
 11
495.5
 21
-80
  0
LINE
  8
0
  6
CONTINUOUS
 62
     7
 10
460.5
 20
0
 11
460.5
 21
72.5
  0
LINE
  8
0
  6
CONTINUOUS
 62
     7
 10
445.5
 20
72.5
 11
460.5
 21
72.5
  0
LINE
  8
0
  6
CONTINUOUS
 62
     7
 10
445.5
 20
-72.5
 11
460.5
 21
-72.5
  0
LINE
  8
0
  6
CONTINUOUS
 62
     7
 10
460.5
 20
-72.5
 11
460.5
 21
9.170654296875
  0
LINE
  8
0
  6
CONTINUOUS
 62
     7
 10
445.5
 20
-72.5
 11
445.5
 21
11.0224609375
  0
LINE
  8
0
  6
CONTINUOUS
 62
     7
 10
445.5
 20
11.02219772338867
 11
445.5
 21
-73.5
  0
LINE
  8
0
  6
CONTINUOUS
 62
     7
 10
445.5
 20
-207.5
 11
448.6071166992187
 21
-207.5
  0
LINE
  8
0
  6
CONTINUOUS
 62
     7
 10
458.3928833007813
 20
-207.5
 11
460.5
 21
-207.5
  0
LINE
  8
0
  6
CONTINUOUS
 62
     7
 10
445.5
 20
-207.5
 11
460.5
 21
-207.5
  0
LINE
  8
0
  6
CONTINUOUS
 62
     7
 10
-19.48779487609863
 20
-169.4789428710937
 11
-11.69667339324951
 21
-213.6645965576172
  0
LINE
  8
0
  6
CONTINUOUS
 62
     7
 10
364.7316284179687
 20
-189.8661499023438
 11
406.3375244140625
 21
-189.8661499023438
  0
LINE
  8
0
  6
CONTINUOUS
 62
     7
 10
386
 20
-169.8382110595703
 11
386
 21
-210.7468109130859
  0
ARC
  8
0
  6
CONTINUOUS
 62
     7
 10
398
 20
-222.5
 40
4.999999999999981
 50
179.9999776881996
 51
270.0000280040023
  0
ARC
  8
0
  6
CONTINUOUS
 62
     7
 10
393
 20
-222.5
 40
4.999999999999981
 50
179.9999776881996
 51
270.0000280040023
  0
ARC
  8
0
  6
CONTINUOUS
 62
     7
 10
393
 20
-337.5
 40
4.999999999999981
 50
89.99992737239761
 51
179.9999640278213
  0
ARC
  8
0
  6
CONTINUOUS
 62
     7
 10
398
 20
-337.5
 40
4.999999999999981
 50
89.99992737239761
 51
179.9999640278213
  0
ARC
  8
0
  6
CONTINUOUS
 62
     7
 10
408
 20
-222.5
 40
5.000000000000004
 50
269.9999974955215
 51
0
  0
ARC
  8
0
  6
CONTINUOUS
 62
     7
 10
408
 20
-337.5
 40
5
 50
0
 51
90.00000250447847
  0
ARC
  8
0
  6
CONTINUOUS
 62
     7
 10
311
 20
-374
 40
5.000000000000019
 50
270.0000179860891
 51
0
  0
ARC
  8
0
  6
CONTINUOUS
 62
     7
 10
324
 20
-278
 40
8.000000000000018
 50
103.3424218782613
 51
179.9999640278211
  0
ARC
  8
0
  6
CONTINUOUS
 62
     7
 10
321
 20
-265.3508911132812
 40
5.000000000000002
 50
283.3423007560891
 51
0
  0
ARC
  8
0
  6
CONTINUOUS
 62
     7
 10
273.0850524902344
 20
-320.0025024414063
 40
4.99999999999998
 50
357.0000876417595
 51
89.99998201391097
  0
ARC
  8
0
  6
CONTINUOUS
 62
     7
 10
388
 20
-273.1427001953125
 40
49.99999999999998
 50
179.9999776881997
 51
206.0000080092019
  0
ARC
  8
0
  6
CONTINUOUS
 62
     7
 10
390.2486877441406
 20
-369
 40
10
 50
206.0000116516676
 51
270.0000179860893
  0
ARC
  8
0
  6
CONTINUOUS
 62
     7
 10
321
 20
-223.1064758300781
 40
5.000000000000009
 50
273.0000009940987
 51
0
  0
ARC
  8
0
  6
CONTINUOUS
 62
     7
 10
393
 20
-57.5
 40
4.999999999999997
 50
89.99998201391097
 51
179.9999640278213
  0
ARC
  8
0
  6
CONTINUOUS
 62
     7
 10
393
 20
57.5
 40
4.999999999999981
 50
179.9999776881996
 51
270.0000280040023
  0
ARC
  8
0
  6
CONTINUOUS
 62
     7
 10
408
 20
-57.5
 40
5
 50
0
 51
90.00000250447847
  0
ARC
  8
0
  6
CONTINUOUS
 62
     7
 10
408
 20
57.5
 40
4.999999999999997
 50
269.9999974955215
 51
0
  0
ARC
  8
0
  6
CONTINUOUS
 62
     7
 10
415
 20
-82.5
 40
5.000000000000004
 50
270.0000179860891
 51
0
  0
ARC
  8
0
  6
CONTINUOUS
 62
     7
 10
415
 20
82.50003051757812
 40
5
 50
0
 51
89.99998201391097
  0
ARC
  8
0
  6
CONTINUOUS
 62
     7
 10
275
 20
82.50003051757812
 40
5.000000000000004
 50
89.99998201391097
 51
179.9999640278213
  0
ARC
  8
0
  6
CONTINUOUS
 62
     7
 10
275
 20
-82.5
 40
4.999999999999981
 50
179.9999776881996
 51
270.0000280040023
  0
CIRCLE
  8
0
  6
CONTINUOUS
 62
     7
 10
285
 20
-72.5
 40
6
  0
CIRCLE
  8
0
  6
CONTINUOUS
 62
     7
 10
285
 20
72.5
 40
6
  0
CIRCLE
  8
0
  6
CONTINUOUS
 62
     7
 10
405
 20
-72.5
 40
6
  0
CIRCLE
  8
0
  6
CONTINUOUS
 62
     7
 10
405
 20
72.5
 40
6
  0
ARC
  8
0
  6
CONTINUOUS
 62
     7
 10
243
 20
0
 40
5
 50
270.0000179860893
 51
89.99998201391064
  0
ARC
  8
0
  6
CONTINUOUS
 62
     7
 10
321
 20
56.8935546875
 40
5.000000000000002
 50
273.0000009940987
 51
0
  0
ARC
  8
0
  6
CONTINUOUS
 62
     7
 10
321
 20
-56.89352416992188
 40
5
 50
0
 51
86.99999900590066
  0
ARC
  8
0
  6
CONTINUOUS
 62
     7
 10
381
 20
76.50003051757812
 40
3.000000000000025
 50
20.02283274058108
 51
90.00000250447847
  0
ARC
  8
0
  6
CONTINUOUS
 62
     7
 10
381
 20
-76.5
 40
3.000000000000003
 50
269.9999974955215
 51
343.6299507199943
  0
ARC
  8
0
  6
CONTINUOUS
 62
     7
 10
0
 20
-295
 40
87.5
 50
0
 51
179.9999640278213
  0
ARC
  8
0
  6
CONTINUOUS
 62
     7
 10
-37.5
 20
-379
 40
5.000000000000003
 50
179.9999776881996
 51
270.000028004002
  0
ARC
  8
0
  6
CONTINUOUS
 62
     7
 10
37.5
 20
-379
 40
5.000000000000019
 50
270.0000179860893
 51
0
  0
ARC
  8
0
  6
CONTINUOUS
 62
     7
 10
-39.5
 20
-395
 40
2.999999999999977
 50
89.9999820139107
 51
179.9999640278208
  0
ARC
  8
0
  6
CONTINUOUS
 62
     7
 10
39.5
 20
-395
 40
3
 50
0
 51
89.9999820139107
  0
ARC
  8
0
  6
CONTINUOUS
 62
     7
 10
-74.5
 20
-374
 40
4.999999999999996
 50
179.9999776881996
 51
270.0000280040019
  0
ARC
  8
0
  6
CONTINUOUS
 62
     7
 10
74.5
 20
-374
 40
5.000000000000019
 50
270.0000179860893
 51
0
  0
CIRCLE
  8
0
  6
CONTINUOUS
 62
     7
 10
0
 20
-280
 40
50
  0
ARC
  8
0
  6
CONTINUOUS
 62
     7
 10
-58.9913330078125
 20
-371
 40
7.999999999999996
 50
270.0000179860893
 51
345.0000422712693
  0
ARC
  8
0
  6
CONTINUOUS
 62
     7
 10
-22.0634765625
 20
-333.6395568847656
 40
7.999999999999992
 50
67.64140557719809
 51
165.0000626481512
  0
ARC
  8
0
  6
CONTINUOUS
 62
     7
 10
-44.55706787109375
 20
-317.1304321289062
 40
8.000000000000004
 50
344.9999893373031
 51
39.80524965256698
  0
ARC
  8
0
  6
CONTINUOUS
 62
     7
 10
58.9913330078125
 20
-371
 40
8.000000000000007
 50
194.9999373518488
 51
269.999963344576
  0
ARC
  8
0
  6
CONTINUOUS
 62
     7
 10
44.55706787109375
 20
-317.1304321289062
 40
8.000000000000011
 50
140.1947143752541
 51
194.9999746905182
  0
ARC
  8
0
  6
CONTINUOUS
 62
     7
 10
22.0634765625
 20
-333.6395568847656
 40
8.000000000000007
 50
14.9999013796702
 51
112.3585584506233
  0
ARC
  8
0
  6
CONTINUOUS
 62
     7
 10
-80.0390625
 20
-275
 40
5.000000000000019
 50
89.99998201391064
 51
165.9703866423999
  0
ARC
  8
0
  6
CONTINUOUS
 62
     7
 10
-74.5
 20
-295
 40
5.000000000000019
 50
89.99998201391064
 51
179.9999640278213
  0
ARC
  8
0
  6
CONTINUOUS
 62
     7
 10
-52.9150390625
 20
-265
 40
5.000000000000019
 50
270.0000179860893
 51
344.1735159571643
  0
ARC
  8
0
  6
CONTINUOUS
 62
     7
 10
-52.9150390625
 20
-295
 40
5
 50
15.82648404283571
 51
89.99998201391064
  0
ARC
  8
0
  6
CONTINUOUS
 62
     7
 10
74.5
 20
-295
 40
5
 50
0
 51
89.99998201391064
  0
ARC
  8
0
  6
CONTINUOUS
 62
     7
 10
52.9150390625
 20
-295
 40
5.000000000000019
 50
89.99998201391064
 51
164.1734868151747
  0
ARC
  8
0
  6
CONTINUOUS
 62
     7
 10
52.9150390625
 20
-265
 40
5.000000000000007
 50
195.8264585433123
 51
269.9999565143868
  0
ARC
  8
0
  6
CONTINUOUS
 62
     7
 10
80.0390625
 20
-275
 40
5.000000000000007
 50
14.02957738542145
 51
89.99998201391064
  0
ARC
  8
0
  6
CONTINUOUS
 62
     3
 10
0
 20
-280
 40
64
 50
21.30455530437453
 51
38.19749825402698
  0
ARC
  8
0
  6
CONTINUOUS
 62
     3
 10
0
 20
-280
 40
64
 50
81.30455697402664
 51
98.1975204142466
  0
ARC
  8
0
  6
CONTINUOUS
 62
     3
 10
0
 20
-280
 40
64
 50
141.3045518134896
 51
158.1975084235204
  0
ARC
  8
0
  6
CONTINUOUS
 62
     3
 10
0
 20
-280
 40
64
 50
201.3045707859857
 51
218.1975137356381
  0
ARC
  8
0
  6
CONTINUOUS
 62
     3
 10
0
 20
-280
 40
64
 50
261.3045656254486
 51
278.1975085751011
  0
ARC
  8
0
  6
CONTINUOUS
 62
     3
 10
0
 20
-280
 40
64
 50
321.3045604649116
 51
338.197503414564
  0
ARC
  8
0
  6
CONTINUOUS
 62
     7
 10
0
 20
-280
 40
17.49999999999998
 50
106.6015695841379
 51
73.39842495216357
  0
CIRCLE
  8
0
  6
CONTINUOUS
 62
     7
 10
0
 20
-280
 40
37.5
  0
ARC
  8
0
  6
CONTINUOUS
 62
     7
 10
0
 20
-280
 40
74.99999999999999
 50
116.9428106668065
 51
123.057277974072
  0
ARC
  8
0
  6
CONTINUOUS
 62
     7
 10
0
 20
-280
 40
75.00000000000001
 50
103.9428023364945
 51
110.05726964376
  0
ARC
  8
0
  6
CONTINUOUS
 62
     7
 10
0
 20
-280
 40
75
 50
53.39618545930109
 51
96.89213466007376
  0
ARC
  8
0
  6
CONTINUOUS
 62
     7
 10
-18.1722412109375
 20
-176.9398651123047
 40
3.150000095367433
 50
9.999998855319467
 51
189.9999620293669
  0
ARC
  8
0
  6
CONTINUOUS
 62
     7
 10
-19.81521606445313
 20
-203.7829742431641
 40
1.000000000000008
 50
117.6670839263945
 51
179.9999503674436
  0
ARC
  8
0
  6
CONTINUOUS
 62
     7
 10
-7.447479248046875
 20
-201.6022033691406
 40
0.999999999999999
 50
20.00001137101667
 51
82.33288293470702
  0
ARC
  8
0
  6
CONTINUOUS
 62
     7
 10
-9.197113037109375
 20
-203.9415588378906
 40
1.000000000000001
 50
189.9999793322113
 51
280.0000159876348
  0
ARC
  8
0
  6
CONTINUOUS
 62
     7
 10
-17.37100219726563
 20
-205.3828430175781
 40
0.9999999999999991
 50
279.9999613461216
 51
9.999998855319541
  0
ARC
  8
0
  6
CONTINUOUS
 62
     7
 10
465.5
 20
-237
 40
5
 50
179.999991348578
 51
270.0000006832456
  0
ARC
  8
0
  6
CONTINUOUS
 62
     7
 10
465.5
 20
-323
 40
5.000000000000004
 50
90.00000250447847
 51
180.0000050089563
  0
ARC
  8
0
  6
CONTINUOUS
 62
     7
 10
478.5
 20
-323
 40
5
 50
0
 51
90.00000250447847
  0
ARC
  8
0
  6
CONTINUOUS
 62
     7
 10
478.5
 20
-237
 40
5.000000000000004
 50
269.9999974955215
 51
0
  0
ARC
  8
0
  6
CONTINUOUS
 62
     7
 10
478.5
 20
43
 40
4.999999999999997
 50
269.9999974955215
 51
0
  0
ARC
  8
0
  6
CONTINUOUS
 62
     7
 10
478.5
 20
-43
 40
5
 50
0
 51
90.00000250447847
  0
ARC
  8
0
  6
CONTINUOUS
 62
     7
 10
465.5
 20
43
 40
5
 50
179.999991348578
 51
270.0000006832456
  0
ARC
  8
0
  6
CONTINUOUS
 62
     7
 10
465.5
 20
-43
 40
4.999999999999997
 50
90.00000250447847
 51
180.0000050089563
  0
ARC
  8
0
  6
CONTINUOUS
 62
     7
 10
0
 20
-280
 40
80
 50
25.44772927188404
 51
94.91861297110111
  0
ARC
  8
0
  6
CONTINUOUS
 62
     7
 10
0
 20
-280
 40
80
 50
105.0813470598115
 51
154.5522637842412
  0
POLYLINE
  8
0
  6
CONTINUOUS
 62
     7
 66
     1
 10
0
 20
0
  0
VERTEX
  8
0
  6
CONTINUOUS
 62
     7
 10
393.5611857662015
 20
-204.1081479795612
 42
0.08272224610718307
  0
VERTEX
  8
0
  6
CONTINUOUS
 62
     7
 10
397.8481256351077
 20
-200.9067977993125
 42
0.08385196407258805
  0
VERTEX
  8
0
  6
CONTINUOUS
 62
     7
 10
400.855826819533
 20
-196.4818587292408
 42
0.08471339104960046
  0
VERTEX
  8
0
  6
CONTINUOUS
 62
     7
 10
402.2338859651703
 20
-191.3125005175409
 42
0.08490374353108286
  0
VERTEX
  8
0
  6
CONTINUOUS
 62
     7
 10
401.816619700727
 20
-185.9801507077653
 42
0.0843694775850944
  0
VERTEX
  8
0
  6
CONTINUOUS
 62
     7
 10
399.6548408370375
 20
-181.0869055890044
 42
0.08333442676213308
  0
VERTEX
  8
0
  6
CONTINUOUS
 62
     7
 10
396.0050664009046
 20
-177.1746339261113
 42
0.08226418733022309
  0
VERTEX
  8
0
  6
CONTINUOUS
 62
     7
 10
391.2826987083849
 20
-174.6575648400349
 42
0.08162580224457616
  0
VERTEX
  8
0
  6
CONTINUOUS
 62
     7
 10
386
 20
-173.7898559570313
 42
0.08158656035584474
  0
VERTEX
  8
0
  6
CONTINUOUS
 62
     7
 10
380.719732259612
 20
-174.656743672892
 42
0.08224720682324282
  0
VERTEX
  8
0
  6
CONTINUOUS
 62
     7
 10
375.997818865969
 20
-177.172421905176
 42
0.08333895139427688
  0
VERTEX
  8
0
  6
CONTINUOUS
 62
     7
 10
372.3469771366065
 20
-181.0841556842338
 42
0.08437838601912281
  0
VERTEX
  8
0
  6
CONTINUOUS
 62
     7
 10
370.1840421068167
 20
-185.9775314094218
 42
0.08490739937959269
  0
VERTEX
  8
0
  6
CONTINUOUS
 62
     7
 10
369.7658893208627
 20
-191.3100449677545
 42
0.08470956744722827
  0
VERTEX
  8
0
  6
CONTINUOUS
 62
     7
 10
371.1430389621768
 20
-196.479380661759
 42
0.08383810926025481
  0
VERTEX
  8
0
  6
CONTINUOUS
 62
     7
 10
374.1493496963619
 20
-200.9041617364766
 42
0.08273741865118138
  0
VERTEX
  8
0
  6
CONTINUOUS
 62
     7
 10
378.4364054732181
 20
-204.1069037545193
 42
0
  0
SEQEND
  8
0
  0
POLYLINE
  8
0
  6
CONTINUOUS
 62
     7
 66
     1
 10
0
 20
0
 70
     1
  0
VERTEX
  8
0
  6
CONTINUOUS
 62
     7
 10
396
 20
-189.8900909423828
 42
0.1005697614596684
  0
VERTEX
  8
0
  6
CONTINUOUS
 62
     7
 10
395.2286164258952
 20
-186.0972835948851
 42
0.09931459426854901
  0
VERTEX
  8
0
  6
CONTINUOUS
 62
     7
 10
393.0449283026197
 20
-182.900797913141
 42
0.09762475566249065
  0
VERTEX
  8
0
  6
CONTINUOUS
 62
     7
 10
389.8027735203133
 20
-180.7818698241244
 42
0.09645742494749789
  0
VERTEX
  8
0
  6
CONTINUOUS
 62
     7
 10
386
 20
-180.0420074462891
 42
0.09643683433005411
  0
VERTEX
  8
0
  6
CONTINUOUS
 62
     7
 10
382.1979889324393
 20
-180.7815611270046
 42
0.09759325526350764
  0
VERTEX
  8
0
  6
CONTINUOUS
 62
     7
 10
378.9565369725482
 20
-182.8993658033249
 42
0.09935255147166855
  0
VERTEX
  8
0
  6
CONTINUOUS
 62
     7
 10
376.7715980621026
 20
-186.0967774812675
 42
0.1005839922554352
  0
VERTEX
  8
0
  6
CONTINUOUS
 62
     7
 10
376
 20
-189.8900909423828
 42
0.100569938058667
  0
VERTEX
  8
0
  6
CONTINUOUS
 62
     7
 10
376.7713844715514
 20
-193.6828980014488
 42
0.09931486592913655
  0
VERTEX
  8
0
  6
CONTINUOUS
 62
     7
 10
378.955076428439
 20
-196.8793809132591
 42
0.0976248160412988
  0
VERTEX
  8
0
  6
CONTINUOUS
 62
     7
 10
382.1972352694488
 20
-198.9983027098581
 42
0.09645692972530609
  0
VERTEX
  8
0
  6
CONTINUOUS
 62
     7
 10
386
 20
-199.7381591796875
 42
0.09643659111140725
  0
VERTEX
  8
0
  6
CONTINUOUS
 62
     7
 10
389.8020116123553
 20
-198.9986076263891
 42
0.09759332041092368
  0
VERTEX
  8
0
  6
CONTINUOUS
 62
     7
 10
393.0434655186983
 20
-196.8808059607914
 42
0.09935282727082456
  0
VERTEX
  8
0
  6
CONTINUOUS
 62
     7
 10
395.2284049781671
 20
-193.6833948232787
 42
0.100583908041146
  0
SEQEND
  8
0
  0
POLYLINE
  8
0
  6
CONTINUOUS
 62
     7
 66
     1
 10
0
 20
0
  0
VERTEX
  8
0
  6
CONTINUOUS
 62
     7
 10
393.133260319332
 20
-201.6705082286607
 42
0.2015082714047607
  0
VERTEX
  8
0
  6
CONTINUOUS
 62
     7
 10
392.4032570372444
 20
-201.1620278178304
 42
0.03155962249724888
  0
VERTEX
  8
0
  6
CONTINUOUS
 62
     7
 10
391.513428586751
 20
-200.9229466748142
 42
0.01542694082230303
  0
VERTEX
  8
0
  6
CONTINUOUS
 62
     7
 10
390.6057895615068
 20
-200.7635852299206
 42
0.01021026469518081
  0
VERTEX
  8
0
  6
CONTINUOUS
 62
     7
 10
389.6902648884376
 20
-200.6497806231095
 42
0.007829247746756335
  0
VERTEX
  8
0
  6
CONTINUOUS
 62
     7
 10
388.7711859274284
 20
-200.5686921155886
 42
0.006588713842194583
  0
VERTEX
  8
0
  6
CONTINUOUS
 62
     7
 10
387.8499521814701
 20
-200.5139474174719
 42
0.005931101374148421
  0
VERTEX
  8
0
  6
CONTINUOUS
 62
     7
 10
386.9275498075577
 20
-200.4821798476608
 42
0.005641265167999043
  0
VERTEX
  8
0
  6
CONTINUOUS
 62
     7
 10
386.0046231181427
 20
-200.4716952056555
 42
0.005639189148664433
  0
VERTEX
  8
0
  6
CONTINUOUS
 62
     7
 10
385.0818052347443
 20
-200.481968535918
 42
0.005918164220037805
  0
VERTEX
  8
0
  6
CONTINUOUS
 62
     7
 10
384.1606368483845
 20
-200.5134566653092
 42
0.006584376604937963
  0
VERTEX
  8
0
  6
CONTINUOUS
 62
     7
 10
383.2386271257537
 20
-200.5679774050531
 42
0.007814520412660439
  0
VERTEX
  8
0
  6
CONTINUOUS
 62
     7
 10
382.3191934726263
 20
-200.6487926334559
 42
0.01018488360745825
  0
VERTEX
  8
0
  6
CONTINUOUS
 62
     7
 10
381.4029309451888
 20
-200.7623111264577
 42
0.0154056556786278
  0
VERTEX
  8
0
  6
CONTINUOUS
 62
     7
 10
380.4926603793591
 20
-200.9216651729646
 42
0.03141742369795452
  0
VERTEX
  8
0
  6
CONTINUOUS
 62
     7
 10
379.6013798084896
 20
-201.1603987084411
 42
0.1997036642486635
  0
VERTEX
  8
0
  6
CONTINUOUS
 62
     7
 10
378.8671489644616
 20
-201.6682280128126
 42
0
  0
SEQEND
  8
0
  0
POLYLINE
  8
0
  6
CONTINUOUS
 62
     7
 66
     1
 10
0
 20
0
  0
VERTEX
  8
0
  6
CONTINUOUS
 62
     7
 10
378.2619022221352
 20
10.93737814818252
 42
0.04188730367419623
  0
VERTEX
  8
0
  6
CONTINUOUS
 62
     7
 10
378.7020344841995
 20
9.709403999588005
 42
0.04165594837388132
  0
VERTEX
  8
0
  6
CONTINUOUS
 62
     7
 10
379.3402812820294
 20
8.571480997584207
 42
0.04136510392960646
  0
VERTEX
  8
0
  6
CONTINUOUS
 62
     7
 10
380.1577381641795
 20
7.554627661301517
 42
0.04106114708362953
  0
VERTEX
  8
0
  6
CONTINUOUS
 62
     7
 10
381.1310482054423
 20
6.685491964297047
 42
0.04077357732523978
  0
VERTEX
  8
0
  6
CONTINUOUS
 62
     7
 10
382.2331206473257
 20
5.986312499169603
 42
0.04052878174775267
  0
VERTEX
  8
0
  6
CONTINUOUS
 62
     7
 10
383.4339797017339
 20
5.474564569895136
 42
0.04034729443312042
  0
VERTEX
  8
0
  6
CONTINUOUS
 62
     7
 10
384.7015544560752
 20
5.162753377309821
 42
0.04023511476117959
  0
VERTEX
  8
0
  6
CONTINUOUS
 62
     7
 10
386.0021778129697
 20
5.058288866146238
 42
0.04022823417034103
  0
VERTEX
  8
0
  6
CONTINUOUS
 62
     7
 10
387.3025196657524
 20
5.163414401938661
 42
0.04031551583041678
  0
VERTEX
  8
0
  6
CONTINUOUS
 62
     7
 10
388.5689486216774
 20
5.475541793439424
 42
0.04051141576201479
  0
VERTEX
  8
0
  6
CONTINUOUS
 62
     7
 10
389.7691032684893
 20
5.987481882585715
 42
0.04075983235443991
  0
VERTEX
  8
0
  6
CONTINUOUS
 62
     7
 10
390.8705931556671
 20
6.68673216606684
 42
0.04106008099378337
  0
VERTEX
  8
0
  6
CONTINUOUS
 62
     7
 10
391.8436447586855
 20
7.556083921328615
 42
0.04137779398198615
  0
VERTEX
  8
0
  6
CONTINUOUS
 62
     7
 10
392.6610580729467
 20
8.573463371376507
 42
0.04167556173290642
  0
VERTEX
  8
0
  6
CONTINUOUS
 62
     7
 10
393.2992052336398
 20
9.712124199119216
 42
0.04191649456144062
  0
VERTEX
  8
0
  6
CONTINUOUS
 62
     7
 10
393.7390962624776
 20
10.94112975636099
 42
0
  0
SEQEND
  8
0
  0
POLYLINE
  8
0
  6
CONTINUOUS
 62
     7
 66
     1
 10
0
 20
0
  0
VERTEX
  8
0
  6
CONTINUOUS
 62
     7
 10
396.9314048289555
 20
20.26018562728213
 42
0.01754280247147154
  0
VERTEX
  8
0
  6
CONTINUOUS
 62
     7
 10
395.5899370004202
 20
20.55332861378043
 42
0.01105000106662499
  0
VERTEX
  8
0
  6
CONTINUOUS
 62
     7
 10
394.2336490925239
 20
20.7713815271854
 42
0.008116753947629288
  0
VERTEX
  8
0
  6
CONTINUOUS
 62
     7
 10
392.8692750333379
 20
20.93806667291369
 42
0.006531214552898987
  0
VERTEX
  8
0
  6
CONTINUOUS
 62
     7
 10
391.5008428141853
 20
21.06499833982715
 42
0.005600166967228465
  0
VERTEX
  8
0
  6
CONTINUOUS
 62
     7
 10
390.129464668468
 20
21.1588740847845
 42
0.005037299046467962
  0
VERTEX
  8
0
  6
CONTINUOUS
 62
     7
 10
388.7560748062272
 20
21.2236686663077
 42
0.00471143049302439
  0
VERTEX
  8
0
  6
CONTINUOUS
 62
     7
 10
387.3815881704423
 20
21.26174597165707
 42
0.004560874606664136
  0
VERTEX
  8
0
  6
CONTINUOUS
 62
     7
 10
386.0066224349902
 20
21.27438325536233
 42
0.004559742370439617
  0
VERTEX
  8
0
  6
CONTINUOUS
 62
     7
 10
384.6317827739625
 20
21.26199006405943
 42
0.0047054887278557
  0
VERTEX
  8
0
  6
CONTINUOUS
 62
     7
 10
383.2583480273246
 20
21.22420401926932
 42
0.005034824033435637
  0
VERTEX
  8
0
  6
CONTINUOUS
 62
     7
 10
381.8844006311995
 20
21.15966894912224
 42
0.005594377643015251
  0
VERTEX
  8
0
  6
CONTINUOUS
 62
     7
 10
380.5126631807536
 20
21.06607682664443
 42
0.006523128034339134
  0
VERTEX
  8
0
  6
CONTINUOUS
 62
     7
 10
379.143492488479
 20
20.93942309762383
 42
0.008102150586964113
  0
VERTEX
  8
0
  6
CONTINUOUS
 62
     7
 10
377.7783449725727
 20
20.77305200027109
 42
0.01103428390014643
  0
VERTEX
  8
0
  6
CONTINUOUS
 62
     7
 10
376.4199077333645
 20
20.55514866948617
 42
0.01751373987313286
  0
VERTEX
  8
0
  6
CONTINUOUS
 62
     7
 10
375.075787224559
 20
20.26205137394805
 42
0
  0
SEQEND
  8
0
  0
POLYLINE
  8
0
  6
CONTINUOUS
 62
     7
 66
     1
 10
0
 20
0
 70
     1
  0
VERTEX
  8
0
  6
CONTINUOUS
 62
     7
 10
386
 20
15.07009887695313
 42
0.0116247645218974
  0
VERTEX
  8
0
  6
CONTINUOUS
 62
     7
 10
382.5818891266273
 20
14.99160828867686
 42
0.01447217399078521
  0
VERTEX
  8
0
  6
CONTINUOUS
 62
     7
 10
379.1713792691482
 20
14.73808060470511
 42
0.02556038781702208
  0
VERTEX
  8
0
  6
CONTINUOUS
 62
     7
 10
375.7910452185806
 20
14.22591025962467
 42
0.1952839009470592
  0
VERTEX
  8
0
  6
CONTINUOUS
 62
     7
 10
372.85001214316
 20
12.78443255642296
 42
0.1938987691653347
  0
VERTEX
  8
0
  6
CONTINUOUS
 62
     7
 10
375.7942839600085
 20
11.34665175964834
 42
0.02553136055713532
  0
VERTEX
  8
0
  6
CONTINUOUS
 62
     7
 10
379.1729289292064
 20
10.83502013040027
 42
0.01446583242551324
  0
VERTEX
  8
0
  6
CONTINUOUS
 62
     7
 10
382.582344894868
 20
10.58164084475829
 42
0.01162275125249993
  0
VERTEX
  8
0
  6
CONTINUOUS
 62
     7
 10
386
 20
10.503173828125
 42
0.01162444772987131
  0
VERTEX
  8
0
  6
CONTINUOUS
 62
     7
 10
389.4181109421924
 20
10.58166215016709
 42
0.01447191320539067
  0
VERTEX
  8
0
  6
CONTINUOUS
 62
     7
 10
392.8286212821456
 20
10.83518367267387
 42
0.02556016153306912
  0
VERTEX
  8
0
  6
CONTINUOUS
 62
     7
 10
396.2089567942721
 20
11.34734461322043
 42
0.1952857525117207
  0
VERTEX
  8
0
  6
CONTINUOUS
 62
     7
 10
399.149987828509
 20
12.78881475813335
 42
0.1938970346386824
  0
VERTEX
  8
0
  6
CONTINUOUS
 62
     7
 10
396.2057157601428
 20
14.22660275370711
 42
0.02553159831797759
  0
VERTEX
  8
0
  6
CONTINUOUS
 62
     7
 10
392.827072264802
 20
14.73824396651164
 42
0.0144660957901355
  0
VERTEX
  8
0
  6
CONTINUOUS
 62
     7
 10
389.4176567800719
 20
14.99162951316865
 42
0.01162307440157484
  0
SEQEND
  8
0
  0
POLYLINE
  8
0
  6
CONTINUOUS
 62
     7
 66
     1
 10
0
 20
0
  0
VERTEX
  8
0
  6
CONTINUOUS
 62
     7
 10
375.0736999511719
 20
20.26150512695312
 42
0.01843525202588635
  0
VERTEX
  8
0
  6
CONTINUOUS
 62
     7
 10
374.0927266618542
 20
20.02168617099631
 42
0.00507882525242565
  0
VERTEX
  8
0
  6
CONTINUOUS
 62
     7
 10
373.1233124095504
 20
19.73862479335442
 42
0.02696868374645429
  0
VERTEX
  8
0
  6
CONTINUOUS
 62
     7
 10
372.1726062041068
 20
19.3987530764499
 42
0.05660729878813966
  0
VERTEX
  8
0
  6
CONTINUOUS
 62
     7
 10
371.2928084154179
 20
18.90715549538541
 42
0.06337965065018741
  0
VERTEX
  8
0
  6
CONTINUOUS
 62
     7
 10
370.5650117895957
 20
18.21049247414176
 42
0.06341675255995594
  0
VERTEX
  8
0
  6
CONTINUOUS
 62
     7
 10
370.0286680268244
 20
17.35648027882926
 42
0.07212843519057609
  0
VERTEX
  8
0
  6
CONTINUOUS
 62
     7
 10
369.743084688066
 20
16.39152965431817
 42
0.07237625315357402
  0
VERTEX
  8
0
  6
CONTINUOUS
 62
     7
 10
369.7431962530247
 20
15.38527765115636
 42
0.07211558853129975
  0
VERTEX
  8
0
  6
CONTINUOUS
 62
     7
 10
370.0289018735908
 20
14.4205679948472
 42
0.06331753536176692
  0
VERTEX
  8
0
  6
CONTINUOUS
 62
     7
 10
370.5643477569091
 20
13.56787907354877
 42
0.06336647317125854
  0
VERTEX
  8
0
  6
CONTINUOUS
 62
     7
 10
371.2919590361797
 20
12.87102464534024
 42
0.056639161816531
  0
VERTEX
  8
0
  6
CONTINUOUS
 62
     7
 10
372.1716552988526
 20
12.37921391879989
 42
0.02700149179082581
  0
VERTEX
  8
0
  6
CONTINUOUS
 62
     7
 10
373.1225536645557
 20
12.03916600952237
 42
0.005084234218348345
  0
VERTEX
  8
0
  6
CONTINUOUS
 62
     7
 10
374.092485880493
 20
11.75593817855074
 42
0.01843767337789486
  0
VERTEX
  8
0
  6
CONTINUOUS
 62
     7
 10
375.0736999511719
 20
11.51605224609375
 42
0
  0
SEQEND
  8
0
  0
POLYLINE
  8
0
  6
CONTINUOUS
 62
     7
 66
     1
 10
0
 20
0
  0
VERTEX
  8
0
  6
CONTINUOUS
 62
     7
 10
396.9263000488281
 20
20.26150512695312
 42
-0.01843525202588635
  0
VERTEX
  8
0
  6
CONTINUOUS
 62
     7
 10
397.9072733381458
 20
20.02168617099631
 42
-0.00507882525242565
  0
VERTEX
  8
0
  6
CONTINUOUS
 62
     7
 10
398.8766875904496
 20
19.73862479335442
 42
-0.02696868374645424
  0
VERTEX
  8
0
  6
CONTINUOUS
 62
     7
 10
399.8273937958932
 20
19.3987530764499
 42
-0.05660729878813966
  0
VERTEX
  8
0
  6
CONTINUOUS
 62
     7
 10
400.7071915845821
 20
18.90715549538541
 42
-0.06337965065018744
  0
VERTEX
  8
0
  6
CONTINUOUS
 62
     7
 10
401.4349882104043
 20
18.21049247414176
 42
-0.06341675255995589
  0
VERTEX
  8
0
  6
CONTINUOUS
 62
     7
 10
401.9713319731756
 20
17.35648027882926
 42
-0.07212843519057363
  0
VERTEX
  8
0
  6
CONTINUOUS
 62
     7
 10
402.256915311934
 20
16.39152965431817
 42
-0.07237625315357536
  0
VERTEX
  8
0
  6
CONTINUOUS
 62
     7
 10
402.2568037469753
 20
15.38527765115636
 42
-0.07211558853129964
  0
VERTEX
  8
0
  6
CONTINUOUS
 62
     7
 10
401.9710981264092
 20
14.4205679948472
 42
-0.06331753536176669
  0
VERTEX
  8
0
  6
CONTINUOUS
 62
     7
 10
401.4356522430909
 20
13.56787907354877
 42
-0.06336647317125475
  0
VERTEX
  8
0
  6
CONTINUOUS
 62
     7
 10
400.7080409638203
 20
12.87102464534024
 42
-0.056639161816531
  0
VERTEX
  8
0
  6
CONTINUOUS
 62
     7
 10
399.8283447011474
 20
12.37921391879989
 42
-0.02700149179082581
  0
VERTEX
  8
0
  6
CONTINUOUS
 62
     7
 10
398.8774463354443
 20
12.03916600952237
 42
-0.005084234218348567
  0
VERTEX
  8
0
  6
CONTINUOUS
 62
     7
 10
397.907514119507
 20
11.75593817855074
 42
-0.01843767337789463
  0
VERTEX
  8
0
  6
CONTINUOUS
 62
     7
 10
396.9263000488281
 20
11.51605224609375
 42
0
  0
SEQEND
  8
0
  0
TEXT
  8
0
  6
CONTINUOUS
 62
     7
 10
-96.42857694625854
 20
-9
 40
18
 41
1.031321653070297
  1
ERK-NAB-400
  0
ENDSEC
  0
EOF
