  0
SECTION
  2
HEADER
  0
ENDSEC
  0
SECTION
  2
TABLES
  0
TABLE
  2
LTYPE
 70
    22
  0
LTYPE
  2
CONTINUOUS
 70
    64
  3
Solid line
 72
    65
 73
     0
 40
0.000000
  0
LTYPE
  2
DASHED
 70
    64
  3
__ __ __ __ __ __ __ __ __ __ __ __ __ __ __
 72
    65
 73
     2
 40
3.500000
 49
2.000000
 49
-1.500000
  0
LTYPE
  2
CENTER
 70
    64
  3
____ _ ____ _ ____ _ ____ _ ____ _ ____ _ ____
 72
    65
 73
     4
 40
17.500000
 49
13.000000
 49
-1.500000
 49
1.500000
 49
-1.500000
  0
LTYPE
  2
PHANTOM
 70
    64
  3
_____ _ _ _____ _ _ _____ _ _ _____ _ _ ____  
 72
    65
 73
     6
 40
15.500000
 49
8.000000
 49
-1.500000
 49
1.500000
 49
-1.500000
 49
1.500000
 49
-1.500000
  0
LTYPE
  2
DOT
 70
    64
  3
. . . . . . . . . . . . . . . . . . . . . . . .
 72
    65
 73
     2
 40
0.25
 49
0.0
 49
-0.25
  0
ENDTAB
  0
TABLE
  2
LAYER
 70
     1
  0
LAYER
  2
0
 70
     0
 62
     7
  6
CONTINUOUS
  0
ENDTAB
  0
TABLE
  2
STYLE
 70
     1
  0
STYLE
  2
STANDARD
 70
     0
 40
0.000000
 41
1.000000
 50
0.000000
 71
     0
 42
0.200000
  3
txt
  0
ENDTAB
  0
TABLE
  2
VIEW
 70
     0
  0
ENDTAB
  0
ENDSEC
  0
SECTION
  2
BLOCKS
  0
ENDSEC
  0
SECTION
  2
ENTITIES
  0
LINE
  8
0
  6
CONTINUOUS
 62
     3
 10
-267.1761474609375
 20
-20.34611320495605
 11
-64.38315582275391
 21
-20.34611320495605
  0
LINE
  8
0
  6
CONTINUOUS
 62
     3
 10
-104.4944076538086
 20
15.03786754608154
 11
-120.6349639892578
 21
5.719117641448975
  0
LINE
  8
0
  6
CONTINUOUS
 62
     7
 10
-253.2796478271484
 20
-35.34611511230469
 11
-253.2796478271484
 21
-135.3461151123047
  0
LINE
  8
0
  6
CONTINUOUS
 62
     7
 10
-78.27965545654297
 20
-35.34611511230469
 11
-78.27965545654297
 21
-135.3461151123047
  0
LINE
  8
0
  6
CONTINUOUS
 62
     7
 10
-253.2796478271484
 20
-135.3461151123047
 11
-208.2796478271484
 21
-135.3461151123047
  0
LINE
  8
0
  6
CONTINUOUS
 62
     7
 10
-253.2796478271484
 20
-119.3461151123047
 11
-208.2796478271484
 21
-119.3461151123047
  0
LINE
  8
0
  6
CONTINUOUS
 62
     7
 10
-208.2796478271484
 20
-119.3461151123047
 11
-208.2796478271484
 21
-135.3461151123047
  0
LINE
  8
0
  6
CONTINUOUS
 62
     7
 10
-123.279655456543
 20
-119.3461151123047
 11
-123.279655456543
 21
-135.3461151123047
  0
LINE
  8
0
  6
CONTINUOUS
 62
     7
 10
-205.2796478271484
 20
-132.3461151123047
 11
-126.279655456543
 21
-132.3461151123047
  0
LINE
  8
0
  6
CONTINUOUS
 62
     7
 10
-203.2796478271484
 20
-124.3461151123047
 11
-128.2796478271484
 21
-124.3461151123047
  0
LINE
  8
0
  6
CONTINUOUS
 62
     7
 10
-123.279655456543
 20
-119.3461151123047
 11
-78.27965545654297
 21
-119.3461151123047
  0
LINE
  8
0
  6
CONTINUOUS
 62
     7
 10
-123.279655456543
 20
-135.3461151123047
 11
-78.27965545654297
 21
-135.3461151123047
  0
LINE
  8
0
  6
CONTINUOUS
 62
     7
 10
-245.2796478271484
 20
-35.34611511230469
 11
-245.2796478271484
 21
-114.3461151123047
  0
LINE
  8
0
  6
CONTINUOUS
 62
     7
 10
-86.27965545654297
 20
-35.34611511230469
 11
-86.27965545654297
 21
-114.3461151123047
  0
LINE
  8
0
  6
CONTINUOUS
 62
     7
 10
-208.2795257568359
 20
-119.3461074829102
 11
-195.5704193115234
 21
-71.91511535644531
  0
LINE
  8
0
  6
CONTINUOUS
 62
     7
 10
-217.0435943603516
 20
-113.4166259765625
 11
-202.6092987060547
 21
-59.54710388183594
  0
LINE
  8
0
  6
CONTINUOUS
 62
     7
 10
-114.5156478881836
 20
-113.4166717529297
 11
-128.9499359130859
 21
-59.54714965820312
  0
LINE
  8
0
  6
CONTINUOUS
 62
     7
 10
-123.2796020507813
 20
-119.3461685180664
 11
-135.9887084960938
 21
-71.9151611328125
  0
LINE
  8
0
  6
CONTINUOUS
 62
     7
 10
-245.8187103271484
 20
-10.34611415863037
 11
-218.6946868896484
 21
-10.34611415863037
  0
LINE
  8
0
  6
CONTINUOUS
 62
     7
 10
-240.2796478271484
 20
-30.34611320495605
 11
-218.6946868896484
 21
-30.34611320495605
  0
LINE
  8
0
  6
CONTINUOUS
 62
     7
 10
-91.27965545654297
 20
-30.34611320495605
 11
-112.864616394043
 21
-30.34611320495605
  0
LINE
  8
0
  6
CONTINUOUS
 62
     7
 10
-85.74059295654297
 20
-10.34611415863037
 11
-112.864616394043
 21
-10.34611415863037
  0
LINE
  8
0
  6
CONTINUOUS
 62
     3
 10
-165.7796478271484
 20
67.15388488769531
 11
-165.7796478271484
 21
-142.1192779541016
  0
LINE
  8
0
  6
CONTINUOUS
 62
     3
 10
-227.0652770996094
 20
15.0371208190918
 11
-210.9247283935547
 21
5.718364238739014
  0
LINE
  8
0
  6
CONTINUOUS
 62
     3
 10
-227.0654296875
 20
-55.72911071777344
 11
-210.9248657226562
 21
-46.41035461425781
  0
LINE
  8
0
  6
CONTINUOUS
 62
     3
 10
-104.4940795898438
 20
-55.72955703735352
 11
-120.634635925293
 21
-46.41079711914063
  0
LINE
  8
0
  6
CONTINUOUS
 62
     3
 10
-93.27965545654297
 20
-110.6522674560547
 11
-93.27965545654297
 21
-142.5773773193359
  0
LINE
  8
0
  6
CONTINUOUS
 62
     3
 10
-238.2796478271484
 20
-110.6522674560547
 11
-238.2796478271484
 21
-142.5773773193359
  0
LINE
  8
0
  6
CONTINUOUS
 62
     7
 10
-170.7796478271484
 20
0.1538860946893692
 11
-170.7796478271484
 21
-7.846113681793213
  0
LINE
  8
0
  6
CONTINUOUS
 62
     7
 10
-160.7796478271484
 20
0.1538860946893692
 11
-160.7796478271484
 21
-7.846113681793213
  0
LINE
  8
0
  6
CONTINUOUS
 62
     7
 10
-170.7796478271484
 20
-7.846113681793213
 11
-160.7796478271484
 21
-7.846113681793213
  0
LINE
  8
0
  6
CONTINUOUS
 62
     7
 10
-170.7796478271484
 20
0.1538860946893692
 11
-160.7796478271484
 21
0.1538860946893692
  0
LINE
  8
0
  6
DASHED
 62
     7
 10
-232.2796478271484
 20
-119.3461151123047
 11
-232.2796478271484
 21
-135.3461151123047
  0
LINE
  8
0
  6
DASHED
 62
     7
 10
-244.2796478271484
 20
-119.3461151123047
 11
-244.2796478271484
 21
-135.3461151123047
  0
LINE
  8
0
  6
DASHED
 62
     7
 10
-99.27965545654297
 20
-119.3461151123047
 11
-99.27965545654297
 21
-135.3461151123047
  0
LINE
  8
0
  6
DASHED
 62
     7
 10
-87.27965545654297
 20
-119.3461151123047
 11
-87.27965545654297
 21
-135.3461151123047
  0
LINE
  8
0
  6
CONTINUOUS
 62
     7
 10
-206.6903839111328
 20
42.51332855224609
 11
-206.5421752929688
 21
42.07910919189453
  0
LINE
  8
0
  6
CONTINUOUS
 62
     7
 10
-199.76220703125
 20
46.5133171081543
 11
-198.9750061035156
 21
45.61262893676758
  0
LINE
  8
0
  6
CONTINUOUS
 62
     7
 10
-191.5016326904297
 20
50.10490417480469
 11
-191.3212127685547
 21
48.34310913085938
  0
LINE
  8
0
  6
CONTINUOUS
 62
     7
 10
-183.8511199951172
 20
52.44401168823242
 11
-182.8012847900391
 21
50.48225402832031
  0
LINE
  8
0
  6
CONTINUOUS
 62
     7
 10
-174.7797698974609
 20
54.11181259155273
 11
-175.2574920654297
 21
51.63907623291016
  0
LINE
  8
0
  6
CONTINUOUS
 62
     7
 10
-172.2874603271484
 20
58.39369964599609
 11
-170.8379669189453
 21
54.41124725341797
  0
LINE
  8
0
  6
CONTINUOUS
 62
     7
 10
-176.6641998291016
 20
59.52340316772461
 11
-173.09375
 21
59.04274368286133
  0
LINE
  8
0
  6
CONTINUOUS
 62
     7
 10
-180.8497467041016
 20
83.26103973388672
 11
-175.9615478515625
 21
55.53871154785156
  0
LINE
  8
0
  6
CONTINUOUS
 62
     7
 10
-186.5948638916016
 20
55.87091064453125
 11
-186.5948638916016
 21
51.63288879394531
  0
LINE
  8
0
  6
CONTINUOUS
 62
     7
 10
-182.8684539794922
 20
58.42939758300781
 11
-186.0591888427734
 21
56.75656127929688
  0
LINE
  8
0
  6
CONTINUOUS
 62
     7
 10
-187.0540313720703
 20
82.16701507568359
 11
-182.1658325195313
 21
54.44468307495117
  0
LINE
  8
0
  6
CONTINUOUS
 62
     7
 10
212.2203521728516
 20
53.04319763183594
 11
212.2203521728516
 21
-92.84611511230469
  0
LINE
  8
0
  6
CONTINUOUS
 62
     7
 10
212.2203521728516
 20
-92.84611511230469
 11
227.2203521728516
 21
-92.84611511230469
  0
LINE
  8
0
  6
CONTINUOUS
 62
     7
 10
257.2203369140625
 20
53.15388488769531
 11
257.2203369140625
 21
-93.84611511230469
  0
LINE
  8
0
  6
CONTINUOUS
 62
     7
 10
227.2203521728516
 20
52.15388488769531
 11
227.2203521728516
 21
37.15388488769531
  0
LINE
  8
0
  6
CONTINUOUS
 62
     7
 10
247.2203521728516
 20
52.15388488769531
 11
247.2203521728516
 21
-92.84611511230469
  0
LINE
  8
0
  6
CONTINUOUS
 62
     7
 10
247.2203521728516
 20
52.15388488769531
 11
257.2203369140625
 21
52.15388488769531
  0
LINE
  8
0
  6
CONTINUOUS
 62
     7
 10
247.2203521728516
 20
-92.84611511230469
 11
257.2203369140625
 21
-92.84611511230469
  0
LINE
  8
0
  6
CONTINUOUS
 62
     7
 10
227.2203521728516
 20
32.15388488769531
 11
242.2203521728516
 21
32.15388488769531
  0
LINE
  8
0
  6
CONTINUOUS
 62
     7
 10
227.2203521728516
 20
-72.84611511230469
 11
242.2203521728516
 21
-72.84611511230469
  0
LINE
  8
0
  6
CONTINUOUS
 62
     7
 10
222.2203521728516
 20
49.22724914550781
 11
222.2203521728516
 21
-89.91947937011719
  0
LINE
  8
0
  6
CONTINUOUS
 62
     7
 10
227.2203521728516
 20
-77.84611511230469
 11
227.2203521728516
 21
-92.84611511230469
  0
LINE
  8
0
  6
CONTINUOUS
 62
     7
 10
222.2203521728516
 20
49.22724914550781
 11
227.2203521728516
 21
49.22724914550781
  0
LINE
  8
0
  6
CONTINUOUS
 62
     7
 10
222.2203521728516
 20
-89.91947937011719
 11
227.2203521728516
 21
-89.91947937011719
  0
LINE
  8
0
  6
CONTINUOUS
 62
     7
 10
212.2203521728516
 20
52.15388488769531
 11
228.2203521728516
 21
52.15388488769531
  0
LINE
  8
0
  6
CONTINUOUS
 62
     7
 10
213.087158203125
 20
57.98365020751953
 11
212.2203674316406
 21
53.04320526123047
  0
LINE
  8
0
  6
CONTINUOUS
 62
     7
 10
227.3535614013672
 20
57.9836540222168
 11
228.2203674316406
 21
53.04318618774414
  0
LINE
  8
0
  6
CONTINUOUS
 62
     7
 10
220.2203521728516
 20
59.91571426391602
 11
214.6642150878906
 21
58.72184371948242
  0
LINE
  8
0
  6
CONTINUOUS
 62
     7
 10
220.2203826904297
 20
59.91570281982422
 11
225.7763977050781
 21
58.72185897827148
  0
LINE
  8
0
  6
CONTINUOUS
 62
     7
 10
228.2203521728516
 20
53.04319763183594
 11
228.2203521728516
 21
52.15388488769531
  0
LINE
  8
0
  6
CONTINUOUS
 62
     7
 10
206.5147705078125
 20
-95.34611511230469
 11
208.7203521728516
 21
-95.34611511230469
  0
LINE
  8
0
  6
CONTINUOUS
 62
     3
 10
19.2203483581543
 20
-20.34611320495605
 11
308.0674743652344
 21
-20.34611320495605
  0
LINE
  8
0
  6
CONTINUOUS
 62
     7
 10
175.7203521728516
 20
54.65388488769531
 11
208.7203521728516
 21
54.65388488769531
  0
LINE
  8
0
  6
CONTINUOUS
 62
     7
 10
175.7203674316406
 20
54.65386581420898
 11
172.2203521728516
 21
50.49296951293945
  0
LINE
  8
0
  6
CONTINUOUS
 62
     7
 10
208.7203521728516
 20
54.65388488769531
 11
212.2203521728516
 21
50.49298858642578
  0
LINE
  8
0
  6
CONTINUOUS
 62
     7
 10
208.7203521728516
 20
-95.34609985351562
 11
212.2203521728516
 21
-91.18522644042969
  0
LINE
  8
0
  6
CONTINUOUS
 62
     7
 10
175.7203521728516
 20
9.088562965393066
 11
208.7203521728516
 21
9.088562965393066
  0
LINE
  8
0
  6
CONTINUOUS
 62
     7
 10
175.7203521728516
 20
0.3986065685749054
 11
208.7203521728516
 21
0.3986065685749054
  0
LINE
  8
0
  6
CONTINUOUS
 62
     7
 10
175.7203521728516
 20
-7.396360874176025
 11
208.7203521728516
 21
-7.396360874176025
  0
LINE
  8
0
  6
CONTINUOUS
 62
     7
 10
175.7203521728516
 20
-16.34618949890137
 11
208.7203521728516
 21
-16.34618949890137
  0
LINE
  8
0
  6
CONTINUOUS
 62
     7
 10
175.7203521728516
 20
-24.34621238708496
 11
208.7203521728516
 21
-24.34621238708496
  0
LINE
  8
0
  6
CONTINUOUS
 62
     7
 10
176.2509002685547
 20
-33.29602813720703
 11
208.7203521728516
 21
-33.29602813720703
  0
LINE
  8
0
  6
CONTINUOUS
 62
     7
 10
180.0527648925781
 20
-41.09100341796875
 11
208.7203521728516
 21
-41.09100341796875
  0
LINE
  8
0
  6
CONTINUOUS
 62
     7
 10
184.2911071777344
 20
-49.78089141845703
 11
208.7203521728516
 21
-49.78089141845703
  0
LINE
  8
0
  6
CONTINUOUS
 62
     7
 10
191.8941192626953
 20
-65.36936950683594
 11
208.7203521728516
 21
-65.36936950683594
  0
LINE
  8
0
  6
CONTINUOUS
 62
     7
 10
195.3190765380859
 20
-72.39155578613281
 11
208.7203521728516
 21
-72.39155578613281
  0
LINE
  8
0
  6
CONTINUOUS
 62
     7
 10
197.9801483154297
 20
-77.84754943847656
 11
208.7203521728516
 21
-77.84754943847656
  0
LINE
  8
0
  6
CONTINUOUS
 62
     7
 10
200.5934295654297
 20
-83.20555877685547
 11
208.7203521728516
 21
-83.20555877685547
  0
LINE
  8
0
  6
CONTINUOUS
 62
     7
 10
202.5443572998047
 20
-87.20556640625
 11
208.7203521728516
 21
-87.20556640625
  0
LINE
  8
0
  6
CONTINUOUS
 62
     7
 10
204.2962036132813
 20
-90.79739379882813
 11
208.7203521728516
 21
-90.79739379882813
  0
LINE
  8
0
  6
CONTINUOUS
 62
     7
 10
257.2203369140625
 20
-93.84611511230469
 11
279.7203369140625
 21
-93.84611511230469
  0
LINE
  8
0
  6
CONTINUOUS
 62
     7
 10
279.7203369140625
 20
53.15388488769531
 11
279.7203369140625
 21
-93.84611511230469
  0
LINE
  8
0
  6
CONTINUOUS
 62
     7
 10
257.2203369140625
 20
53.15388488769531
 11
279.7203369140625
 21
53.15388488769531
  0
LINE
  8
0
  6
CONTINUOUS
 62
     7
 10
104.220344543457
 20
-119.3461151123047
 11
104.220344543457
 21
-135.3461151123047
  0
LINE
  8
0
  6
CONTINUOUS
 62
     7
 10
89.22034454345703
 20
17.15388679504395
 11
89.22034454345703
 21
-57.84611511230469
  0
LINE
  8
0
  6
CONTINUOUS
 62
     7
 10
104.220344543457
 20
-119.3461151123047
 11
145.2203521728516
 21
-119.3461151123047
  0
LINE
  8
0
  6
CONTINUOUS
 62
     7
 10
104.220344543457
 20
-135.3461151123047
 11
254.2203521728516
 21
-135.3461151123047
  0
LINE
  8
0
  6
CONTINUOUS
 62
     7
 10
91.22034454345703
 20
-70.34611511230469
 11
111.788330078125
 21
-70.34611511230469
  0
LINE
  8
0
  6
CONTINUOUS
 62
     7
 10
91.22034454345703
 20
29.65388679504395
 11
119.220344543457
 21
29.65388679504395
  0
LINE
  8
0
  6
CONTINUOUS
 62
     7
 10
91.22034454345703
 20
29.65388679504395
 11
91.22034454345703
 21
18.30862617492676
  0
LINE
  8
0
  6
CONTINUOUS
 62
     7
 10
89.22034454345703
 20
17.15390968322754
 11
91.22034454345703
 21
18.3086109161377
  0
LINE
  8
0
  6
CONTINUOUS
 62
     7
 10
89.22035980224609
 20
-57.84612274169922
 11
91.22034454345703
 21
-59.00081253051758
  0
LINE
  8
0
  6
CONTINUOUS
 62
     7
 10
172.2203521728516
 20
52.15386962890625
 11
172.2203521728516
 21
-13.48879909515381
  0
LINE
  8
0
  6
CONTINUOUS
 62
     7
 10
160.2203521728516
 20
52.15386962890625
 11
160.2203521728516
 21
-5.697004795074463
  0
LINE
  8
0
  6
CONTINUOUS
 62
     7
 10
160.2203521728516
 20
52.15386962890625
 11
172.2203521728516
 21
52.15386962890625
  0
LINE
  8
0
  6
CONTINUOUS
 62
     7
 10
109.2203521728516
 20
-119.3461151123047
 11
112.2985687255859
 21
-60.61029052734375
  0
LINE
  8
0
  6
CONTINUOUS
 62
     7
 10
150.2203521728516
 20
-18.34611320495605
 11
150.2203521728516
 21
-114.3461151123047
  0
LINE
  8
0
  6
CONTINUOUS
 62
     7
 10
34.2203483581543
 20
0.1538708359003067
 11
34.2203483581543
 21
-37.84611511230469
  0
LINE
  8
0
  6
CONTINUOUS
 62
     7
 10
34.2203483581543
 20
-2.846113920211792
 11
84.22034454345703
 21
-2.846113920211792
  0
LINE
  8
0
  6
CONTINUOUS
 62
     7
 10
34.2203483581543
 20
-37.84611511230469
 11
84.22034454345703
 21
-37.84611511230469
  0
LINE
  8
0
  6
CONTINUOUS
 62
     7
 10
84.22034454345703
 20
-42.84611511230469
 11
89.22034454345703
 21
-42.84611511230469
  0
LINE
  8
0
  6
CONTINUOUS
 62
     7
 10
84.22034454345703
 20
2.153886079788208
 11
89.22034454345703
 21
2.153886079788208
  0
LINE
  8
0
  6
CONTINUOUS
 62
     7
 10
34.2203483581543
 20
0.1538708359003067
 11
74.22034454345703
 21
0.1538708359003067
  0
LINE
  8
0
  6
CONTINUOUS
 62
     7
 10
74.22034454345703
 20
0.1538708359003067
 11
74.22034454345703
 21
-2.846113920211792
  0
LINE
  8
0
  6
CONTINUOUS
 62
     7
 10
84.22034454345703
 20
2.153886079788208
 11
84.22034454345703
 21
-42.84611511230469
  0
LINE
  8
0
  6
CONTINUOUS
 62
     7
 10
254.2203521728516
 20
-119.3461151123047
 11
254.2203521728516
 21
-135.3461151123047
  0
LINE
  8
0
  6
CONTINUOUS
 62
     3
 10
239.2203521728516
 20
-110.1311340332031
 11
239.2203521728516
 21
-144.9584808349609
  0
LINE
  8
0
  6
CONTINUOUS
 62
     3
 10
119.220344543457
 20
-110.1311340332031
 11
119.220344543457
 21
-144.9584808349609
  0
LINE
  8
0
  6
DASHED
 62
     7
 10
125.220344543457
 20
-119.3461151123047
 11
125.220344543457
 21
-135.3461151123047
  0
LINE
  8
0
  6
DASHED
 62
     7
 10
113.220344543457
 20
-119.3461151123047
 11
113.220344543457
 21
-135.3461151123047
  0
LINE
  8
0
  6
DASHED
 62
     7
 10
245.2203521728516
 20
-119.3461151123047
 11
245.2203521728516
 21
-135.3461151123047
  0
LINE
  8
0
  6
DASHED
 62
     7
 10
233.2203521728516
 20
-119.3461151123047
 11
233.2203521728516
 21
-135.3461151123047
  0
LINE
  8
0
  6
CONTINUOUS
 62
     7
 10
177.2806549072266
 20
-35.40736389160156
 11
215.4810943603516
 21
-113.7298202514648
  0
LINE
  8
0
  6
CONTINUOUS
 62
     7
 10
119.2203369140625
 20
29.65386772155762
 11
155.4820098876953
 21
31.55426216125488
  0
LINE
  8
0
  6
CONTINUOUS
 62
     7
 10
91.22034454345703
 20
-59.00080871582031
 11
91.22034454345703
 21
-70.34611511230469
  0
LINE
  8
0
  6
CONTINUOUS
 62
     7
 10
224.4690399169922
 20
-119.3461151123047
 11
254.2203521728516
 21
-119.3461151123047
  0
LINE
  8
0
  6
CONTINUOUS
 62
     7
 10
212.2203521728516
 20
332.1539001464844
 11
212.2203521728516
 21
280.4570617675781
  0
LINE
  8
0
  6
CONTINUOUS
 62
     7
 10
212.2203521728516
 20
187.1538848876953
 11
222.2203521728516
 21
187.1538848876953
  0
LINE
  8
0
  6
CONTINUOUS
 62
     7
 10
212.2203521728516
 20
332.1539001464844
 11
222.2203521728516
 21
332.1539001464844
  0
LINE
  8
0
  6
CONTINUOUS
 62
     7
 10
257.2203369140625
 20
333.1539001464844
 11
257.2203369140625
 21
186.1538848876953
  0
LINE
  8
0
  6
CONTINUOUS
 62
     7
 10
247.2203521728516
 20
332.1539001464844
 11
247.2203521728516
 21
187.1538848876953
  0
LINE
  8
0
  6
CONTINUOUS
 62
     7
 10
247.2203521728516
 20
332.1539001464844
 11
257.2203369140625
 21
332.1539001464844
  0
LINE
  8
0
  6
CONTINUOUS
 62
     7
 10
247.2203521728516
 20
187.1538848876953
 11
257.2203369140625
 21
187.1538848876953
  0
LINE
  8
0
  6
CONTINUOUS
 62
     7
 10
227.2203521728516
 20
312.1539001464844
 11
242.2203521728516
 21
312.1539001464844
  0
LINE
  8
0
  6
CONTINUOUS
 62
     7
 10
227.2203521728516
 20
207.1538848876953
 11
242.2203521728516
 21
207.1538848876953
  0
LINE
  8
0
  6
CONTINUOUS
 62
     7
 10
222.2203521728516
 20
332.1539001464844
 11
222.2203521728516
 21
280.9017333984375
  0
LINE
  8
0
  6
CONTINUOUS
 62
     7
 10
227.2203521728516
 20
268.7774658203125
 11
227.2203521728516
 21
239.2628326416016
  0
LINE
  8
0
  6
CONTINUOUS
 62
     7
 10
222.2203521728516
 20
239.2628326416016
 11
227.2203521728516
 21
239.2628326416016
  0
LINE
  8
0
  6
CONTINUOUS
 62
     7
 10
222.2203521728516
 20
239.2628326416016
 11
222.2203521728516
 21
187.1538848876953
  0
LINE
  8
0
  6
CONTINUOUS
 62
     7
 10
212.2203521728516
 20
270.6282348632813
 11
212.2203521728516
 21
187.1538848876953
  0
LINE
  8
0
  6
CONTINUOUS
 62
     3
 10
19.2203483581543
 20
259.6539001464844
 11
311.8387756347656
 21
259.6539001464844
  0
LINE
  8
0
  6
CONTINUOUS
 62
     7
 10
175.7203521728516
 20
334.6539001464844
 11
208.7203521728516
 21
334.6539001464844
  0
LINE
  8
0
  6
CONTINUOUS
 62
     7
 10
175.7203063964844
 20
334.6538696289063
 11
172.2203063964844
 21
330.4929809570312
  0
LINE
  8
0
  6
CONTINUOUS
 62
     7
 10
208.7203826904297
 20
334.6538391113281
 11
212.2203979492188
 21
330.4929504394531
  0
LINE
  8
0
  6
CONTINUOUS
 62
     7
 10
208.7203216552734
 20
184.6539001464844
 11
212.2203369140625
 21
188.8148040771484
  0
LINE
  8
0
  6
CONTINUOUS
 62
     7
 10
175.7203521728516
 20
184.6538848876953
 11
208.7203521728516
 21
184.6538848876953
  0
LINE
  8
0
  6
CONTINUOUS
 62
     7
 10
175.7203674316406
 20
184.6538696289062
 11
172.2203826904297
 21
188.8147430419922
  0
LINE
  8
0
  6
CONTINUOUS
 62
     7
 10
175.7203521728516
 20
331.7278137207031
 11
208.7203521728516
 21
331.7278137207031
  0
LINE
  8
0
  6
CONTINUOUS
 62
     7
 10
175.7203521728516
 20
328.6364135742187
 11
208.7203521728516
 21
328.6364135742187
  0
LINE
  8
0
  6
CONTINUOUS
 62
     7
 10
175.7203521728516
 20
319.6363830566406
 11
208.7203521728516
 21
319.6363830566406
  0
LINE
  8
0
  6
CONTINUOUS
 62
     7
 10
175.7203521728516
 20
313.6564636230469
 11
208.7203521728516
 21
313.6564636230469
  0
LINE
  8
0
  6
CONTINUOUS
 62
     7
 10
175.7203521728516
 20
300.564697265625
 11
208.7203521728516
 21
300.564697265625
  0
LINE
  8
0
  6
CONTINUOUS
 62
     7
 10
175.7203521728516
 20
307.8056030273438
 11
208.7203521728516
 21
307.8056030273438
  0
LINE
  8
0
  6
CONTINUOUS
 62
     7
 10
175.7203521728516
 20
293.636474609375
 11
208.7203521728516
 21
293.636474609375
  0
LINE
  8
0
  6
CONTINUOUS
 62
     7
 10
175.7203521728516
 20
285.3758544921875
 11
208.7203521728516
 21
285.3758544921875
  0
LINE
  8
0
  6
CONTINUOUS
 62
     7
 10
175.7203521728516
 20
277.7254028320313
 11
204.6765289306641
 21
277.7254028320313
  0
LINE
  8
0
  6
CONTINUOUS
 62
     7
 10
175.7203521728516
 20
268.6539611816406
 11
208.7203521728516
 21
268.6539611816406
  0
LINE
  8
0
  6
CONTINUOUS
 62
     7
 10
175.7203521728516
 20
190.6712799072266
 11
208.7203521728516
 21
190.6712799072266
  0
LINE
  8
0
  6
CONTINUOUS
 62
     7
 10
175.7203521728516
 20
187.5799255371094
 11
208.7203521728516
 21
187.5799255371094
  0
LINE
  8
0
  6
CONTINUOUS
 62
     7
 10
257.2203369140625
 20
333.1539001464844
 11
279.7203369140625
 21
333.1539001464844
  0
LINE
  8
0
  6
CONTINUOUS
 62
     7
 10
257.2203369140625
 20
186.1538848876953
 11
279.7203369140625
 21
186.1538848876953
  0
LINE
  8
0
  6
CONTINUOUS
 62
     7
 10
279.7203369140625
 20
333.1539001464844
 11
279.7203369140625
 21
280.5050048828125
  0
LINE
  8
0
  6
CONTINUOUS
 62
     7
 10
119.220329284668
 20
309.6538696289063
 11
155.4820251464844
 21
311.5542602539063
  0
LINE
  8
0
  6
CONTINUOUS
 62
     7
 10
89.22034454345703
 20
297.1539001464844
 11
89.22034454345703
 21
222.1538848876953
  0
LINE
  8
0
  6
CONTINUOUS
 62
     7
 10
119.220344543457
 20
209.6538848876953
 11
91.22034454345703
 21
209.6538848876953
  0
LINE
  8
0
  6
CONTINUOUS
 62
     7
 10
119.220344543457
 20
309.6539001464844
 11
91.22034454345703
 21
309.6539001464844
  0
LINE
  8
0
  6
CONTINUOUS
 62
     7
 10
91.22034454345703
 20
309.6539001464844
 11
91.22034454345703
 21
297.1539001464844
  0
LINE
  8
0
  6
CONTINUOUS
 62
     7
 10
91.22034454345703
 20
222.1538848876953
 11
89.22034454345703
 21
222.1538848876953
  0
LINE
  8
0
  6
CONTINUOUS
 62
     7
 10
91.22034454345703
 20
297.1539001464844
 11
89.22034454345703
 21
297.1539001464844
  0
LINE
  8
0
  6
CONTINUOUS
 62
     7
 10
172.2203521728516
 20
339.1539306640625
 11
172.2203521728516
 21
180.1538848876953
  0
LINE
  8
0
  6
CONTINUOUS
 62
     7
 10
160.2203521728516
 20
347.1539306640625
 11
160.2203521728516
 21
172.1538848876953
  0
LINE
  8
0
  6
CONTINUOUS
 62
     7
 10
249.2203521728516
 20
347.1539306640625
 11
109.220344543457
 21
347.1539306640625
  0
LINE
  8
0
  6
CONTINUOUS
 62
     7
 10
249.2203521728516
 20
172.1538848876953
 11
109.220344543457
 21
172.1538848876953
  0
LINE
  8
0
  6
CONTINUOUS
 62
     7
 10
104.220344543457
 20
342.1539306640625
 11
104.220344543457
 21
309.6539001464844
  0
LINE
  8
0
  6
CONTINUOUS
 62
     7
 10
254.2203521728516
 20
187.1538848876953
 11
254.2203521728516
 21
177.1538848876953
  0
LINE
  8
0
  6
CONTINUOUS
 62
     7
 10
104.220344543457
 20
209.6538848876953
 11
104.220344543457
 21
177.1538848876953
  0
LINE
  8
0
  6
CONTINUOUS
 62
     7
 10
150.2203521728516
 20
208.0292510986328
 11
150.2203521728516
 21
172.1538848876953
  0
LINE
  8
0
  6
CONTINUOUS
 62
     7
 10
215.2203521728516
 20
180.1538848876953
 11
172.2203521728516
 21
180.1538848876953
  0
LINE
  8
0
  6
CONTINUOUS
 62
     7
 10
150.2203521728516
 20
311.2785339355469
 11
150.2203521728516
 21
347.1539306640625
  0
LINE
  8
0
  6
CONTINUOUS
 62
     7
 10
215.2203521728516
 20
339.1539306640625
 11
172.2203521728516
 21
339.1539306640625
  0
LINE
  8
0
  6
CONTINUOUS
 62
     7
 10
254.2203521728516
 20
332.1539001464844
 11
254.2203521728516
 21
342.1539306640625
  0
LINE
  8
0
  6
CONTINUOUS
 62
     3
 10
128.7754058837891
 20
187.1538848876953
 11
110.1359939575195
 21
187.1538848876953
  0
LINE
  8
0
  6
CONTINUOUS
 62
     3
 10
119.220344543457
 20
196.2196197509766
 11
119.220344543457
 21
178.3410186767578
  0
LINE
  8
0
  6
CONTINUOUS
 62
     3
 10
128.7754058837891
 20
332.1539001464844
 11
110.1359939575195
 21
332.1539001464844
  0
LINE
  8
0
  6
CONTINUOUS
 62
     3
 10
119.220344543457
 20
323.0881652832031
 11
119.220344543457
 21
340.966796875
  0
LINE
  8
0
  6
CONTINUOUS
 62
     3
 10
229.6652984619141
 20
187.1538848876953
 11
247.2203521728516
 21
187.1538848876953
  0
LINE
  8
0
  6
CONTINUOUS
 62
     3
 10
239.2203521728516
 20
196.2196197509766
 11
239.2203521728516
 21
178.3410186767578
  0
LINE
  8
0
  6
CONTINUOUS
 62
     3
 10
229.6652984619141
 20
332.1539001464844
 11
247.2203521728516
 21
332.1539001464844
  0
LINE
  8
0
  6
CONTINUOUS
 62
     3
 10
239.2203521728516
 20
323.0881652832031
 11
239.2203521728516
 21
340.966796875
  0
LINE
  8
0
  6
CONTINUOUS
 62
     7
 10
34.2203483581543
 20
277.1539001464844
 11
34.2203483581543
 21
242.1538848876953
  0
LINE
  8
0
  6
CONTINUOUS
 62
     7
 10
34.2203483581543
 20
242.1538848876953
 11
84.22034454345703
 21
242.1538848876953
  0
LINE
  8
0
  6
CONTINUOUS
 62
     7
 10
34.2203483581543
 20
277.1539001464844
 11
84.22034454345703
 21
277.1539001464844
  0
LINE
  8
0
  6
CONTINUOUS
 62
     7
 10
84.22034454345703
 20
237.1538848876953
 11
89.22034454345703
 21
237.1538848876953
  0
LINE
  8
0
  6
CONTINUOUS
 62
     7
 10
84.22034454345703
 20
282.1539001464844
 11
89.22034454345703
 21
282.1539001464844
  0
LINE
  8
0
  6
CONTINUOUS
 62
     7
 10
84.22034454345703
 20
282.1539001464844
 11
84.22034454345703
 21
237.1538848876953
  0
LINE
  8
0
  6
CONTINUOUS
 62
     7
 10
74.22034454345703
 20
264.6539001464844
 11
74.22034454345703
 21
254.6538848876953
  0
LINE
  8
0
  6
CONTINUOUS
 62
     7
 10
77.22034454345703
 20
254.6538848876953
 11
34.2203483581543
 21
254.6538848876953
  0
LINE
  8
0
  6
CONTINUOUS
 62
     7
 10
77.22034454345703
 20
264.6539001464844
 11
34.2203483581543
 21
264.6539001464844
  0
LINE
  8
0
  6
CONTINUOUS
 62
     7
 10
119.220344543457
 20
209.6538848876953
 11
155.4820251464844
 21
207.7534942626953
  0
LINE
  8
0
  6
CONTINUOUS
 62
     7
 10
91.22034454345703
 20
222.1538848876953
 11
91.22034454345703
 21
209.6538848876953
  0
LINE
  8
0
  6
CONTINUOUS
 62
     7
 10
279.7203369140625
 20
52.15388488769531
 11
282.8274536132813
 21
52.15388488769531
  0
LINE
  8
0
  6
CONTINUOUS
 62
     7
 10
279.7203369140625
 20
-92.84611511230469
 11
279.7203369140625
 21
52.15388870239258
  0
LINE
  8
0
  6
CONTINUOUS
 62
     7
 10
294.7203369140625
 20
-92.84611511230469
 11
294.7203369140625
 21
52.15388870239258
  0
LINE
  8
0
  6
CONTINUOUS
 62
     7
 10
279.7203369140625
 20
-92.84611511230469
 11
294.7203369140625
 21
-92.84611511230469
  0
LINE
  8
0
  6
CONTINUOUS
 62
     7
 10
279.7203369140625
 20
52.15388488769531
 11
294.7203369140625
 21
52.15388488769531
  0
LINE
  8
0
  6
CONTINUOUS
 62
     7
 10
279.7203369140625
 20
187.1539001464844
 11
279.7203369140625
 21
265.8900146484375
  0
LINE
  8
0
  6
CONTINUOUS
 62
     7
 10
294.7203369140625
 20
187.1539001464844
 11
294.7203369140625
 21
259.6539001464844
  0
LINE
  8
0
  6
CONTINUOUS
 62
     7
 10
279.7203369140625
 20
187.1539001464844
 11
294.7203369140625
 21
187.1539001464844
  0
LINE
  8
0
  6
CONTINUOUS
 62
     7
 10
279.7203369140625
 20
332.1539001464844
 11
294.7203369140625
 21
332.1539001464844
  0
LINE
  8
0
  6
CONTINUOUS
 62
     7
 10
294.7203369140625
 20
259.6539001464844
 11
294.7203369140625
 21
332.1539001464844
  0
LINE
  8
0
  6
CONTINUOUS
 62
     7
 10
279.7203369140625
 20
259.6539001464844
 11
279.7203369140625
 21
332.1539001464844
  0
LINE
  8
0
  6
CONTINUOUS
 62
     7
 10
294.7203369140625
 20
-92.84611511230469
 11
294.7203369140625
 21
52.15388488769531
  0
LINE
  8
0
  6
CONTINUOUS
 62
     7
 10
329.7203369140625
 20
59.65388488769531
 11
329.7203369140625
 21
-100.3461151123047
  0
LINE
  8
0
  6
CONTINUOUS
 62
     7
 10
317.7203369140625
 20
59.65388488769531
 11
329.7203369140625
 21
59.65388488769531
  0
LINE
  8
0
  6
CONTINUOUS
 62
     7
 10
317.7203369140625
 20
59.65388488769531
 11
317.7203369140625
 21
-100.3461151123047
  0
LINE
  8
0
  6
CONTINUOUS
 62
     7
 10
299.7203369140625
 20
17.65388679504395
 11
312.7203369140625
 21
17.65388679504395
  0
LINE
  8
0
  6
CONTINUOUS
 62
     7
 10
317.7203369140625
 20
-100.3461151123047
 11
329.7203369140625
 21
-100.3461151123047
  0
LINE
  8
0
  6
CONTINUOUS
 62
     7
 10
299.7203369140625
 20
-58.34611511230469
 11
312.7203369140625
 21
-58.34611511230469
  0
LINE
  8
0
  6
CONTINUOUS
 62
     7
 10
294.7203369140625
 20
-76.34611511230469
 11
317.7203369140625
 21
-76.34611511230469
  0
LINE
  8
0
  6
CONTINUOUS
 62
     7
 10
294.7203369140625
 20
35.65388488769531
 11
317.7203369140625
 21
35.65388488769531
  0
LINE
  8
0
  6
CONTINUOUS
 62
     7
 10
294.7203369140625
 20
-25.34611320495605
 11
317.7203369140625
 21
-25.34611320495605
  0
LINE
  8
0
  6
CONTINUOUS
 62
     7
 10
294.7203369140625
 20
-15.34611320495605
 11
317.7203369140625
 21
-15.34611320495605
  0
LINE
  8
0
  6
CONTINUOUS
 62
     7
 10
267.1026306152344
 20
-20.34611320495605
 11
341.4280395507813
 21
-20.34611320495605
  0
LINE
  8
0
  6
CONTINUOUS
 62
     7
 10
267.1026306152344
 20
259.6539001464844
 11
341.4280395507813
 21
259.6539001464844
  0
LINE
  8
0
  6
CONTINUOUS
 62
     7
 10
294.7203369140625
 20
264.6539001464844
 11
317.7203369140625
 21
264.6539001464844
  0
LINE
  8
0
  6
CONTINUOUS
 62
     7
 10
294.7203369140625
 20
254.6539001464844
 11
317.7203369140625
 21
254.6539001464844
  0
LINE
  8
0
  6
CONTINUOUS
 62
     7
 10
294.7203369140625
 20
315.6539001464844
 11
317.7203369140625
 21
315.6539001464844
  0
LINE
  8
0
  6
CONTINUOUS
 62
     7
 10
294.7203369140625
 20
203.6539001464844
 11
317.7203369140625
 21
203.6539001464844
  0
LINE
  8
0
  6
CONTINUOUS
 62
     7
 10
299.7203369140625
 20
221.6539001464844
 11
312.7203369140625
 21
221.6539001464844
  0
LINE
  8
0
  6
CONTINUOUS
 62
     7
 10
317.7203369140625
 20
179.6539001464844
 11
329.7203369140625
 21
179.6539001464844
  0
LINE
  8
0
  6
CONTINUOUS
 62
     7
 10
299.7203369140625
 20
297.6539001464844
 11
312.7203369140625
 21
297.6539001464844
  0
LINE
  8
0
  6
CONTINUOUS
 62
     7
 10
317.7203369140625
 20
339.6539001464844
 11
317.7203369140625
 21
179.6539001464844
  0
LINE
  8
0
  6
CONTINUOUS
 62
     7
 10
317.7203369140625
 20
339.6539001464844
 11
329.7203369140625
 21
339.6539001464844
  0
LINE
  8
0
  6
CONTINUOUS
 62
     7
 10
329.7203369140625
 20
339.6539001464844
 11
329.7203369140625
 21
179.6539001464844
  0
LINE
  8
0
  6
CONTINUOUS
 62
     7
 10
279.7203369140625
 20
259.6539001464844
 11
279.7203369140625
 21
186.1538848876953
  0
LINE
  8
0
  6
CONTINUOUS
 62
     7
 10
-184.9610137939453
 20
88.43711090087891
 11
-177.7521667480469
 21
47.55364990234375
  0
LINE
  8
0
  6
CONTINUOUS
 62
     7
 10
220.2203521728516
 20
90.16731262207031
 11
220.2203521728516
 21
48.69849014282227
  0
LINE
  8
0
  6
CONTINUOUS
 62
     7
 10
198.3211822509766
 20
69.78773498535156
 11
240.3740692138672
 21
69.78773498535156
  0
ARC
  8
0
  6
CONTINUOUS
 62
     7
 10
-165.7796478271484
 20
-35.34611511230469
 40
87.5
 50
0
 51
179.9999640278213
  0
ARC
  8
0
  6
CONTINUOUS
 62
     7
 10
-203.2796478271484
 20
-119.3461151123047
 40
5.00000000000001
 50
179.9999776881996
 51
270.0000280040019
  0
ARC
  8
0
  6
CONTINUOUS
 62
     7
 10
-128.2796478271484
 20
-119.3461151123047
 40
5.000000000000004
 50
270.0000179860893
 51
0
  0
ARC
  8
0
  6
CONTINUOUS
 62
     7
 10
-205.2796478271484
 20
-135.3461151123047
 40
3.000000000000006
 50
89.99998201391043
 51
179.9999640278214
  0
ARC
  8
0
  6
CONTINUOUS
 62
     7
 10
-126.279655456543
 20
-135.3461151123047
 40
3
 50
0
 51
89.9999820139107
  0
ARC
  8
0
  6
CONTINUOUS
 62
     7
 10
-240.2796478271484
 20
-114.3461151123047
 40
5.00000000000001
 50
179.9999776881996
 51
270.0000280040019
  0
ARC
  8
0
  6
CONTINUOUS
 62
     7
 10
-91.27965545654297
 20
-114.3461151123047
 40
5.000000000000004
 50
270.0000179860893
 51
0
  0
CIRCLE
  8
0
  6
CONTINUOUS
 62
     7
 10
-165.7796478271484
 20
-20.34611320495605
 40
50
  0
ARC
  8
0
  6
CONTINUOUS
 62
     7
 10
-224.7709808349609
 20
-111.3461151123047
 40
7.999999999999996
 50
270.0000179860892
 51
345.0000422712693
  0
ARC
  8
0
  6
CONTINUOUS
 62
     7
 10
-187.8431243896484
 20
-73.98567199707031
 40
8.000000000000005
 50
67.64140557719811
 51
165.0000626481513
  0
ARC
  8
0
  6
CONTINUOUS
 62
     7
 10
-210.3367156982422
 20
-57.47654724121094
 40
8.000000000000004
 50
344.9999893373032
 51
39.80524965256703
  0
ARC
  8
0
  6
CONTINUOUS
 62
     7
 10
-106.7883224487305
 20
-111.3461151123047
 40
8.000000000000004
 50
194.9999373518487
 51
269.999963344576
  0
ARC
  8
0
  6
CONTINUOUS
 62
     7
 10
-121.2225875854492
 20
-57.47654724121094
 40
7.999999999999995
 50
140.1947143752542
 51
194.9999746905181
  0
ARC
  8
0
  6
CONTINUOUS
 62
     7
 10
-143.7161712646484
 20
-73.98567199707031
 40
8.000000000000014
 50
14.99990137967008
 51
112.3585584506232
  0
ARC
  8
0
  6
CONTINUOUS
 62
     7
 10
-245.8187103271484
 20
-15.34611415863037
 40
4.999999999999999
 50
89.99998201391064
 51
165.9703866423999
  0
ARC
  8
0
  6
CONTINUOUS
 62
     7
 10
-240.2796478271484
 20
-35.34611511230469
 40
5.000000000000001
 50
89.99998201391064
 51
179.9999640278213
  0
ARC
  8
0
  6
CONTINUOUS
 62
     7
 10
-218.6946868896484
 20
-5.346113681793213
 40
4.999999999999999
 50
270.0000179860893
 51
344.1735159571641
  0
ARC
  8
0
  6
CONTINUOUS
 62
     7
 10
-218.6946868896484
 20
-35.34611511230469
 40
4.999999999999988
 50
15.82648404283584
 51
89.99998201391064
  0
ARC
  8
0
  6
CONTINUOUS
 62
     7
 10
-91.27965545654297
 20
-35.34611511230469
 40
5
 50
0
 51
89.99998201391064
  0
ARC
  8
0
  6
CONTINUOUS
 62
     7
 10
-112.864616394043
 20
-35.34611511230469
 40
5.000000000000001
 50
89.99998201391064
 51
164.1734868151746
  0
ARC
  8
0
  6
CONTINUOUS
 62
     7
 10
-112.864616394043
 20
-5.346113681793213
 40
5
 50
195.826458543312
 51
269.9999565143868
  0
ARC
  8
0
  6
CONTINUOUS
 62
     7
 10
-85.74059295654297
 20
-15.34611415863037
 40
5.000000000000004
 50
14.02957738542135
 51
89.99998201391064
  0
ARC
  8
0
  6
CONTINUOUS
 62
     3
 10
-165.7796478271484
 20
-20.34611320495605
 40
64
 50
21.30455530437452
 51
38.19749825402698
  0
ARC
  8
0
  6
CONTINUOUS
 62
     3
 10
-165.7796478271484
 20
-20.34611320495605
 40
64
 50
81.30455697402664
 51
98.1975204142466
  0
ARC
  8
0
  6
CONTINUOUS
 62
     3
 10
-165.7796478271484
 20
-20.34611320495605
 40
64
 50
141.3045518134896
 51
158.1975084235204
  0
ARC
  8
0
  6
CONTINUOUS
 62
     3
 10
-165.7796478271484
 20
-20.34611320495605
 40
64
 50
201.3045707859857
 51
218.1975137356382
  0
ARC
  8
0
  6
CONTINUOUS
 62
     3
 10
-165.7796478271484
 20
-20.34611320495605
 40
64
 50
261.3045656254486
 51
278.1975085751011
  0
ARC
  8
0
  6
CONTINUOUS
 62
     3
 10
-165.7796478271484
 20
-20.34611320495605
 40
64
 50
321.3045604649116
 51
338.197503414564
  0
ARC
  8
0
  6
CONTINUOUS
 62
     7
 10
-165.7796478271484
 20
-20.34611320495605
 40
17.5
 50
106.6015695841379
 51
73.39842495216361
  0
CIRCLE
  8
0
  6
CONTINUOUS
 62
     7
 10
-165.7796478271484
 20
-20.34611320495605
 40
37.5
  0
ARC
  8
0
  6
CONTINUOUS
 62
     7
 10
-165.7796478271484
 20
-20.34611320495605
 40
75
 50
116.9428106668065
 51
123.057277974072
  0
ARC
  8
0
  6
CONTINUOUS
 62
     7
 10
-165.7796478271484
 20
-20.34611320495605
 40
75
 50
103.9428023364945
 51
110.05726964376
  0
ARC
  8
0
  6
CONTINUOUS
 62
     7
 10
-165.7796478271484
 20
-20.34611320495605
 40
75
 50
53.39618545930109
 51
96.89213466007378
  0
ARC
  8
0
  6
CONTINUOUS
 62
     7
 10
-183.9518890380859
 20
82.71401977539063
 40
3.15000009536742
 50
9.999998855319246
 51
189.9999620293669
  0
ARC
  8
0
  6
CONTINUOUS
 62
     7
 10
-185.5948638916016
 20
55.87091064453125
 40
0.9999999999999956
 50
117.667083926394
 51
179.9999503674428
  0
ARC
  8
0
  6
CONTINUOUS
 62
     7
 10
-173.2271270751953
 20
58.05168151855469
 40
0.9999999999999907
 50
20.00001137101728
 51
82.33288293470682
  0
ARC
  8
0
  6
CONTINUOUS
 62
     7
 10
-174.9767608642578
 20
55.71232604980469
 40
0.999999999999986
 50
189.999979332211
 51
280.0000159876346
  0
ARC
  8
0
  6
CONTINUOUS
 62
     7
 10
-183.1506500244141
 20
54.27104187011719
 40
0.9999999999999978
 50
279.9999613461212
 51
9.999998855319284
  0
ARC
  8
0
  6
CONTINUOUS
 62
     7
 10
232.2203521728516
 20
37.15388488769531
 40
5.00000000000001
 50
179.9999776881996
 51
270.0000280040019
  0
ARC
  8
0
  6
CONTINUOUS
 62
     7
 10
227.2203521728516
 20
37.15388488769531
 40
5.00000000000001
 50
179.9999776881996
 51
270.0000280040019
  0
ARC
  8
0
  6
CONTINUOUS
 62
     7
 10
227.2203521728516
 20
-77.84611511230469
 40
4.999999999999996
 50
89.99992737239728
 51
179.9999640278213
  0
ARC
  8
0
  6
CONTINUOUS
 62
     7
 10
232.2203521728516
 20
-77.84611511230469
 40
4.999999999999996
 50
89.99992737239728
 51
179.9999640278213
  0
ARC
  8
0
  6
CONTINUOUS
 62
     7
 10
242.2203521728516
 20
37.15388488769531
 40
4.999999999999997
 50
269.9999974955218
 51
0
  0
ARC
  8
0
  6
CONTINUOUS
 62
     7
 10
242.2203521728516
 20
-77.84611511230469
 40
5
 50
0
 51
90.00000250447815
  0
ARC
  8
0
  6
CONTINUOUS
 62
     7
 10
145.2203521728516
 20
-114.3461151123047
 40
5.000000000000004
 50
270.0000179860893
 51
0
  0
ARC
  8
0
  6
CONTINUOUS
 62
     7
 10
158.2203521728516
 20
-18.34611320495605
 40
8.000000000000004
 50
103.3424218782613
 51
179.9999640278213
  0
ARC
  8
0
  6
CONTINUOUS
 62
     7
 10
155.2203521728516
 20
-5.697004795074463
 40
5.000000000000004
 50
283.3423007560891
 51
360
  0
ARC
  8
0
  6
CONTINUOUS
 62
     7
 10
107.3053970336914
 20
-60.34861755371094
 40
4.999999999999995
 50
357.0000876417595
 51
89.99998201391064
  0
ARC
  8
0
  6
CONTINUOUS
 62
     7
 10
222.2203521728516
 20
-13.48879909515381
 40
50.00000000000001
 50
179.9999776881997
 51
206.000008009202
  0
ARC
  8
0
  6
CONTINUOUS
 62
     7
 10
224.4690399169922
 20
-109.3461151123047
 40
10.00000000000001
 50
206.0000116516676
 51
270.0000179860893
  0
ARC
  8
0
  6
CONTINUOUS
 62
     7
 10
155.2203521728516
 20
36.54740905761719
 40
4.999999999999999
 50
273.000000994099
 51
0
  0
ARC
  8
0
  6
CONTINUOUS
 62
     7
 10
227.2203521728516
 20
202.1538848876953
 40
4.99999999999999
 50
89.99998201391064
 51
179.9999640278213
  0
ARC
  8
0
  6
CONTINUOUS
 62
     7
 10
227.2203521728516
 20
317.1539001464844
 40
5.00000000000001
 50
179.9999776881996
 51
270.0000280040019
  0
ARC
  8
0
  6
CONTINUOUS
 62
     7
 10
242.2203521728516
 20
202.1538848876953
 40
5
 50
0
 51
90.00000250447815
  0
ARC
  8
0
  6
CONTINUOUS
 62
     7
 10
242.2203521728516
 20
317.1539001464844
 40
5.000000000000004
 50
269.9999974955218
 51
0
  0
ARC
  8
0
  6
CONTINUOUS
 62
     7
 10
249.2203521728516
 20
177.1538848876953
 40
4.99999999999999
 50
270.0000179860893
 51
0
  0
ARC
  8
0
  6
CONTINUOUS
 62
     7
 10
249.2203521728516
 20
342.1539306640625
 40
5
 50
0
 51
89.99998201391064
  0
ARC
  8
0
  6
CONTINUOUS
 62
     7
 10
109.220344543457
 20
342.1539306640625
 40
5.000000000000019
 50
89.99998201391064
 51
179.9999640278213
  0
ARC
  8
0
  6
CONTINUOUS
 62
     7
 10
109.220344543457
 20
177.1538848876953
 40
4.999999999999996
 50
179.9999776881996
 51
270.0000280040019
  0
CIRCLE
  8
0
  6
CONTINUOUS
 62
     7
 10
119.220344543457
 20
187.1538848876953
 40
6
  0
CIRCLE
  8
0
  6
CONTINUOUS
 62
     7
 10
119.220344543457
 20
332.1539001464844
 40
6
  0
CIRCLE
  8
0
  6
CONTINUOUS
 62
     7
 10
239.2203521728516
 20
187.1538848876953
 40
6
  0
CIRCLE
  8
0
  6
CONTINUOUS
 62
     7
 10
239.2203521728516
 20
332.1539001464844
 40
6
  0
ARC
  8
0
  6
CONTINUOUS
 62
     7
 10
77.22034454345703
 20
259.6539001464844
 40
4.99999999999999
 50
270.0000179860893
 51
89.99998201391064
  0
ARC
  8
0
  6
CONTINUOUS
 62
     7
 10
155.2203521728516
 20
316.5474548339844
 40
5.00000000000001
 50
273.000000994099
 51
0
  0
ARC
  8
0
  6
CONTINUOUS
 62
     7
 10
155.2203521728516
 20
202.7603607177734
 40
5
 50
0
 51
86.99999900590099
  0
ARC
  8
0
  6
CONTINUOUS
 62
     7
 10
215.2203521728516
 20
336.1539306640625
 40
2.999999999999988
 50
20.02283274058075
 51
90.00000250447792
  0
ARC
  8
0
  6
CONTINUOUS
 62
     7
 10
215.2203521728516
 20
183.1538848876953
 40
3.000000000000003
 50
269.9999974955221
 51
343.6299507199942
  0
ARC
  8
0
  6
CONTINUOUS
 62
     7
 10
312.7203369140625
 20
-63.34611511230469
 40
5
 50
0
 51
90.00000250447847
  0
ARC
  8
0
  6
CONTINUOUS
 62
     7
 10
312.7203369140625
 20
22.65388679504395
 40
5.000000000000001
 50
269.9999974955215
 51
0
  0
ARC
  8
0
  6
CONTINUOUS
 62
     7
 10
299.7203369140625
 20
22.65388679504395
 40
5
 50
179.999991348578
 51
270.0000006832456
  0
ARC
  8
0
  6
CONTINUOUS
 62
     7
 10
299.7203369140625
 20
-63.34611511230469
 40
4.999999999999997
 50
90.00000250447847
 51
180.0000050089563
  0
ARC
  8
0
  6
CONTINUOUS
 62
     7
 10
299.7203369140625
 20
216.6539001464844
 40
5.000000000000004
 50
90.00000250447847
 51
180.0000050089563
  0
ARC
  8
0
  6
CONTINUOUS
 62
     7
 10
299.7203369140625
 20
302.6539001464844
 40
5
 50
179.999991348578
 51
270.0000006832456
  0
ARC
  8
0
  6
CONTINUOUS
 62
     7
 10
312.7203369140625
 20
302.6539001464844
 40
5.000000000000004
 50
269.9999974955215
 51
0
  0
ARC
  8
0
  6
CONTINUOUS
 62
     7
 10
312.7203369140625
 20
216.6539001464844
 40
5
 50
0
 51
90.00000250447847
  0
ARC
  8
0
  6
CONTINUOUS
 62
     7
 10
-165.7796478271484
 20
-20.34611320495605
 40
80
 50
25.44772414924216
 51
94.91861980129026
  0
ARC
  8
0
  6
CONTINUOUS
 62
     7
 10
-165.7796478271484
 20
-20.34611320495605
 40
80
 50
105.0813470598114
 51
154.5522774446196
  0
POLYLINE
  8
0
  6
CONTINUOUS
 62
     7
 66
     1
 10
0
 20
0
  0
VERTEX
  8
0
  6
CONTINUOUS
 62
     7
 10
227.7815379390531
 20
55.54573690813412
 42
0.08272224610718799
  0
VERTEX
  8
0
  6
CONTINUOUS
 62
     7
 10
232.0684778079593
 20
58.74708708838279
 42
0.08385196407261646
  0
VERTEX
  8
0
  6
CONTINUOUS
 62
     7
 10
235.0761789923845
 20
63.17202615845454
 42
0.08471339104962328
  0
VERTEX
  8
0
  6
CONTINUOUS
 62
     7
 10
236.4542381380218
 20
68.34138437015442
 42
0.08490374353110119
  0
VERTEX
  8
0
  6
CONTINUOUS
 62
     7
 10
236.0369718735786
 20
73.67373417993002
 42
0.08436947758508898
  0
VERTEX
  8
0
  6
CONTINUOUS
 62
     7
 10
233.875193009889
 20
78.56697929869094
 42
0.08333442676212523
  0
VERTEX
  8
0
  6
CONTINUOUS
 62
     7
 10
230.2254185737562
 20
82.47925096158399
 42
0.08226418733021691
  0
VERTEX
  8
0
  6
CONTINUOUS
 62
     7
 10
225.5030508812364
 20
84.99632004766042
 42
0.0816258022445733
  0
VERTEX
  8
0
  6
CONTINUOUS
 62
     7
 10
220.2203521728516
 20
85.86402893066406
 42
0.08158656035583535
  0
VERTEX
  8
0
  6
CONTINUOUS
 62
     7
 10
214.9400844324636
 20
84.99714121480328
 42
0.0822472068232501
  0
VERTEX
  8
0
  6
CONTINUOUS
 62
     7
 10
210.2181710388206
 20
82.48146298251937
 42
0.08333895139426424
  0
VERTEX
  8
0
  6
CONTINUOUS
 62
     7
 10
206.567329309458
 20
78.56972920346156
 42
0.0843783860190943
  0
VERTEX
  8
0
  6
CONTINUOUS
 62
     7
 10
204.4043942796682
 20
73.67635347827351
 42
0.08490739937957725
  0
VERTEX
  8
0
  6
CONTINUOUS
 62
     7
 10
203.9862414937143
 20
68.34383991994075
 42
0.0847095674472343
  0
VERTEX
  8
0
  6
CONTINUOUS
 62
     7
 10
205.3633911350283
 20
63.17450422593633
 42
0.08383810926024889
  0
VERTEX
  8
0
  6
CONTINUOUS
 62
     7
 10
208.3697018692135
 20
58.74972315121868
 42
0.08273741865118485
  0
VERTEX
  8
0
  6
CONTINUOUS
 62
     7
 10
212.6567576460697
 20
55.54698113317603
 42
0
  0
SEQEND
  8
0
  0
POLYLINE
  8
0
  6
CONTINUOUS
 62
     7
 66
     1
 10
0
 20
0
 70
     1
  0
VERTEX
  8
0
  6
CONTINUOUS
 62
     7
 10
230.2203521728516
 20
69.7637939453125
 42
0.1005697614596616
  0
VERTEX
  8
0
  6
CONTINUOUS
 62
     7
 10
229.4489685987467
 20
73.55660129281017
 42
0.09931459426854482
  0
VERTEX
  8
0
  6
CONTINUOUS
 62
     7
 10
227.2652804754713
 20
76.75308697455425
 42
0.09762475566248466
  0
VERTEX
  8
0
  6
CONTINUOUS
 62
     7
 10
224.0231256931649
 20
78.87201506357094
 42
0.096457424947497
  0
VERTEX
  8
0
  6
CONTINUOUS
 62
     7
 10
220.2203521728516
 20
79.61187744140625
 42
0.09643683433006306
  0
VERTEX
  8
0
  6
CONTINUOUS
 62
     7
 10
216.4183411052909
 20
78.87232376069073
 42
0.09759325526350837
  0
VERTEX
  8
0
  6
CONTINUOUS
 62
     7
 10
213.1768891453998
 20
76.75451908437044
 42
0.09935255147168751
  0
VERTEX
  8
0
  6
CONTINUOUS
 62
     7
 10
210.9919502349541
 20
73.55710740642783
 42
0.1005839922554356
  0
VERTEX
  8
0
  6
CONTINUOUS
 62
     7
 10
210.2203521728516
 20
69.7637939453125
 42
0.1005699380586752
  0
VERTEX
  8
0
  6
CONTINUOUS
 62
     7
 10
210.9917366444029
 20
65.97098688624644
 42
0.09931486592913218
  0
VERTEX
  8
0
  6
CONTINUOUS
 62
     7
 10
213.1754286012906
 20
62.7745039744362
 42
0.09762481604130083
  0
VERTEX
  8
0
  6
CONTINUOUS
 62
     7
 10
216.4175874423003
 20
60.65558217783722
 42
0.09645692972529309
  0
VERTEX
  8
0
  6
CONTINUOUS
 62
     7
 10
220.2203521728516
 20
59.91572570800781
 42
0.09643659111140232
  0
VERTEX
  8
0
  6
CONTINUOUS
 62
     7
 10
224.0223637852068
 20
60.65527726130625
 42
0.09759332041093691
  0
VERTEX
  8
0
  6
CONTINUOUS
 62
     7
 10
227.2638176915499
 20
62.77307892690392
 42
0.09935282727083398
  0
VERTEX
  8
0
  6
CONTINUOUS
 62
     7
 10
229.4487571510186
 20
65.97049006441664
 42
0.1005839080411673
  0
SEQEND
  8
0
  0
POLYLINE
  8
0
  6
CONTINUOUS
 62
     7
 66
     1
 10
0
 20
0
  0
VERTEX
  8
0
  6
CONTINUOUS
 62
     7
 10
227.3536124921835
 20
57.98337665903466
 42
0.2015082714047674
  0
VERTEX
  8
0
  6
CONTINUOUS
 62
     7
 10
226.623609210096
 20
58.49185706986488
 42
0.03155962249728661
  0
VERTEX
  8
0
  6
CONTINUOUS
 62
     7
 10
225.7337807596026
 20
58.73093821288111
 42
0.0154269408222927
  0
VERTEX
  8
0
  6
CONTINUOUS
 62
     7
 10
224.8261417343583
 20
58.89029965777475
 42
0.01021026469514373
  0
VERTEX
  8
0
  6
CONTINUOUS
 62
     7
 10
223.9106170612892
 20
59.00410426458581
 42
0.00782924774678387
  0
VERTEX
  8
0
  6
CONTINUOUS
 62
     7
 10
222.99153810028
 20
59.08519277210669
 42
0.00658871384223916
  0
VERTEX
  8
0
  6
CONTINUOUS
 62
     7
 10
222.0703043543217
 20
59.13993747022339
 42
0.00593110137411589
  0
VERTEX
  8
0
  6
CONTINUOUS
 62
     7
 10
221.1479019804093
 20
59.17170504003449
 42
0.005641265167946084
  0
VERTEX
  8
0
  6
CONTINUOUS
 62
     7
 10
220.2249752909942
 20
59.18218968203979
 42
0.005639189148648001
  0
VERTEX
  8
0
  6
CONTINUOUS
 62
     7
 10
219.3021574075958
 20
59.17191635177731
 42
0.005918164220034252
  0
VERTEX
  8
0
  6
CONTINUOUS
 62
     7
 10
218.380989021236
 20
59.14042822238611
 42
0.006584376605010963
  0
VERTEX
  8
0
  6
CONTINUOUS
 62
     7
 10
217.4589792986052
 20
59.08590748264221
 42
0.00781452041274038
  0
VERTEX
  8
0
  6
CONTINUOUS
 62
     7
 10
216.5395456454779
 20
59.00509225423938
 42
0.01018488360748551
  0
VERTEX
  8
0
  6
CONTINUOUS
 62
     7
 10
215.6232831180403
 20
58.89157376123757
 42
0.01540565567860992
  0
VERTEX
  8
0
  6
CONTINUOUS
 62
     7
 10
214.7130125522106
 20
58.73221971473073
 42
0.03141742369794875
  0
VERTEX
  8
0
  6
CONTINUOUS
 62
     7
 10
213.8217319813411
 20
58.49348617925422
 42
0.1997036642487022
  0
VERTEX
  8
0
  6
CONTINUOUS
 62
     7
 10
213.0875011373132
 20
57.9856568748827
 42
0
  0
SEQEND
  8
0
  0
POLYLINE
  8
0
  6
CONTINUOUS
 62
     7
 66
     1
 10
0
 20
0
  0
VERTEX
  8
0
  6
CONTINUOUS
 62
     7
 10
212.4822543949867
 20
270.5912782946668
 42
0.04188730367417466
  0
VERTEX
  8
0
  6
CONTINUOUS
 62
     7
 10
212.9223866570511
 20
269.3633041460723
 42
0.04165594837391758
  0
VERTEX
  8
0
  6
CONTINUOUS
 62
     7
 10
213.560633454881
 20
268.2253811440686
 42
0.0413651039296118
  0
VERTEX
  8
0
  6
CONTINUOUS
 62
     7
 10
214.3780903370312
 20
267.2085278077859
 42
0.04106114708358538
  0
VERTEX
  8
0
  6
CONTINUOUS
 62
     7
 10
215.3514003782938
 20
266.3393921107814
 42
0.04077357732522578
  0
VERTEX
  8
0
  6
CONTINUOUS
 62
     7
 10
216.4534728201774
 20
265.6402126456539
 42
0.04052878174785276
  0
VERTEX
  8
0
  6
CONTINUOUS
 62
     7
 10
217.6543318745856
 20
265.1284647163795
 42
0.04034729443310151
  0
VERTEX
  8
0
  6
CONTINUOUS
 62
     7
 10
218.9219066289268
 20
264.8166535237942
 42
0.04023511476117403
  0
VERTEX
  8
0
  6
CONTINUOUS
 62
     7
 10
220.2225299858213
 20
264.7121890126306
 42
0.04022823417035594
  0
VERTEX
  8
0
  6
CONTINUOUS
 62
     7
 10
221.522871838604
 20
264.817314548423
 42
0.04031551583042434
  0
VERTEX
  8
0
  6
CONTINUOUS
 62
     7
 10
222.7893007945289
 20
265.1294419399238
 42
0.04051141576212088
  0
VERTEX
  8
0
  6
CONTINUOUS
 62
     7
 10
223.989455441341
 20
265.6413820290701
 42
0.04075983235447127
  0
VERTEX
  8
0
  6
CONTINUOUS
 62
     7
 10
225.0909453285187
 20
266.3406323125513
 42
0.04106008099379872
  0
VERTEX
  8
0
  6
CONTINUOUS
 62
     7
 10
226.0639969315371
 20
267.209984067813
 42
0.04137779398196458
  0
VERTEX
  8
0
  6
CONTINUOUS
 62
     7
 10
226.8814102457983
 20
268.2273635178609
 42
0.04167556173290464
  0
VERTEX
  8
0
  6
CONTINUOUS
 62
     7
 10
227.5195574064914
 20
269.3660243456036
 42
0.04191649456144819
  0
VERTEX
  8
0
  6
CONTINUOUS
 62
     7
 10
227.9594484353292
 20
270.5950299028455
 42
0
  0
SEQEND
  8
0
  0
POLYLINE
  8
0
  6
CONTINUOUS
 62
     7
 66
     1
 10
0
 20
0
  0
VERTEX
  8
0
  6
CONTINUOUS
 62
     7
 10
231.1517570018071
 20
279.9140857737665
 42
0.01754280247140202
  0
VERTEX
  8
0
  6
CONTINUOUS
 62
     7
 10
229.8102891732717
 20
280.2072287602648
 42
0.0110500010666678
  0
VERTEX
  8
0
  6
CONTINUOUS
 62
     7
 10
228.4540012653755
 20
280.4252816736698
 42
0.008116753947664762
  0
VERTEX
  8
0
  6
CONTINUOUS
 62
     7
 10
227.0896272061894
 20
280.5919668193981
 42
0.006531214552881057
  0
VERTEX
  8
0
  6
CONTINUOUS
 62
     7
 10
225.7211949870369
 20
280.7188984863115
 42
0.005600166967274429
  0
VERTEX
  8
0
  6
CONTINUOUS
 62
     7
 10
224.3498168413195
 20
280.8127742312689
 42
0.005037299046434821
  0
VERTEX
  8
0
  6
CONTINUOUS
 62
     7
 10
222.9764269790787
 20
280.8775688127921
 42
0.004711430492992692
  0
VERTEX
  8
0
  6
CONTINUOUS
 62
     7
 10
221.6019403432938
 20
280.9156461181415
 42
0.00456087460658703
  0
VERTEX
  8
0
  6
CONTINUOUS
 62
     7
 10
220.2269746078418
 20
280.9282834018467
 42
0.004559742370370115
  0
VERTEX
  8
0
  6
CONTINUOUS
 62
     7
 10
218.8521349468141
 20
280.9158902105438
 42
0.004705488727895947
  0
VERTEX
  8
0
  6
CONTINUOUS
 62
     7
 10
217.4787002001762
 20
280.8781041657537
 42
0.005034824033538002
  0
VERTEX
  8
0
  6
CONTINUOUS
 62
     7
 10
216.104752804051
 20
280.8135690956066
 42
0.005594377643035791
  0
VERTEX
  8
0
  6
CONTINUOUS
 62
     7
 10
214.7330153536051
 20
280.7199769731288
 42
0.006523128034364171
  0
VERTEX
  8
0
  6
CONTINUOUS
 62
     7
 10
213.3638446613305
 20
280.5933232441082
 42
0.008102150586995312
  0
VERTEX
  8
0
  6
CONTINUOUS
 62
     7
 10
211.9986971454242
 20
280.4269521467555
 42
0.01103428390014293
  0
VERTEX
  8
0
  6
CONTINUOUS
 62
     7
 10
210.640259906216
 20
280.2090488159705
 42
0.01751373987311015
  0
VERTEX
  8
0
  6
CONTINUOUS
 62
     7
 10
209.2961393974105
 20
279.9159515204324
 42
0
  0
SEQEND
  8
0
  0
POLYLINE
  8
0
  6
CONTINUOUS
 62
     7
 66
     1
 10
0
 20
0
 70
     1
  0
VERTEX
  8
0
  6
CONTINUOUS
 62
     7
 10
220.2203521728516
 20
274.7239990234375
 42
0.01162476452189001
  0
VERTEX
  8
0
  6
CONTINUOUS
 62
     7
 10
216.8022412994789
 20
274.6455084351612
 42
0.01447217399077899
  0
VERTEX
  8
0
  6
CONTINUOUS
 62
     7
 10
213.3917314419998
 20
274.3919807511895
 42
0.02556038781703035
  0
VERTEX
  8
0
  6
CONTINUOUS
 62
     7
 10
210.0113973914322
 20
273.879810406109
 42
0.1952839009470587
  0
VERTEX
  8
0
  6
CONTINUOUS
 62
     7
 10
207.0703643160116
 20
272.4383327029073
 42
0.1938987691653509
  0
VERTEX
  8
0
  6
CONTINUOUS
 62
     7
 10
210.0146361328601
 20
271.0005519061327
 42
0.02553136055711399
  0
VERTEX
  8
0
  6
CONTINUOUS
 62
     7
 10
213.393281102058
 20
270.4889202768846
 42
0.01446583242552346
  0
VERTEX
  8
0
  6
CONTINUOUS
 62
     7
 10
216.8026970677196
 20
270.2355409912427
 42
0.0116227512524835
  0
VERTEX
  8
0
  6
CONTINUOUS
 62
     7
 10
220.2203521728516
 20
270.1570739746094
 42
0.01162444772987309
  0
VERTEX
  8
0
  6
CONTINUOUS
 62
     7
 10
223.638463115044
 20
270.2355622966514
 42
0.01447191320536869
  0
VERTEX
  8
0
  6
CONTINUOUS
 62
     7
 10
227.0489734549972
 20
270.4890838191582
 42
0.02556016153305623
  0
VERTEX
  8
0
  6
CONTINUOUS
 62
     7
 10
230.4293089671237
 20
271.0012447597048
 42
0.1952857525117246
  0
VERTEX
  8
0
  6
CONTINUOUS
 62
     7
 10
233.3703400013605
 20
272.4427149046177
 42
0.1938970346386963
  0
VERTEX
  8
0
  6
CONTINUOUS
 62
     7
 10
230.4260679329944
 20
273.8805029001915
 42
0.02553159831796887
  0
VERTEX
  8
0
  6
CONTINUOUS
 62
     7
 10
227.0474244376535
 20
274.392144112996
 42
0.0144660957901179
  0
VERTEX
  8
0
  6
CONTINUOUS
 62
     7
 10
223.6380089529234
 20
274.6455296596531
 42
0.01162307440157645
  0
SEQEND
  8
0
  0
POLYLINE
  8
0
  6
CONTINUOUS
 62
     7
 66
     1
 10
0
 20
0
  0
VERTEX
  8
0
  6
CONTINUOUS
 62
     7
 10
209.2940521240234
 20
279.9154052734375
 42
0.01843525202591578
  0
VERTEX
  8
0
  6
CONTINUOUS
 62
     7
 10
208.3130788347057
 20
279.6755863174807
 42
0.005078825252477499
  0
VERTEX
  8
0
  6
CONTINUOUS
 62
     7
 10
207.3436645824019
 20
279.3925249398388
 42
0.02696868374647846
  0
VERTEX
  8
0
  6
CONTINUOUS
 62
     7
 10
206.3929583769583
 20
279.0526532229343
 42
0.05660729878810603
  0
VERTEX
  8
0
  6
CONTINUOUS
 62
     7
 10
205.5131605882695
 20
278.5610556418698
 42
0.06337965065019521
  0
VERTEX
  8
0
  6
CONTINUOUS
 62
     7
 10
204.7853639624473
 20
277.8643926206261
 42
0.06341675255997044
  0
VERTEX
  8
0
  6
CONTINUOUS
 62
     7
 10
204.249020199676
 20
277.0103804253137
 42
0.07212843519059729
  0
VERTEX
  8
0
  6
CONTINUOUS
 62
     7
 10
203.9634368609176
 20
276.0454298008025
 42
0.07237625315359522
  0
VERTEX
  8
0
  6
CONTINUOUS
 62
     7
 10
203.9635484258762
 20
275.0391777976407
 42
0.0721155885312271
  0
VERTEX
  8
0
  6
CONTINUOUS
 62
     7
 10
204.2492540464423
 20
274.0744681413316
 42
0.06331753536179009
  0
VERTEX
  8
0
  6
CONTINUOUS
 62
     7
 10
204.7846999297607
 20
273.2217792200332
 42
0.06336647317133201
  0
VERTEX
  8
0
  6
CONTINUOUS
 62
     7
 10
205.5123112090313
 20
272.5249247918246
 42
0.05663916181648132
  0
VERTEX
  8
0
  6
CONTINUOUS
 62
     7
 10
206.3920074717041
 20
272.0331140652843
 42
0.02700149179083137
  0
VERTEX
  8
0
  6
CONTINUOUS
 62
     7
 10
207.3429058374072
 20
271.6930661560068
 42
0.005084234218402303
  0
VERTEX
  8
0
  6
CONTINUOUS
 62
     7
 10
208.3128380533446
 20
271.4098383250351
 42
0.01843767337794927
  0
VERTEX
  8
0
  6
CONTINUOUS
 62
     7
 10
209.2940521240234
 20
271.1699523925781
 42
0
  0
SEQEND
  8
0
  0
POLYLINE
  8
0
  6
CONTINUOUS
 62
     7
 66
     1
 10
0
 20
0
  0
VERTEX
  8
0
  6
CONTINUOUS
 62
     7
 10
231.1466522216797
 20
279.9154052734375
 42
-0.01843525202591617
  0
VERTEX
  8
0
  6
CONTINUOUS
 62
     7
 10
232.1276255109974
 20
279.6755863174807
 42
-0.005078825252477555
  0
VERTEX
  8
0
  6
CONTINUOUS
 62
     7
 10
233.0970397633012
 20
279.3925249398388
 42
-0.02696868374647668
  0
VERTEX
  8
0
  6
CONTINUOUS
 62
     7
 10
234.0477459687448
 20
279.0526532229343
 42
-0.05660729878810918
  0
VERTEX
  8
0
  6
CONTINUOUS
 62
     7
 10
234.9275437574336
 20
278.5610556418698
 42
-0.06337965065019371
  0
VERTEX
  8
0
  6
CONTINUOUS
 62
     7
 10
235.6553403832559
 20
277.8643926206261
 42
-0.0634167525599626
  0
VERTEX
  8
0
  6
CONTINUOUS
 62
     7
 10
236.1916841460271
 20
277.0103804253137
 42
-0.07212843519060466
  0
VERTEX
  8
0
  6
CONTINUOUS
 62
     7
 10
236.4772674847855
 20
276.0454298008025
 42
-0.07237625315358681
  0
VERTEX
  8
0
  6
CONTINUOUS
 62
     7
 10
236.4771559198269
 20
275.0391777976407
 42
-0.07211558853121929
  0
VERTEX
  8
0
  6
CONTINUOUS
 62
     7
 10
236.1914502992608
 20
274.0744681413316
 42
-0.06331753536178542
  0
VERTEX
  8
0
  6
CONTINUOUS
 62
     7
 10
235.6560044159424
 20
273.2217792200332
 42
-0.06336647317132743
  0
VERTEX
  8
0
  6
CONTINUOUS
 62
     7
 10
234.9283931366718
 20
272.5249247918246
 42
-0.05663916181647709
  0
VERTEX
  8
0
  6
CONTINUOUS
 62
     7
 10
234.048696873999
 20
272.0331140652843
 42
-0.0270014917908327
  0
VERTEX
  8
0
  6
CONTINUOUS
 62
     7
 10
233.0977985082959
 20
271.6930661560068
 42
-0.005084234218402081
  0
VERTEX
  8
0
  6
CONTINUOUS
 62
     7
 10
232.1278662923585
 20
271.4098383250351
 42
-0.01843767337794972
  0
VERTEX
  8
0
  6
CONTINUOUS
 62
     7
 10
231.1466522216797
 20
271.1699523925781
 42
0
  0
SEQEND
  8
0
  0
TEXT
  8
0
  6
CONTINUOUS
 62
     7
 10
-262.2082171440125
 20
250.6539001464844
 40
18
 41
1.031321647970434
  1
ERK-NAB-200
  0
ENDSEC
  0
EOF
