  0
SECTION
  2
HEADER
  0
ENDSEC
  0
SECTION
  2
TABLES
  0
TABLE
  2
LTYPE
 70
    22
  0
LTYPE
  2
CONTINUOUS
 70
    64
  3
Solid line
 72
    65
 73
     0
 40
0.000000
  0
LTYPE
  2
DASHED
 70
    64
  3
__ __ __ __ __ __ __ __ __ __ __ __ __ __ __
 72
    65
 73
     2
 40
3.500000
 49
2.000000
 49
-1.500000
  0
LTYPE
  2
CENTER
 70
    64
  3
____ _ ____ _ ____ _ ____ _ ____ _ ____ _ ____
 72
    65
 73
     4
 40
17.500000
 49
13.000000
 49
-1.500000
 49
1.500000
 49
-1.500000
  0
LTYPE
  2
PHANTOM
 70
    64
  3
_____ _ _ _____ _ _ _____ _ _ _____ _ _ ____  
 72
    65
 73
     6
 40
15.500000
 49
8.000000
 49
-1.500000
 49
1.500000
 49
-1.500000
 49
1.500000
 49
-1.500000
  0
LTYPE
  2
DOT
 70
    64
  3
. . . . . . . . . . . . . . . . . . . . . . . .
 72
    65
 73
     2
 40
0.25
 49
0.0
 49
-0.25
  0
ENDTAB
  0
TABLE
  2
LAYER
 70
     1
  0
LAYER
  2
0
 70
     0
 62
     7
  6
CONTINUOUS
  0
ENDTAB
  0
TABLE
  2
STYLE
 70
     1
  0
STYLE
  2
STANDARD
 70
     0
 40
0.000000
 41
1.000000
 50
0.000000
 71
     0
 42
0.200000
  3
txt
  4
BIGFONT
  0
ENDTAB
  0
TABLE
  2
VIEW
 70
     0
  0
ENDTAB
  0
ENDSEC
  0
SECTION
  2
BLOCKS
  0
ENDSEC
  0
SECTION
  2
ENTITIES
  0
LINE
  8
0
  6
CONTINUOUS
 62
     7
 10
232.0987548828125
 20
-221.1360626220703
 11
225.7348022460938
 21
-227.5000152587891
  0
LINE
  8
0
  6
CONTINUOUS
 62
     3
 10
232.0987396240234
 20
-215
 11
232.0987396240234
 21
-240
  0
LINE
  8
0
  6
CONTINUOUS
 62
     7
 10
92.09873962402344
 20
-196.0000305175781
 11
155.0987396240234
 21
-196.0000305175781
  0
LINE
  8
0
  6
CONTINUOUS
 62
     7
 10
172.0987396240234
 20
-195
 11
172.0987396240234
 21
-260
  0
LINE
  8
0
  6
CONTINUOUS
 62
     7
 10
172.0987396240234
 20
-260
 11
178.0987396240234
 21
-260
  0
LINE
  8
0
  6
CONTINUOUS
 62
     7
 10
172.0987396240234
 20
-195
 11
178.0987396240234
 21
-195
  0
LINE
  8
0
  6
CONTINUOUS
 62
     7
 10
-217.9012603759766
 20
-110
 11
-217.9012603759766
 21
-110.4263076782227
  0
LINE
  8
0
  6
CONTINUOUS
 62
     7
 10
-197.9012603759766
 20
-110
 11
-197.9012603759766
 21
-110.4263076782227
  0
LINE
  8
0
  6
CONTINUOUS
 62
     7
 10
-211.9012603759766
 20
-72.5
 11
-211.9012603759766
 21
-107.6000061035156
  0
LINE
  8
0
  6
CONTINUOUS
 62
     7
 10
-211.9012756347656
 20
-102.2511138916016
 11
-215.8878173828125
 21
-103.0218276977539
  0
LINE
  8
0
  6
CONTINUOUS
 62
     7
 10
-216.8418426513672
 20
-103.9916305541992
 11
-217.9012756347656
 21
-110
  0
LINE
  8
0
  6
CONTINUOUS
 62
     7
 10
-203.9012603759766
 20
-72.5
 11
-203.9012603759766
 21
-107.6000061035156
  0
LINE
  8
0
  6
CONTINUOUS
 62
     7
 10
-203.9013061523438
 20
-102.2510986328125
 11
-199.9147644042969
 21
-103.0218124389648
  0
LINE
  8
0
  6
CONTINUOUS
 62
     7
 10
-198.960693359375
 20
-103.9916152954102
 11
-197.9012603759766
 21
-109.9999694824219
  0
LINE
  8
0
  6
CONTINUOUS
 62
     7
 10
-117.4034118652344
 20
-152.5578155517578
 11
-118.7022399902344
 21
-154.9153137207031
  0
LINE
  8
0
  6
CONTINUOUS
 62
     7
 10
-107.6505584716797
 20
-166.2132415771484
 11
-110.1014251708984
 21
-167.0004730224609
  0
LINE
  8
0
  6
CONTINUOUS
 62
     7
 10
-102.8024063110352
 20
-174.9596557617188
 11
-104.7687377929688
 21
-176.6209106445313
  0
LINE
  8
0
  6
CONTINUOUS
 62
     7
 10
-298.3971557617188
 20
-152.5563659667969
 11
-297.0986328125
 21
-154.9132995605469
  0
LINE
  8
0
  6
CONTINUOUS
 62
     7
 10
-282.8423461914063
 20
-136.9999237060547
 11
-280.4838562011719
 21
-138.2993011474609
  0
LINE
  8
0
  6
CONTINUOUS
 62
     7
 10
-269.1859741210937
 20
-127.248420715332
 11
-268.3988342285156
 21
-129.6989593505859
  0
LINE
  8
0
  6
CONTINUOUS
 62
     7
 10
-260.4407653808594
 20
-122.4003677368164
 11
-258.779296875
 21
-124.366943359375
  0
LINE
  8
0
  6
CONTINUOUS
 62
     7
 10
-235.45166015625
 20
-113.2750473022461
 11
-234.2750854492187
 21
-115.5651092529297
  0
LINE
  8
0
  6
CONTINUOUS
 62
     7
 10
-245.0652770996094
 20
-116.0322875976563
 11
-244.8495788574219
 21
-118.5971908569336
  0
LINE
  8
0
  6
CONTINUOUS
 62
     7
 10
-324.8856811523437
 20
-216.4985656738281
 11
-322.4442443847656
 21
-215.7916564941406
  0
LINE
  8
0
  6
CONTINUOUS
 62
     7
 10
-322.1242370605469
 20
-199.9456939697266
 11
-320.1824645996094
 21
-200.9433288574219
  0
LINE
  8
0
  6
CONTINUOUS
 62
     7
 10
-318.5765686035156
 20
-190.40087890625
 11
-316.8034973144531
 21
-190.5500030517578
  0
LINE
  8
0
  6
CONTINUOUS
 62
     7
 10
-308.1514587402344
 20
-166.2119598388672
 11
-305.7003479003906
 21
-166.999267578125
  0
LINE
  8
0
  6
CONTINUOUS
 62
     7
 10
-312.9995727539063
 20
-174.9590606689453
 11
-311.0334167480469
 21
-176.6201629638672
  0
LINE
  8
0
  6
CONTINUOUS
 62
     7
 10
-90.91741180419922
 20
-216.50048828125
 11
-93.35785675048828
 21
-215.7938842773438
  0
LINE
  8
0
  6
CONTINUOUS
 62
     7
 10
-93.67726135253906
 20
-199.9480133056641
 11
-95.96681213378906
 21
-201.1242980957031
  0
LINE
  8
0
  6
CONTINUOUS
 62
     7
 10
-96.43349456787109
 20
-190.3352813720703
 11
-98.99867248535156
 21
-190.5510101318359
  0
LINE
  8
0
  6
CONTINUOUS
 62
     7
 10
-218.9007415771484
 20
-110.5158309936523
 11
-219.6494598388672
 21
-113.1016616821289
  0
LINE
  8
0
  6
CONTINUOUS
 62
     3
 10
-114.9112396240234
 20
-292.5000305175781
 11
-122.9112396240234
 21
-298.4497985839844
  0
LINE
  8
0
  6
CONTINUOUS
 62
     3
 10
-122.9112930297852
 20
-292.5000305175781
 11
-114.911262512207
 21
-298.4497985839844
  0
LINE
  8
0
  6
CONTINUOUS
 62
     7
 10
-114.9112701416016
 20
-292.5
 11
-122.9112701416016
 21
-292.5
  0
LINE
  8
0
  6
CONTINUOUS
 62
     3
 10
-122.9112319946289
 20
-286.5502319335938
 11
-114.9112548828125
 21
-292.5
  0
LINE
  8
0
  6
CONTINUOUS
 62
     3
 10
-122.9112701416016
 20
-292.5
 11
-114.911262512207
 21
-286.5502624511719
  0
LINE
  8
0
  6
CONTINUOUS
 62
     3
 10
-115.4112701416016
 20
-221.5502166748047
 11
-107.4112396240234
 21
-227.5
  0
LINE
  8
0
  6
CONTINUOUS
 62
     3
 10
-115.4113006591797
 20
-227.4999542236328
 11
-107.4113159179687
 21
-233.4496917724609
  0
LINE
  8
0
  6
CONTINUOUS
 62
     3
 10
-107.4112777709961
 20
-227.5
 11
-115.4112854003906
 21
-233.4497528076172
  0
LINE
  8
0
  6
CONTINUOUS
 62
     7
 10
-115.4112701416016
 20
-227.5
 11
-107.4112701416016
 21
-227.5
  0
LINE
  8
0
  6
CONTINUOUS
 62
     3
 10
-107.4112854003906
 20
-221.5502471923828
 11
-115.411262512207
 21
-227.4999847412109
  0
LINE
  8
0
  6
CONTINUOUS
 62
     7
 10
-114.9112701416016
 20
-286.5502319335938
 11
-122.9112701416016
 21
-286.5502319335938
  0
LINE
  8
0
  6
CONTINUOUS
 62
     7
 10
-114.9112701416016
 20
-298.4497680664063
 11
-122.9112701416016
 21
-298.4497680664063
  0
LINE
  8
0
  6
CONTINUOUS
 62
     7
 10
-122.911262512207
 20
-285.7640686035156
 11
-127.9012603759766
 21
-285.9200134277344
  0
LINE
  8
0
  6
CONTINUOUS
 62
     7
 10
-122.9112396240234
 20
-299.2359313964844
 11
-127.9012298583984
 21
-299.0799865722656
  0
LINE
  8
0
  6
CONTINUOUS
 62
     7
 10
-122.9112701416016
 20
-299.2359313964844
 11
-122.9112701416016
 21
-285.7640686035156
  0
LINE
  8
0
  6
CONTINUOUS
 62
     7
 10
-114.9112701416016
 20
-298.4497680664063
 11
-114.9112701416016
 21
-286.5502319335938
  0
LINE
  8
0
  6
CONTINUOUS
 62
     7
 10
-107.4112701416016
 20
-221.5502471923828
 11
-115.4112701416016
 21
-221.5502471923828
  0
LINE
  8
0
  6
CONTINUOUS
 62
     7
 10
-107.4112701416016
 20
-233.4497528076172
 11
-115.4112701416016
 21
-233.4497528076172
  0
LINE
  8
0
  6
CONTINUOUS
 62
     7
 10
-115.4112548828125
 20
-220.7640533447266
 11
-120.6484451293945
 21
-220.9277191162109
  0
LINE
  8
0
  6
CONTINUOUS
 62
     7
 10
-115.4112548828125
 20
-234.2359466552734
 11
-120.6484451293945
 21
-234.0722808837891
  0
LINE
  8
0
  6
CONTINUOUS
 62
     7
 10
-115.4112701416016
 20
-234.2359313964844
 11
-115.4112701416016
 21
-220.7640686035156
  0
LINE
  8
0
  6
CONTINUOUS
 62
     7
 10
-107.4112701416016
 20
-233.4497528076172
 11
-107.4112701416016
 21
-221.5502471923828
  0
LINE
  8
0
  6
CONTINUOUS
 62
     7
 10
-215.9012603759766
 20
-196
 11
-199.9012603759766
 21
-196
  0
LINE
  8
0
  6
CONTINUOUS
 62
     7
 10
-215.9012603759766
 20
-206
 11
-199.9012603759766
 21
-206
  0
LINE
  8
0
  6
CONTINUOUS
 62
     7
 10
-215.9012603759766
 20
-196
 11
-215.9012603759766
 21
-206
  0
LINE
  8
0
  6
CONTINUOUS
 62
     7
 10
-199.9012603759766
 20
-196
 11
-199.9012603759766
 21
-206
  0
LINE
  8
0
  6
CONTINUOUS
 62
     3
 10
-151.6097259521484
 20
-259.9999694824219
 11
-134.2892150878906
 21
-269.9999694824219
  0
LINE
  8
0
  6
CONTINUOUS
 62
     3
 10
-264.1929321289063
 20
-259.9998474121094
 11
-281.513427734375
 21
-269.9998474121094
  0
LINE
  8
0
  6
CONTINUOUS
 62
     3
 10
-264.1929016113281
 20
-194.9999694824219
 11
-281.5133972167969
 21
-184.9999694824219
  0
LINE
  8
0
  6
CONTINUOUS
 62
     3
 10
-151.6096649169922
 20
-194.9999084472656
 11
-134.2891540527344
 21
-184.9999084472656
  0
LINE
  8
0
  6
DASHED
 62
     7
 10
-85.90126037597656
 20
-366.5
 11
-85.90126037597656
 21
-392.5
  0
LINE
  8
0
  6
DASHED
 62
     7
 10
-104.9012603759766
 20
-366.5
 11
-104.9012603759766
 21
-392.5
  0
LINE
  8
0
  6
DASHED
 62
     7
 10
-310.9012451171875
 20
-366.5
 11
-310.9012451171875
 21
-392.5
  0
LINE
  8
0
  6
DASHED
 62
     7
 10
-329.9012451171875
 20
-366.5
 11
-329.9012451171875
 21
-392.5
  0
LINE
  8
0
  6
CONTINUOUS
 62
     3
 10
-133.7284698486328
 20
-292.5
 11
-112.9012603759766
 21
-292.5
  0
LINE
  8
0
  6
CONTINUOUS
 62
     7
 10
-130.6941680908203
 20
-307.5
 11
-127.9012603759766
 21
-307.5
  0
LINE
  8
0
  6
CONTINUOUS
 62
     7
 10
-280.4011535644531
 20
-366.5000305175781
 11
-263.5237121582031
 21
-303.5126037597656
  0
LINE
  8
0
  6
CONTINUOUS
 62
     7
 10
-135.4016723632813
 20
-366.5000610351563
 11
-152.2790832519531
 21
-303.5126647949219
  0
LINE
  8
0
  6
CONTINUOUS
 62
     7
 10
-122.3944396972656
 20
-362.7941589355469
 11
-142.2484741210938
 21
-288.6978454589844
  0
LINE
  8
0
  6
CONTINUOUS
 62
     7
 10
-293.4081115722656
 20
-362.794189453125
 11
-273.5540771484375
 21
-288.6978759765625
  0
LINE
  8
0
  6
CONTINUOUS
 62
     7
 10
-127.9012603759766
 20
-262.943603515625
 11
-127.9012603759766
 21
-307.5
  0
LINE
  8
0
  6
CONTINUOUS
 62
     7
 10
-287.9012451171875
 20
-262.943603515625
 11
-287.9012451171875
 21
-307.5
  0
LINE
  8
0
  6
CONTINUOUS
 62
     7
 10
-287.9012451171875
 20
-307.5
 11
-285.1083374023437
 21
-307.5
  0
LINE
  8
0
  6
CONTINUOUS
 62
     7
 10
-135.4012603759766
 20
-366.5
 11
-70.40126037597656
 21
-366.5
  0
LINE
  8
0
  6
CONTINUOUS
 62
     7
 10
-135.4012603759766
 20
-392.5
 11
-70.40126037597656
 21
-392.5
  0
LINE
  8
0
  6
CONTINUOUS
 62
     7
 10
-280.4012451171875
 20
-389.5
 11
-135.4012603759766
 21
-389.5
  0
LINE
  8
0
  6
CONTINUOUS
 62
     7
 10
-70.40123748779297
 20
-366.5000305175781
 11
-94.21266174316406
 21
-210.1821899414063
  0
LINE
  8
0
  6
CONTINUOUS
 62
     7
 10
-345.4012145996094
 20
-366.5
 11
-321.5897827148437
 21
-210.1821594238281
  0
LINE
  8
0
  6
CONTINUOUS
 62
     7
 10
-280.4012451171875
 20
-366.5
 11
-280.4012451171875
 21
-392.5
  0
LINE
  8
0
  6
CONTINUOUS
 62
     7
 10
-135.4012603759766
 20
-366.5
 11
-135.4012603759766
 21
-392.5
  0
LINE
  8
0
  6
CONTINUOUS
 62
     7
 10
-70.40126037597656
 20
-366.5
 11
-70.40126037597656
 21
-392.5
  0
LINE
  8
0
  6
CONTINUOUS
 62
     7
 10
-345.4012451171875
 20
-366.5
 11
-345.4012451171875
 21
-392.5
  0
LINE
  8
0
  6
CONTINUOUS
 62
     3
 10
-320.4012451171875
 20
-356.5
 11
-320.4012451171875
 21
-402.5
  0
LINE
  8
0
  6
CONTINUOUS
 62
     3
 10
-95.40126037597656
 20
-356.5
 11
-95.40126037597656
 21
-402.5
  0
LINE
  8
0
  6
CONTINUOUS
 62
     7
 10
-345.4012451171875
 20
-366.5
 11
-280.4012451171875
 21
-366.5
  0
LINE
  8
0
  6
CONTINUOUS
 62
     7
 10
-345.4012451171875
 20
-392.5
 11
-280.4012451171875
 21
-392.5
  0
LINE
  8
0
  6
CONTINUOUS
 62
     3
 10
-171.5498046875
 20
-315.2696533203125
 11
-163.8961181640625
 21
-333.747314453125
  0
LINE
  8
0
  6
CONTINUOUS
 62
     3
 10
-244.2595062255859
 20
-315.26708984375
 11
-251.9132080078125
 21
-333.7447204589844
  0
LINE
  8
0
  6
CONTINUOUS
 62
     3
 10
-295.6707458496094
 20
-263.8531799316406
 11
-314.1483764648438
 21
-271.5068664550781
  0
LINE
  8
0
  6
CONTINUOUS
 62
     3
 10
-295.6698303222656
 20
-191.145263671875
 11
-314.1474609375
 21
-183.4915618896484
  0
LINE
  8
0
  6
CONTINUOUS
 62
     3
 10
-244.2569122314453
 20
-139.7317504882813
 11
-251.9105987548828
 21
-121.2540969848633
  0
LINE
  8
0
  6
CONTINUOUS
 62
     3
 10
-171.5473937988281
 20
-139.7310028076172
 11
-163.8937225341797
 21
-121.2534027099609
  0
LINE
  8
0
  6
CONTINUOUS
 62
     3
 10
-120.1328659057617
 20
-191.1446990966797
 11
-101.6553268432617
 21
-183.4910430908203
  0
LINE
  8
0
  6
CONTINUOUS
 62
     3
 10
-120.1331405639648
 20
-263.8554992675781
 11
-101.6554946899414
 21
-271.5091857910156
  0
LINE
  8
0
  6
CONTINUOUS
 62
     3
 10
-377.9012451171875
 20
-227.5
 11
-37.90126037597656
 21
-227.5
  0
LINE
  8
0
  6
CONTINUOUS
 62
     3
 10
-207.9012603759766
 20
-48.5
 11
-207.9012603759766
 21
-409.5
  0
LINE
  8
0
  6
CONTINUOUS
 62
     7
 10
92.09873962402344
 20
-255
 11
172.0987396240234
 21
-255
  0
LINE
  8
0
  6
CONTINUOUS
 62
     7
 10
92.09873962402344
 20
-200
 11
172.0987396240234
 21
-200
  0
LINE
  8
0
  6
CONTINUOUS
 62
     7
 10
92.09873962402344
 20
-196.0000305175781
 11
92.09873962402344
 21
-255
  0
LINE
  8
0
  6
CONTINUOUS
 62
     7
 10
190.0987396240234
 20
-140
 11
222.0987396240234
 21
-140
  0
LINE
  8
0
  6
CONTINUOUS
 62
     7
 10
190.0987396240234
 20
-140
 11
190.0987396240234
 21
-315
  0
LINE
  8
0
  6
CONTINUOUS
 62
     7
 10
178.0987396240234
 20
-172.5000305175781
 11
178.0987396240234
 21
-282.5
  0
LINE
  8
0
  6
DASHED
 62
     7
 10
371.5987548828125
 20
-366.5000305175781
 11
371.5987548828125
 21
-392.5000305175781
  0
LINE
  8
0
  6
DASHED
 62
     7
 10
352.5987548828125
 20
-366.5000305175781
 11
352.5987548828125
 21
-392.5000305175781
  0
LINE
  8
0
  6
DASHED
 62
     7
 10
221.5987396240234
 20
-366.5000305175781
 11
221.5987396240234
 21
-392.5000305175781
  0
LINE
  8
0
  6
DASHED
 62
     7
 10
202.5987396240234
 20
-366.5000305175781
 11
202.5987396240234
 21
-392.5000305175781
  0
LINE
  8
0
  6
CONTINUOUS
 62
     3
 10
362.0987548828125
 20
-351.5000305175781
 11
362.0987548828125
 21
-407.5000305175781
  0
LINE
  8
0
  6
CONTINUOUS
 62
     3
 10
212.0987396240234
 20
-351.5000305175781
 11
212.0987396240234
 21
-407.5000305175781
  0
LINE
  8
0
  6
CONTINUOUS
 62
     3
 10
222.0987396240234
 20
-292.5000305175781
 11
242.0987396240234
 21
-292.5000305175781
  0
LINE
  8
0
  6
CONTINUOUS
 62
     7
 10
222.0987396240234
 20
-307.5000305175781
 11
241.0987396240234
 21
-307.5000305175781
  0
LINE
  8
0
  6
CONTINUOUS
 62
     7
 10
217.0987396240234
 20
-267.9436645507813
 11
217.0987396240234
 21
-302.5000305175781
  0
LINE
  8
0
  6
CONTINUOUS
 62
     3
 10
232.0987396240234
 20
-282.5000305175781
 11
232.0987396240234
 21
-302.5000305175781
  0
LINE
  8
0
  6
CONTINUOUS
 62
     7
 10
264.0986633300781
 20
-267.9097595214844
 11
321.6788330078125
 21
-353.2758178710938
  0
LINE
  8
0
  6
CONTINUOUS
 62
     7
 10
207.4979400634766
 20
-361.935791015625
 11
213.6554870605469
 21
-291.5548095703125
  0
LINE
  8
0
  6
CONTINUOUS
 62
     7
 10
246.0987396240234
 20
-112.5
 11
264.0987548828125
 21
-112.5
  0
LINE
  8
0
  6
CONTINUOUS
 62
     7
 10
246.0987396240234
 20
-112.5
 11
246.0987396240234
 21
-361.5000305175781
  0
LINE
  8
0
  6
CONTINUOUS
 62
     7
 10
264.0987548828125
 20
-112.5
 11
264.0987548828125
 21
-267.9097900390625
  0
LINE
  8
0
  6
CONTINUOUS
 62
     7
 10
222.0989074707031
 20
-140.0000915527344
 11
246.0987396240234
 21
-138.7423095703125
  0
LINE
  8
0
  6
CONTINUOUS
 62
     7
 10
190.0987396240234
 20
-315
 11
211.6044158935547
 21
-315
  0
LINE
  8
0
  6
CONTINUOUS
 62
     7
 10
187.0987396240234
 20
-366.5000305175781
 11
241.0987396240234
 21
-366.5000305175781
  0
LINE
  8
0
  6
CONTINUOUS
 62
     7
 10
187.0987396240234
 20
-392.5000305175781
 11
387.0987548828125
 21
-392.5000305175781
  0
LINE
  8
0
  6
CONTINUOUS
 62
     7
 10
202.0987396240234
 20
-140
 11
202.0987396240234
 21
-315
  0
LINE
  8
0
  6
CONTINUOUS
 62
     7
 10
387.0987548828125
 20
-366.5000305175781
 11
387.0987548828125
 21
-392.5000305175781
  0
LINE
  8
0
  6
CONTINUOUS
 62
     7
 10
187.0987396240234
 20
-366.5000305175781
 11
187.0987396240234
 21
-392.5000305175781
  0
LINE
  8
0
  6
CONTINUOUS
 62
     3
 10
72.09873962402344
 20
-227.5
 11
474.0987548828125
 21
-227.5
  0
LINE
  8
0
  6
CONTINUOUS
 62
     7
 10
225.7347564697266
 20
-227.4999847412109
 11
232.0986938476563
 21
-233.8639221191406
  0
LINE
  8
0
  6
CONTINUOUS
 62
     7
 10
232.0987548828125
 20
-233.8639678955078
 11
238.4627075195313
 21
-227.5
  0
LINE
  8
0
  6
CONTINUOUS
 62
     7
 10
238.4627227783203
 20
-227.5000305175781
 11
232.0987701416016
 21
-221.1360778808594
  0
LINE
  8
0
  6
CONTINUOUS
 62
     7
 10
232.0987396240234
 20
-286.1360778808594
 11
225.7347717285156
 21
-292.5000305175781
  0
LINE
  8
0
  6
CONTINUOUS
 62
     7
 10
225.7347869873047
 20
-292.5000610351563
 11
232.0987548828125
 21
-298.864013671875
  0
LINE
  8
0
  6
CONTINUOUS
 62
     7
 10
232.0987548828125
 20
-298.864013671875
 11
238.4627227783203
 21
-292.5000305175781
  0
LINE
  8
0
  6
CONTINUOUS
 62
     7
 10
238.4626922607422
 20
-292.5000305175781
 11
232.0987091064453
 21
-286.1360473632813
  0
LINE
  8
0
  6
CONTINUOUS
 62
     7
 10
190.0987396240234
 20
-140.0000152587891
 11
178.0987548828125
 21
-172.5000305175781
  0
LINE
  8
0
  6
CONTINUOUS
 62
     7
 10
178.0987243652344
 20
-282.4999694824219
 11
190.0987396240234
 21
-315
  0
LINE
  8
0
  6
CONTINUOUS
 62
     7
 10
346.550048828125
 20
-366.5000305175781
 11
387.0987548828125
 21
-366.5000305175781
  0
LINE
  8
0
  6
CONTINUOUS
 62
     7
 10
155.0987396240234
 20
-196.0000305175781
 11
155.0987396240234
 21
-200
  0
LINE
  8
0
  6
CONTINUOUS
 62
     7
 10
268.0987548828125
 20
-110
 11
312.0987548828125
 21
-110
  0
LINE
  8
0
  6
CONTINUOUS
 62
     7
 10
316.0987548828125
 20
-112.5
 11
316.0987548828125
 21
-342.5
  0
LINE
  8
0
  6
CONTINUOUS
 62
     7
 10
264.0987548828125
 20
-114.0000076293945
 11
268.0987548828125
 21
-110.0000076293945
  0
LINE
  8
0
  6
CONTINUOUS
 62
     7
 10
312.0987243652344
 20
-109.9999923706055
 11
316.0987243652344
 21
-114
  0
LINE
  8
0
  6
CONTINUOUS
 62
     7
 10
316.0987548828125
 20
-341
 11
314.4862976074219
 21
-342.6124572753906
  0
LINE
  8
0
  6
CONTINUOUS
 62
     7
 10
268.0987548828125
 20
-152.5578155517578
 11
312.0987548828125
 21
-152.5578155517578
  0
LINE
  8
0
  6
CONTINUOUS
 62
     7
 10
268.0987548828125
 20
-166.2132415771484
 11
312.0987548828125
 21
-166.2132415771484
  0
LINE
  8
0
  6
CONTINUOUS
 62
     7
 10
268.0987548828125
 20
-174.9596405029297
 11
312.0987548828125
 21
-174.9596405029297
  0
LINE
  8
0
  6
CONTINUOUS
 62
     7
 10
268.0987548828125
 20
-190.3352966308594
 11
312.0987548828125
 21
-190.3352966308594
  0
LINE
  8
0
  6
CONTINUOUS
 62
     7
 10
268.0987548828125
 20
-199.9479827880859
 11
312.0987548828125
 21
-199.9479827880859
  0
LINE
  8
0
  6
CONTINUOUS
 62
     7
 10
268.0987548828125
 20
-216.5005035400391
 11
312.0987548828125
 21
-216.5005035400391
  0
LINE
  8
0
  6
CONTINUOUS
 62
     7
 10
268.0987548828125
 20
-238.5003051757813
 11
312.0987548828125
 21
-238.5003051757813
  0
LINE
  8
0
  6
CONTINUOUS
 62
     7
 10
268.0987548828125
 20
-255.0516662597656
 11
312.0987548828125
 21
-255.0516662597656
  0
LINE
  8
0
  6
CONTINUOUS
 62
     7
 10
268.0987548828125
 20
-264.6639404296875
 11
312.0987548828125
 21
-264.6639404296875
  0
LINE
  8
0
  6
CONTINUOUS
 62
     7
 10
272.2809448242188
 20
-280.0404357910156
 11
312.0987548828125
 21
-280.0404357910156
  0
LINE
  8
0
  6
CONTINUOUS
 62
     7
 10
278.18017578125
 20
-288.7864379882812
 11
312.0987548828125
 21
-288.7864379882812
  0
LINE
  8
0
  6
CONTINUOUS
 62
     7
 10
287.3902282714844
 20
-302.4408874511719
 11
312.0987548828125
 21
-302.4408874511719
  0
LINE
  8
0
  6
CONTINUOUS
 62
     7
 10
297.8832397460938
 20
-317.9974365234375
 11
312.0987548828125
 21
-317.9974365234375
  0
LINE
  8
0
  6
CONTINUOUS
 62
     7
 10
304.4617309570313
 20
-327.7504272460937
 11
312.0987548828125
 21
-327.7504272460937
  0
LINE
  8
0
  6
CONTINUOUS
 62
     7
 10
307.7315979003906
 20
-332.5982055664063
 11
312.0987548828125
 21
-332.5982055664063
  0
LINE
  8
0
  6
CONTINUOUS
 62
     3
 10
72.09873962402344
 20
182.5
 11
474.0987548828125
 21
182.5
  0
LINE
  8
0
  6
CONTINUOUS
 62
     7
 10
187.0987396240234
 20
310
 11
187.0987396240234
 21
265
  0
LINE
  8
0
  6
CONTINUOUS
 62
     7
 10
387.0987548828125
 20
310
 11
387.0987548828125
 21
275.0000610351563
  0
LINE
  8
0
  6
CONTINUOUS
 62
     7
 10
197.0987396240234
 20
45
 11
377.0987548828125
 21
45
  0
LINE
  8
0
  6
CONTINUOUS
 62
     7
 10
197.0987396240234
 20
320
 11
377.0987548828125
 21
320
  0
LINE
  8
0
  6
CONTINUOUS
 62
     7
 10
187.0987396240234
 20
100
 11
187.0987396240234
 21
55
  0
LINE
  8
0
  6
CONTINUOUS
 62
     7
 10
387.0987548828125
 20
90.00006103515625
 11
387.0987548828125
 21
55
  0
LINE
  8
0
  6
CONTINUOUS
 62
     7
 10
202.0987396240234
 20
270
 11
202.0987396240234
 21
95
  0
LINE
  8
0
  6
CONTINUOUS
 62
     7
 10
222.0987091064453
 20
269.9996948242188
 11
246.0987243652344
 21
271.2575073242187
  0
LINE
  8
0
  6
CONTINUOUS
 62
     7
 10
222.0987396240234
 20
94.99989318847656
 11
246.0987091064453
 21
93.74211120605469
  0
LINE
  8
0
  6
CONTINUOUS
 62
     7
 10
264.0987548828125
 20
304.9819946289063
 11
264.0987548828125
 21
60.01803588867187
  0
LINE
  8
0
  6
CONTINUOUS
 62
     7
 10
246.0987396240234
 20
320
 11
246.0987396240234
 21
45
  0
LINE
  8
0
  6
CONTINUOUS
 62
     3
 10
232.0987396240234
 20
102.7976379394531
 11
232.0987396240234
 21
75.926513671875
  0
LINE
  8
0
  6
CONTINUOUS
 62
     3
 10
197.5987396240234
 20
295
 11
226.5987396240234
 21
295
  0
LINE
  8
0
  6
CONTINUOUS
 62
     3
 10
212.0987396240234
 20
309.5
 11
212.0987396240234
 21
280.5
  0
LINE
  8
0
  6
CONTINUOUS
 62
     7
 10
190.0987396240234
 20
270
 11
222.0987396240234
 21
270
  0
LINE
  8
0
  6
CONTINUOUS
 62
     7
 10
190.0987396240234
 20
270
 11
190.0987396240234
 21
95
  0
LINE
  8
0
  6
CONTINUOUS
 62
     7
 10
178.0987396240234
 20
237.5
 11
178.0987396240234
 21
127.5
  0
LINE
  8
0
  6
CONTINUOUS
 62
     7
 10
190.0987396240234
 20
95
 11
222.0987396240234
 21
95
  0
LINE
  8
0
  6
CONTINUOUS
 62
     7
 10
92.09873962402344
 20
210
 11
92.09873962402344
 21
155
  0
LINE
  8
0
  6
CONTINUOUS
 62
     7
 10
92.09873962402344
 20
210
 11
172.0987396240234
 21
210
  0
LINE
  8
0
  6
CONTINUOUS
 62
     7
 10
92.09873962402344
 20
155
 11
172.0987396240234
 21
155
  0
LINE
  8
0
  6
CONTINUOUS
 62
     7
 10
172.0987396240234
 20
215
 11
178.0987396240234
 21
215
  0
LINE
  8
0
  6
CONTINUOUS
 62
     7
 10
172.0987396240234
 20
150
 11
178.0987396240234
 21
150
  0
LINE
  8
0
  6
CONTINUOUS
 62
     7
 10
172.0987396240234
 20
215
 11
172.0987396240234
 21
150
  0
LINE
  8
0
  6
CONTINUOUS
 62
     7
 10
92.09873962402344
 20
190.5
 11
159.0987396240234
 21
190.5
  0
LINE
  8
0
  6
CONTINUOUS
 62
     7
 10
92.09873962402344
 20
174.5
 11
159.0987396240234
 21
174.5
  0
LINE
  8
0
  6
CONTINUOUS
 62
     7
 10
178.0986785888672
 20
237.5000610351563
 11
190.0986633300781
 21
270.0000305175781
  0
LINE
  8
0
  6
CONTINUOUS
 62
     7
 10
178.0987548828125
 20
127.500129699707
 11
190.0987701416016
 21
95.00010681152344
  0
LINE
  8
0
  6
CONTINUOUS
 62
     3
 10
197.5987396240234
 20
70
 11
226.5987396240234
 21
70
  0
LINE
  8
0
  6
CONTINUOUS
 62
     3
 10
212.0987396240234
 20
84.5
 11
212.0987396240234
 21
55.5
  0
LINE
  8
0
  6
CONTINUOUS
 62
     3
 10
347.5987548828125
 20
70
 11
376.5987548828125
 21
70
  0
LINE
  8
0
  6
CONTINUOUS
 62
     3
 10
362.0987548828125
 20
84.5
 11
362.0987548828125
 21
55.5
  0
LINE
  8
0
  6
CONTINUOUS
 62
     3
 10
347.5987548828125
 20
295
 11
376.5987548828125
 21
295
  0
LINE
  8
0
  6
CONTINUOUS
 62
     3
 10
362.0987548828125
 20
309.5
 11
362.0987548828125
 21
280.5
  0
LINE
  8
0
  6
CONTINUOUS
 62
     7
 10
226.1490020751953
 20
82.010009765625
 11
238.0484771728516
 21
82.010009765625
  0
LINE
  8
0
  6
CONTINUOUS
 62
     7
 10
225.3628082275391
 20
90.010009765625
 11
238.8346710205078
 21
90.010009765625
  0
LINE
  8
0
  6
CONTINUOUS
 62
     7
 10
225.3628082275391
 20
90.00999450683594
 11
225.5131530761719
 21
94.82093811035156
  0
LINE
  8
0
  6
CONTINUOUS
 62
     7
 10
238.8346862792969
 20
90.01002502441406
 11
238.7059478759766
 21
94.12957000732422
  0
LINE
  8
0
  6
CONTINUOUS
 62
     7
 10
226.1490020751953
 20
82.010009765625
 11
226.1490020751953
 21
90.010009765625
  0
LINE
  8
0
  6
CONTINUOUS
 62
     7
 10
238.0484771728516
 20
82.010009765625
 11
238.0484771728516
 21
90.010009765625
  0
LINE
  8
0
  6
CONTINUOUS
 62
     7
 10
264.0987243652344
 20
304.98193359375
 11
330.5986938476562
 21
319.9999694824219
  0
LINE
  8
0
  6
CONTINUOUS
 62
     7
 10
296.5128784179688
 20
300
 11
324.4972534179687
 21
306.3198547363281
  0
LINE
  8
0
  6
CONTINUOUS
 62
     7
 10
296.5127868652344
 20
65
 11
324.4972839355469
 21
58.68012237548828
  0
LINE
  8
0
  6
CONTINUOUS
 62
     7
 10
264.0987548828125
 20
60.01803207397461
 11
330.5987243652344
 21
44.99999618530273
  0
LINE
  8
0
  6
CONTINUOUS
 62
     3
 10
226.1490020751953
 20
90.00997924804688
 11
232.0987243652344
 21
82.00998687744141
  0
LINE
  8
0
  6
CONTINUOUS
 62
     7
 10
232.0987396240234
 20
82.010009765625
 11
232.0987396240234
 21
90.010009765625
  0
LINE
  8
0
  6
CONTINUOUS
 62
     3
 10
232.0987396240234
 20
90.01001739501953
 11
226.1490173339844
 21
82.01003265380859
  0
LINE
  8
0
  6
CONTINUOUS
 62
     3
 10
232.0987854003906
 20
82.00999450683594
 11
238.0485229492188
 21
90.01000213623047
  0
LINE
  8
0
  6
CONTINUOUS
 62
     3
 10
232.0987243652344
 20
90.00999450683594
 11
238.0484466552734
 21
82.01000213623047
  0
LINE
  8
0
  6
CONTINUOUS
 62
     7
 10
155.0987396240234
 20
190.5
 11
155.0987396240234
 21
174.5
  0
LINE
  8
0
  6
CONTINUOUS
 62
     7
 10
268.0987548828125
 20
300
 11
312.0987548828125
 21
300
  0
LINE
  8
0
  6
CONTINUOUS
 62
     7
 10
268.0987548828125
 20
65
 11
312.0987548828125
 21
65
  0
LINE
  8
0
  6
CONTINUOUS
 62
     7
 10
268.0987548828125
 20
71.03225708007813
 11
312.0987548828125
 21
71.03225708007813
  0
LINE
  8
0
  6
CONTINUOUS
 62
     7
 10
264.0987854003906
 20
295.9999694824219
 11
268.0987854003906
 21
299.9999694824219
  0
LINE
  8
0
  6
CONTINUOUS
 62
     7
 10
312.0986022949219
 20
299.9999389648437
 11
316.0986022949219
 21
295.9999389648437
  0
LINE
  8
0
  6
CONTINUOUS
 62
     7
 10
268.0988464355469
 20
65.00008392333984
 11
264.0988464355469
 21
69.0001220703125
  0
LINE
  8
0
  6
CONTINUOUS
 62
     7
 10
268.0987548828125
 20
293.9676513671875
 11
312.0987548828125
 21
293.9676513671875
  0
LINE
  8
0
  6
CONTINUOUS
 62
     7
 10
268.0987548828125
 20
287.5982666015625
 11
312.0987548828125
 21
287.5982666015625
  0
LINE
  8
0
  6
CONTINUOUS
 62
     7
 10
268.0987548828125
 20
282.7501831054687
 11
312.0987548828125
 21
282.7501831054687
  0
LINE
  8
0
  6
CONTINUOUS
 62
     7
 10
268.0987548828125
 20
272.995849609375
 11
312.0987548828125
 21
272.995849609375
  0
LINE
  8
0
  6
CONTINUOUS
 62
     7
 10
268.0987548828125
 20
257.4411010742187
 11
312.0987548828125
 21
257.4411010742187
  0
LINE
  8
0
  6
CONTINUOUS
 62
     7
 10
268.0987548828125
 20
243.7846984863281
 11
312.0987548828125
 21
243.7846984863281
  0
LINE
  8
0
  6
CONTINUOUS
 62
     7
 10
268.0987548828125
 20
235.0394897460938
 11
312.0987548828125
 21
235.0394897460938
  0
LINE
  8
0
  6
CONTINUOUS
 62
     7
 10
268.0987548828125
 20
219.6640014648438
 11
312.0987548828125
 21
219.6640014648438
  0
LINE
  8
0
  6
CONTINUOUS
 62
     7
 10
268.0987548828125
 20
210.0504150390625
 11
312.0987548828125
 21
210.0504150390625
  0
LINE
  8
0
  6
CONTINUOUS
 62
     7
 10
268.0987548828125
 20
193.4994812011719
 11
312.0987548828125
 21
193.4994812011719
  0
LINE
  8
0
  6
CONTINUOUS
 62
     7
 10
268.0987548828125
 20
92.00216674804687
 11
312.0987548828125
 21
92.00216674804687
  0
LINE
  8
0
  6
CONTINUOUS
 62
     7
 10
268.0987548828125
 20
82.24929809570313
 11
312.0987548828125
 21
82.24929809570313
  0
LINE
  8
0
  6
CONTINUOUS
 62
     7
 10
268.0987548828125
 20
77.40115356445313
 11
312.0987548828125
 21
77.40115356445313
  0
LINE
  8
0
  6
CONTINUOUS
 62
     7
 10
316.0987548828125
 20
297.5000610351562
 11
316.0987548828125
 21
186.5000610351563
  0
LINE
  8
0
  6
CONTINUOUS
 62
     7
 10
316.0987548828125
 20
178.5000610351562
 11
316.0987548828125
 21
67.50006103515625
  0
LINE
  8
0
  6
CONTINUOUS
 62
     7
 10
454.0987548828125
 20
-77.5
 11
454.0987548828125
 21
-377.5
  0
LINE
  8
0
  6
CONTINUOUS
 62
     7
 10
432.0987548828125
 20
-77.5
 11
432.0987548828125
 21
-377.5
  0
LINE
  8
0
  6
CONTINUOUS
 62
     7
 10
432.0987548828125
 20
-377.5
 11
454.0987548828125
 21
-377.5
  0
LINE
  8
0
  6
CONTINUOUS
 62
     7
 10
432.0987548828125
 20
-77.5
 11
454.0987548828125
 21
-77.5
  0
LINE
  8
0
  6
CONTINUOUS
 62
     7
 10
334.0987548828125
 20
-118.6436538696289
 11
334.0987548828125
 21
-342.5
  0
LINE
  8
0
  6
CONTINUOUS
 62
     7
 10
316.0987548828125
 20
-342.5
 11
334.0987548828125
 21
-342.5
  0
LINE
  8
0
  6
CONTINUOUS
 62
     7
 10
334.0987548828125
 20
-304.1707763671875
 11
432.0987548828125
 21
-304.1707763671875
  0
LINE
  8
0
  6
CONTINUOUS
 62
     7
 10
339.0987548828125
 20
-164.9822387695312
 11
427.0987548828125
 21
-164.9822387695312
  0
LINE
  8
0
  6
CONTINUOUS
 62
     7
 10
339.0987548828125
 20
-290.0177612304688
 11
427.0987548828125
 21
-290.0177612304688
  0
LINE
  8
0
  6
CONTINUOUS
 62
     7
 10
391.0987548828125
 20
-135
 11
427.0987548828125
 21
-135
  0
LINE
  8
0
  6
CONTINUOUS
 62
     7
 10
331.0987548828125
 20
-65.3382568359375
 11
331.0987548828125
 21
-118.553825378418
  0
LINE
  8
0
  6
CONTINUOUS
 62
     7
 10
376.1697998046875
 20
-97.84999847412109
 11
360.0276794433594
 21
-97.84999847412109
  0
LINE
  8
0
  6
CONTINUOUS
 62
     7
 10
316.0987548828125
 20
-112.5
 11
386.0987548828125
 21
-112.5
  0
LINE
  8
0
  6
CONTINUOUS
 62
     7
 10
307.6156005859375
 20
-89
 11
353.8963623046875
 21
-89
  0
LINE
  8
0
  6
CONTINUOUS
 62
     7
 10
376.6062927246094
 20
-106.8499984741211
 11
376.4297485351563
 21
-112.5
  0
LINE
  8
0
  6
CONTINUOUS
 62
     7
 10
376.6062927246094
 20
-106.8499984741211
 11
359.5911865234375
 21
-106.8499984741211
  0
LINE
  8
0
  6
CONTINUOUS
 62
     7
 10
334.0987548828125
 20
-150.8292236328125
 11
432.0987548828125
 21
-150.8292236328125
  0
LINE
  8
0
  6
CONTINUOUS
 62
     7
 10
334.0987548828125
 20
-145.17236328125
 11
432.0987548828125
 21
-145.17236328125
  0
LINE
  8
0
  6
CONTINUOUS
 62
     7
 10
334.0987548828125
 20
-309.82763671875
 11
432.0987548828125
 21
-309.82763671875
  0
LINE
  8
0
  6
CONTINUOUS
 62
     7
 10
339.0987548828125
 20
-320
 11
427.0987548828125
 21
-320
  0
LINE
  8
0
  6
CONTINUOUS
 62
     7
 10
368.0987548828125
 20
-94.5035400390625
 11
368.0987548828125
 21
-116.452766418457
  0
LINE
  8
0
  6
CONTINUOUS
 62
     7
 10
386.0987548828125
 20
-112.5
 11
386.0987548828125
 21
-136.3661804199219
  0
LINE
  8
0
  6
CONTINUOUS
 62
     7
 10
359.5911865234375
 20
-106.8499984741211
 11
359.7677307128906
 21
-112.5
  0
LINE
  8
0
  6
CONTINUOUS
 62
     7
 10
336.7135009765625
 20
-139.0534820556641
 11
382.8435363769531
 21
-139.0534820556641
  0
LINE
  8
0
  6
CONTINUOUS
 62
     7
 10
376.1697998046875
 20
-97.84999847412109
 11
376.1697998046875
 21
-106.8499984741211
  0
LINE
  8
0
  6
CONTINUOUS
 62
     7
 10
360.0276794433594
 20
-97.84999847412109
 11
360.0276794433594
 21
-106.8499984741211
  0
LINE
  8
0
  6
CONTINUOUS
 62
     7
 10
368.0987243652344
 20
-97.84999847412109
 11
368.0987243652344
 21
-106.8499984741211
  0
LINE
  8
0
  6
CONTINUOUS
 62
     7
 10
360.0276794433594
 20
-97.84999847412109
 11
368.0987243652344
 21
-106.8499984741211
  0
LINE
  8
0
  6
CONTINUOUS
 62
     7
 10
360.0276794433594
 20
-106.8499984741211
 11
368.0987243652344
 21
-97.84999847412109
  0
LINE
  8
0
  6
CONTINUOUS
 62
     7
 10
368.0987243652344
 20
-97.84999847412109
 11
376.1697998046875
 21
-106.8499984741211
  0
LINE
  8
0
  6
CONTINUOUS
 62
     7
 10
376.1697998046875
 20
-97.84999847412109
 11
368.0987243652344
 21
-106.8499984741211
  0
LINE
  8
0
  6
CONTINUOUS
 62
     7
 10
323.5971069335937
 20
-103.043342590332
 11
330.6846313476563
 21
-101.543342590332
  0
LINE
  8
0
  6
CONTINUOUS
 62
     7
 10
324.01123046875
 20
-103
 11
338.1862487792969
 21
-103
  0
LINE
  8
0
  6
CONTINUOUS
 62
     7
 10
340.1558532714844
 20
-104.652702331543
 11
341.0987243652344
 21
-110
  0
LINE
  8
0
  6
CONTINUOUS
 62
     7
 10
321.0987548828125
 20
-110
 11
322.0416259765625
 21
-104.652702331543
  0
LINE
  8
0
  6
CONTINUOUS
 62
     7
 10
331.5128479003906
 20
-101.543342590332
 11
338.6003723144531
 21
-103.043342590332
  0
LINE
  8
0
  6
CONTINUOUS
 62
     7
 10
321.0961608886719
 20
-110
 11
341.0987548828125
 21
-110
  0
LINE
  8
0
  6
CONTINUOUS
 62
     7
 10
321.8987426757813
 20
-110
 11
321.8987426757813
 21
-112.5
  0
LINE
  8
0
  6
CONTINUOUS
 62
     7
 10
340.2987365722656
 20
-110
 11
340.2987365722656
 21
-112.5
  0
LINE
  8
0
  6
CONTINUOUS
 62
     7
 10
331.0987548828125
 20
-112.5
 11
328.5987548828125
 21
-110
  0
LINE
  8
0
  6
CONTINUOUS
 62
     7
 10
331.0987548828125
 20
-110
 11
333.5987243652344
 21
-112.5
  0
LINE
  8
0
  6
CONTINUOUS
 62
     7
 10
386.0987548828125
 20
202.9499969482422
 11
386.0987548828125
 21
162.0500030517578
  0
LINE
  8
0
  6
CONTINUOUS
 62
     7
 10
454.0987548828125
 20
332.5
 11
454.0987548828125
 21
32.5
  0
LINE
  8
0
  6
CONTINUOUS
 62
     7
 10
432.0987548828125
 20
332.5
 11
432.0987548828125
 21
32.5
  0
LINE
  8
0
  6
CONTINUOUS
 62
     7
 10
432.0987548828125
 20
32.5
 11
454.0987548828125
 21
32.5
  0
LINE
  8
0
  6
CONTINUOUS
 62
     7
 10
432.0987548828125
 20
332.5
 11
454.0987548828125
 21
332.5
  0
LINE
  8
0
  6
CONTINUOUS
 62
     7
 10
334.0987548828125
 20
297.5
 11
334.0987548828125
 21
207.5
  0
LINE
  8
0
  6
CONTINUOUS
 62
     7
 10
316.0987548828125
 20
67.5
 11
334.0987548828125
 21
67.5
  0
LINE
  8
0
  6
CONTINUOUS
 62
     7
 10
334.0987548828125
 20
105.8292236328125
 11
432.0987548828125
 21
105.8292236328125
  0
LINE
  8
0
  6
CONTINUOUS
 62
     7
 10
339.0987548828125
 20
245.0177612304688
 11
427.0987548828125
 21
245.0177612304688
  0
LINE
  8
0
  6
CONTINUOUS
 62
     7
 10
339.0987548828125
 20
119.9822387695313
 11
427.0987548828125
 21
119.9822387695313
  0
LINE
  8
0
  6
CONTINUOUS
 62
     7
 10
339.0987548828125
 20
275
 11
427.0987548828125
 21
275
  0
LINE
  8
0
  6
CONTINUOUS
 62
     7
 10
316.0987548828125
 20
297.5
 11
334.0987548828125
 21
297.5
  0
LINE
  8
0
  6
CONTINUOUS
 62
     7
 10
334.0987548828125
 20
259.1707763671875
 11
432.0987548828125
 21
259.1707763671875
  0
LINE
  8
0
  6
CONTINUOUS
 62
     7
 10
334.0987548828125
 20
264.82763671875
 11
432.0987548828125
 21
264.82763671875
  0
LINE
  8
0
  6
CONTINUOUS
 62
     7
 10
334.0987548828125
 20
100.17236328125
 11
432.0987548828125
 21
100.17236328125
  0
LINE
  8
0
  6
CONTINUOUS
 62
     7
 10
339.0987548828125
 20
90
 11
427.0987548828125
 21
90
  0
LINE
  8
0
  6
CONTINUOUS
 62
     3
 10
356.6016845703125
 20
182.5
 11
378.9149169921875
 21
182.5
  0
LINE
  8
0
  6
CONTINUOUS
 62
     7
 10
368.0987548828125
 20
190.9853057861328
 11
376.5840454101563
 21
182.5000152587891
  0
LINE
  8
0
  6
CONTINUOUS
 62
     7
 10
359.6134643554688
 20
182.5000152587891
 11
368.0987548828125
 21
174.0147399902344
  0
LINE
  8
0
  6
CONTINUOUS
 62
     7
 10
359.6134643554688
 20
182.5000152587891
 11
368.0987548828125
 21
190.9853057861328
  0
LINE
  8
0
  6
CONTINUOUS
 62
     7
 10
368.0987548828125
 20
174.0147399902344
 11
376.5840454101563
 21
182.5000152587891
  0
LINE
  8
0
  6
CONTINUOUS
 62
     7
 10
314.5987548828125
 20
178.5
 11
347.5987548828125
 21
178.5
  0
LINE
  8
0
  6
CONTINUOUS
 62
     7
 10
314.5987548828125
 20
186.5
 11
347.5987548828125
 21
186.5
  0
LINE
  8
0
  6
CONTINUOUS
 62
     7
 10
334.0987548828125
 20
157.5
 11
334.0987548828125
 21
67.5
  0
LINE
  8
0
  6
CONTINUOUS
 62
     7
 10
334.0987243652344
 20
157.5
 11
386.0987243652344
 21
162.0500030517578
  0
LINE
  8
0
  6
CONTINUOUS
 62
     7
 10
334.0987243652344
 20
207.5
 11
386.0987243652344
 21
202.9499969482422
  0
LINE
  8
0
  6
CONTINUOUS
 62
     7
 10
368.0987548828125
 20
194.7029876708984
 11
368.0987548828125
 21
170.5616912841797
  0
LINE
  8
0
  6
CONTINUOUS
 62
     7
 10
-215.9723205566406
 20
-97.84999847412109
 11
-212.0071105957031
 21
-102.2715835571289
  0
LINE
  8
0
  6
CONTINUOUS
 62
     7
 10
-215.9723663330078
 20
-97.85001373291016
 11
-215.9723663330078
 21
-103.0413665771484
  0
LINE
  8
0
  6
CONTINUOUS
 62
     7
 10
-199.8302154541016
 20
-97.85001373291016
 11
-199.8302154541016
 21
-103.0413513183594
  0
LINE
  8
0
  6
CONTINUOUS
 62
     7
 10
-199.8302154541016
 20
-97.85002136230469
 11
-203.9012603759766
 21
-97.85002136230469
  0
LINE
  8
0
  6
CONTINUOUS
 62
     7
 10
-199.8302612304687
 20
-97.84998321533203
 11
-203.7954864501953
 21
-102.2715759277344
  0
LINE
  8
0
  6
CONTINUOUS
 62
     7
 10
-211.9012603759766
 20
-97.85002136230469
 11
-215.9723663330078
 21
-97.85002136230469
  0
ARC
  8
0
  6
CONTINUOUS
 62
     7
 10
-207.9012603759766
 20
-227.5
 40
150
 50
328.7166168654123
 51
88.4719320927954
  0
ARC
  8
0
  6
DASHED
 62
     3
 10
-207.9012603759766
 20
-84.20001220703125
 40
1.200000047683716
 50
79.05804628430651
 51
89.99998201391004
  0
ARC
  8
0
  6
DASHED
 62
     3
 10
-207.9012603759766
 20
-84.20001220703125
 40
1.200000047683718
 50
89.99998201391004
 51
100.9419177435147
  0
ARC
  8
0
  6
DASHED
 62
     3
 10
-207.9012603759766
 20
-108.2000122070313
 40
1.200000047683716
 50
79.05804628430651
 51
89.99998201391004
  0
ARC
  8
0
  6
DASHED
 62
     3
 10
-207.9012603759766
 20
-108.2000122070313
 40
1.200000047683718
 50
89.99998201391004
 51
100.9419177435147
  0
ARC
  8
0
  6
CONTINUOUS
 62
     7
 10
-215.6600494384766
 20
-104.2000122070313
 40
1.200000047683715
 50
100.941910913325
 51
169.9999660262758
  0
ARC
  8
0
  6
CONTINUOUS
 62
     7
 10
-213.1012725830078
 20
-107.6000061035156
 40
1.20000004768372
 50
269.9999633445766
 51
0
  0
ARC
  8
0
  6
CONTINUOUS
 62
     7
 10
-202.7012481689453
 20
-107.6000061035156
 40
1.200000047683722
 50
179.9999776881998
 51
270.0000280040015
  0
ARC
  8
0
  6
CONTINUOUS
 62
     7
 10
-207.9012603759766
 20
-72.5
 40
4
 50
0
 51
179.9999640278213
  0
ARC
  8
0
  6
CONTINUOUS
 62
     7
 10
-200.1424713134766
 20
-104.2000122070313
 40
1.20000004768372
 50
10.00000056286621
 51
79.05805311449561
  0
ARC
  8
0
  6
CONTINUOUS
 62
     7
 10
-207.9012603759766
 20
-227.5
 40
150
 50
91.52805925578259
 51
211.2833915586386
  0
ARC
  8
0
  6
CONTINUOUS
 62
     7
 10
-207.9012603759766
 20
-227.5
 40
117.5
 50
26.56108425754197
 51
31.43879725896217
  0
ARC
  8
0
  6
CONTINUOUS
 62
     7
 10
-207.9012603759766
 20
-227.5
 40
117.5
 50
129.6282751254611
 51
140.3717528785409
  0
ARC
  8
0
  6
CONTINUOUS
 62
     7
 10
-207.9012603759766
 20
-227.5
 40
117.5
 50
116.5611670167429
 51
121.4388783106158
  0
ARC
  8
0
  6
CONTINUOUS
 62
     7
 10
-207.9012603759766
 20
-227.5
 40
117.5
 50
103.5611586864309
 51
108.4388699803038
  0
ARC
  8
0
  6
CONTINUOUS
 62
     7
 10
-207.9012603759766
 20
-227.5
 40
117.5
 50
174.6282661324164
 51
183.1792531619222
  0
ARC
  8
0
  6
CONTINUOUS
 62
     7
 10
-207.9012603759766
 20
-227.5
 40
117.5
 50
161.5611580236982
 51
166.4388693175711
  0
ARC
  8
0
  6
CONTINUOUS
 62
     7
 10
-207.9012603759766
 20
-227.5
 40
117.5
 50
148.5611496933862
 51
153.4388609872591
  0
ARC
  8
0
  6
CONTINUOUS
 62
     7
 10
-207.9012603759766
 20
-227.5
 40
117.5
 50
356.8208758576563
 51
5.371741437860853
  0
ARC
  8
0
  6
CONTINUOUS
 62
     7
 10
-207.9012603759766
 20
-227.5
 40
117.5
 50
39.62837165872587
 51
95.37174138101808
  0
ARC
  8
0
  6
CONTINUOUS
 62
     7
 10
-207.9012603759766
 20
-227.5
 40
117.5
 50
13.561172403652
 51
18.43890333431877
  0
ARC
  8
0
  6
CONTINUOUS
 62
     7
 10
-207.9012603759766
 20
-152.5
 40
13
 50
165.5410136304163
 51
14.45902871720937
  0
CIRCLE
  8
0
  6
CONTINUOUS
 62
     7
 10
-207.9012603759766
 20
-227.5
 40
55
  0
ARC
  8
0
  6
CONTINUOUS
 62
     3
 10
-207.9012603759766
 20
-227.5
 40
75
 50
322.3549069554762
 51
337.6451050352501
  0
ARC
  8
0
  6
CONTINUOUS
 62
     7
 10
-142.9493560791016
 20
-265
 40
12.99999999999999
 50
45.54107517790917
 51
254.4588341326084
  0
ARC
  8
0
  6
CONTINUOUS
 62
     3
 10
-207.9012603759766
 20
-227.5
 40
75
 50
262.3549121160132
 51
277.6451101957871
  0
ARC
  8
0
  6
CONTINUOUS
 62
     7
 10
-207.9012603759766
 20
-302.5
 40
12.99999999999999
 50
345.5409778856087
 51
194.458982727118
  0
ARC
  8
0
  6
CONTINUOUS
 62
     3
 10
-207.9012603759766
 20
-227.5
 40
75
 50
202.3549172765502
 51
217.6451153563242
  0
ARC
  8
0
  6
CONTINUOUS
 62
     7
 10
-272.8531494140625
 20
-265
 40
13.00000000000002
 50
285.5411367254021
 51
134.4589400763308
  0
ARC
  8
0
  6
CONTINUOUS
 62
     3
 10
-207.9012603759766
 20
-227.5
 40
75
 50
142.3549119644325
 51
157.6451100442064
  0
ARC
  8
0
  6
CONTINUOUS
 62
     7
 10
-272.8531494140625
 20
-190
 40
12.99999999999997
 50
225.5410599236691
 51
74.45884961421953
  0
ARC
  8
0
  6
CONTINUOUS
 62
     3
 10
-207.9012603759766
 20
-227.5
 40
74.99999999999999
 50
82.35491029478037
 51
97.64511520474348
  0
ARC
  8
0
  6
CONTINUOUS
 62
     7
 10
-142.9493560791016
 20
-190
 40
12.99999999999999
 50
105.541169055115
 51
314.4589041041522
  0
ARC
  8
0
  6
CONTINUOUS
 62
     3
 10
-207.9012603759766
 20
-227.5
 40
75
 50
22.35490179493908
 51
37.64509987471302
  0
CIRCLE
  8
0
  6
CONTINUOUS
 62
     7
 10
-207.9012603759766
 20
-227.5
 40
87.5
  0
ARC
  8
0
  6
CONTINUOUS
 62
     7
 10
-207.9012603759766
 20
-227.5
 40
27.50000000000001
 50
106.9124114932652
 51
73.08759670341468
  0
ARC
  8
0
  6
CONTINUOUS
 62
     7
 10
-285.1083374023437
 20
-312.5
 40
5.000000000000016
 50
345.0000234882494
 51
89.99998201391097
  0
ARC
  8
0
  6
CONTINUOUS
 62
     7
 10
-258.6942138671875
 20
-304.8067016601563
 40
5.000000000000021
 50
56.69372907359718
 51
164.999967025503
  0
ARC
  8
0
  6
CONTINUOUS
 62
     7
 10
-157.1082916259766
 20
-304.8067016601563
 40
4.999999999999994
 50
15.00005505892619
 51
123.3062930108325
  0
ARC
  8
0
  6
CONTINUOUS
 62
     7
 10
-137.4186553955078
 20
-287.4036865234375
 40
4.999999999999998
 50
139.6386003730319
 51
195.0000156716529
  0
ARC
  8
0
  6
CONTINUOUS
 62
     7
 10
-278.3838500976563
 20
-287.4036865234375
 40
5.000000000000021
 50
345.00003544108
 51
40.36141829630304
  0
ARC
  8
0
  6
CONTINUOUS
 62
     7
 10
-117.5646514892578
 20
-361.5
 40
4.999999999999996
 50
195.000032974497
 51
270.0000179860893
  0
ARC
  8
0
  6
CONTINUOUS
 62
     7
 10
-298.2378540039062
 20
-361.5
 40
5.000000000000019
 50
270.0000179860891
 51
344.9999381108843
  0
ARC
  8
0
  6
CONTINUOUS
 62
     3
 10
-207.9012603759766
 20
-227.5
 40
105
 50
287.0411828709202
 51
297.9587826365112
  0
ARC
  8
0
  6
CONTINUOUS
 62
     3
 10
-207.9012603759766
 20
-227.5
 40
105
 50
242.0411850337757
 51
252.9587847993667
  0
ARC
  8
0
  6
CONTINUOUS
 62
     3
 10
-207.9012603759766
 20
-227.5
 40
105
 50
197.0411940268204
 51
207.9587869622222
  0
ARC
  8
0
  6
CONTINUOUS
 62
     3
 10
-207.9012603759766
 20
-227.5
 40
105
 50
152.0411720566428
 51
162.9587786524229
  0
ARC
  8
0
  6
CONTINUOUS
 62
     3
 10
-207.9012603759766
 20
-227.5
 40
105
 50
107.0411742194982
 51
117.9587876454676
  0
ARC
  8
0
  6
CONTINUOUS
 62
     3
 10
-207.9012603759766
 20
-227.5
 40
105
 50
62.04117638235374
 51
72.9587829781339
  0
ARC
  8
0
  6
CONTINUOUS
 62
     3
 10
-207.9012603759766
 20
-227.5
 40
105
 50
17.04118025275654
 51
27.95878514098941
  0
ARC
  8
0
  6
CONTINUOUS
 62
     3
 10
-207.9012603759766
 20
-227.5
 40
105
 50
332.0411807080648
 51
342.9587804736557
  0
ARC
  8
0
  6
CONTINUOUS
 62
     7
 10
-207.9012603759766
 20
-227.5
 40
115
 50
8.661113584588465
 51
171.3389016696516
  0
ARC
  8
0
  6
CONTINUOUS
 62
     7
 10
-130.6941680908203
 20
-312.5
 40
5.000000000000019
 50
89.99998201391064
 51
195.0000156716529
  0
ARC
  8
0
  6
CONTINUOUS
 62
     7
 10
202.5170745849609
 20
-361.5000305175781
 40
5.000000000000019
 50
270.0000179860893
 51
354.9999736784703
  0
ARC
  8
0
  6
CONTINUOUS
 62
     7
 10
346.550048828125
 20
-336.5000305175781
 40
29.99999999999998
 50
213.9999936604501
 51
270.0000179860893
  0
ARC
  8
0
  6
CONTINUOUS
 62
     7
 10
222.0987396240234
 20
-302.5000305175781
 40
5.00000000000001
 50
179.9999776881996
 51
270.0000280040019
  0
ARC
  8
0
  6
CONTINUOUS
 62
     7
 10
208.6746673583984
 20
-291.1190490722656
 40
5.00000000000001
 50
355.0000479567779
 51
89.99998201391064
  0
ARC
  8
0
  6
CONTINUOUS
 62
     7
 10
212.0987396240234
 20
-267.9436645507813
 40
5
 50
0
 51
89.99998201391064
  0
ARC
  8
0
  6
CONTINUOUS
 62
     7
 10
241.0987396240234
 20
-361.5000305175781
 40
5.000000000000019
 50
270.0000179860893
 51
0
  0
CIRCLE
  8
0
  6
CONTINUOUS
 62
     3
 10
232.0987396240234
 20
-227.5
 40
6.735937595367432
  0
CIRCLE
  8
0
  6
CONTINUOUS
 62
     3
 10
232.0987396240234
 20
-292.5000305175781
 40
6.735937595367432
  0
ARC
  8
0
  6
CONTINUOUS
 62
     7
 10
197.0987396240234
 20
310
 40
9.99999999999998
 50
89.99998201391064
 51
179.9999640278213
  0
ARC
  8
0
  6
CONTINUOUS
 62
     7
 10
197.0987396240234
 20
55
 40
9.999999999999991
 50
179.9999776881997
 51
270.0000280040019
  0
ARC
  8
0
  6
CONTINUOUS
 62
     7
 10
377.0987548828125
 20
55
 40
10
 50
270.0000179860893
 51
0
  0
ARC
  8
0
  6
CONTINUOUS
 62
     7
 10
377.0987548828125
 20
310
 40
10
 50
0
 51
89.99998201391064
  0
ARC
  8
0
  6
CONTINUOUS
 62
     7
 10
197.0987396240234
 20
265
 40
9.999999999999991
 50
179.9999776881996
 51
193.6504795746854
  0
ARC
  8
0
  6
CONTINUOUS
 62
     7
 10
159.0987396240234
 20
182.5
 40
7.999999999999996
 50
270.0000179860892
 51
89.99998201391055
  0
ARC
  8
0
  6
CONTINUOUS
 62
     7
 10
197.0987396240234
 20
100
 40
10.00000000000001
 50
166.349516782849
 51
179.9999640278213
  0
CIRCLE
  8
0
  6
CONTINUOUS
 62
     7
 10
212.0987396240234
 20
295
 40
9.5
  0
CIRCLE
  8
0
  6
CONTINUOUS
 62
     7
 10
362.0987548828125
 20
295
 40
9.5
  0
CIRCLE
  8
0
  6
CONTINUOUS
 62
     7
 10
362.0987548828125
 20
70
 40
9.5
  0
CIRCLE
  8
0
  6
CONTINUOUS
 62
     7
 10
212.0987396240234
 20
70
 40
9.5
  0
ARC
  8
0
  6
CONTINUOUS
 62
     7
 10
325.5986938476562
 20
301.4426879882813
 40
5.000000000000007
 50
40.89153659854431
 51
102.7259221735869
  0
ARC
  8
0
  6
CONTINUOUS
 62
     7
 10
325.5986938476562
 20
63.55728149414063
 40
5
 50
257.2740778264131
 51
337.1866166343819
  0
ARC
  8
0
  6
CONTINUOUS
 62
     7
 10
339.0987548828125
 20
-159.9822387695313
 40
5
 50
179.999991348578
 51
270.0000006832456
  0
ARC
  8
0
  6
CONTINUOUS
 62
     7
 10
339.0987548828125
 20
-295.0177612304688
 40
5.000000000000004
 50
90.00000250447847
 51
180.0000050089563
  0
ARC
  8
0
  6
CONTINUOUS
 62
     7
 10
427.0987548828125
 20
-295.0177612304688
 40
5
 50
0
 51
90.00000250447847
  0
ARC
  8
0
  6
CONTINUOUS
 62
     7
 10
427.0987548828125
 20
-159.9822387695313
 40
5.000000000000004
 50
269.9999974955215
 51
0
  0
ARC
  8
0
  6
CONTINUOUS
 62
     7
 10
427.0987548828125
 20
-325
 40
5
 50
0
 51
90.00000250447847
  0
ARC
  8
0
  6
CONTINUOUS
 62
     7
 10
339.0987548828125
 20
-325
 40
5.000000000000004
 50
90.00000250447847
 51
180.0000050089563
  0
ARC
  8
0
  6
CONTINUOUS
 62
     7
 10
427.0987548828125
 20
-130
 40
5.000000000000004
 50
269.9999974955215
 51
0
  0
ARC
  8
0
  6
CONTINUOUS
 62
     7
 10
391.0987548828125
 20
-130
 40
5.00000000000002
 50
180.0000050089563
 51
270.0000006832456
  0
ARC
  8
0
  6
CONTINUOUS
 62
     7
 10
331.0987548828125
 20
-89
 40
20.5
 50
304.6066501519143
 51
235.3933172910016
  0
CIRCLE
  8
0
  6
CONTINUOUS
 62
     7
 10
331.0987548828125
 20
-89
 40
12.5
  0
ARC
  8
0
  6
CONTINUOUS
 62
     7
 10
324.01123046875
 20
-105
 40
1.999999999999999
 50
89.99998201391097
 51
170.000020667789
  0
ARC
  8
0
  6
CONTINUOUS
 62
     7
 10
338.1862487792969
 20
-105
 40
2.000000000000012
 50
9.999999709092924
 51
89.99998201391097
  0
ARC
  8
0
  6
CONTINUOUS
 62
     7
 10
317.1842346191406
 20
-109.1652221679688
 40
3.999999999999983
 50
347.9541887335325
 51
55.39334301789688
  0
ARC
  8
0
  6
CONTINUOUS
 62
     7
 10
345.0132446289062
 20
-109.1652221679688
 40
4.000000000000016
 50
124.6066790665329
 51
192.0457812707042
  0
ARC
  8
0
  6
CONTINUOUS
 62
     7
 10
339.0987548828125
 20
250.0177612304688
 40
5
 50
179.999991348578
 51
270.0000006832456
  0
ARC
  8
0
  6
CONTINUOUS
 62
     7
 10
339.0987548828125
 20
114.9822387695312
 40
5.000000000000004
 50
90.00000250447847
 51
180.0000050089563
  0
ARC
  8
0
  6
CONTINUOUS
 62
     7
 10
339.0987548828125
 20
280
 40
5
 50
179.999991348578
 51
270.0000006832456
  0
ARC
  8
0
  6
CONTINUOUS
 62
     7
 10
427.0987548828125
 20
114.9822387695312
 40
5
 50
0
 51
90.00000250447847
  0
ARC
  8
0
  6
CONTINUOUS
 62
     7
 10
427.0987548828125
 20
250.0177612304688
 40
5.000000000000004
 50
269.9999974955215
 51
0
  0
ARC
  8
0
  6
CONTINUOUS
 62
     7
 10
427.0987548828125
 20
85
 40
5
 50
0
 51
90.00000250447847
  0
ARC
  8
0
  6
CONTINUOUS
 62
     7
 10
339.0987548828125
 20
85
 40
5.000000000000004
 50
90.00000250447847
 51
180.0000050089563
  0
ARC
  8
0
  6
CONTINUOUS
 62
     7
 10
427.0987548828125
 20
280
 40
5.000000000000004
 50
269.9999974955215
 51
0
  0
ARC
  8
0
  6
CONTINUOUS
 62
     7
 10
331.0987548828125
 20
182.5
 40
10.00000000000001
 50
203.5781631757645
 51
336.4218232775427
  0
ARC
  8
0
  6
CONTINUOUS
 62
     7
 10
347.5987548828125
 20
182.5
 40
3.999999999999998
 50
270.0000179860891
 51
89.99998201391097
  0
ARC
  8
0
  6
CONTINUOUS
 62
     7
 10
314.5987548828125
 20
182.5
 40
3.999999999999998
 50
89.99998201391097
 51
270.0000006832454
  0
ARC
  8
0
  6
CONTINUOUS
 62
     7
 10
331.0987548828125
 20
182.5
 40
9.999999999999982
 50
23.57817672245732
 51
156.4218368242355
  0
CIRCLE
  8
0
  6
CONTINUOUS
 62
     3
 10
368.0987548828125
 20
182.5
 40
8.5
  0
TEXT
  8
0
  6
CONTINUOUS
 62
     7
 10
-295.3298301696777
 20
173.5
 40
18
 41
0.8444757469838271
  1
ＥＲＫ－Ｄ－７５００
  0
ENDSEC
  0
EOF
