  0
SECTION
  2
HEADER
  0
ENDSEC
  0
SECTION
  2
TABLES
  0
TABLE
  2
LTYPE
 70
    22
  0
LTYPE
  2
CONTINUOUS
 70
    64
  3
Solid line
 72
    65
 73
     0
 40
0.000000
  0
LTYPE
  2
DASHED
 70
    64
  3
__ __ __ __ __ __ __ __ __ __ __ __ __ __ __
 72
    65
 73
     2
 40
3.500000
 49
2.000000
 49
-1.500000
  0
LTYPE
  2
CENTER
 70
    64
  3
____ _ ____ _ ____ _ ____ _ ____ _ ____ _ ____
 72
    65
 73
     4
 40
17.500000
 49
13.000000
 49
-1.500000
 49
1.500000
 49
-1.500000
  0
LTYPE
  2
PHANTOM
 70
    64
  3
_____ _ _ _____ _ _ _____ _ _ _____ _ _ ____  
 72
    65
 73
     6
 40
15.500000
 49
8.000000
 49
-1.500000
 49
1.500000
 49
-1.500000
 49
1.500000
 49
-1.500000
  0
LTYPE
  2
DOT
 70
    64
  3
. . . . . . . . . . . . . . . . . . . . . . . .
 72
    65
 73
     2
 40
0.25
 49
0.0
 49
-0.25
  0
ENDTAB
  0
TABLE
  2
LAYER
 70
     1
  0
LAYER
  2
0
 70
     0
 62
     7
  6
CONTINUOUS
  0
ENDTAB
  0
TABLE
  2
STYLE
 70
     1
  0
STYLE
  2
STANDARD
 70
     0
 40
0.000000
 41
1.000000
 50
0.000000
 71
     0
 42
0.200000
  3
txt
  4
BIGFONT
  0
ENDTAB
  0
TABLE
  2
VIEW
 70
     0
  0
ENDTAB
  0
ENDSEC
  0
SECTION
  2
BLOCKS
  0
ENDSEC
  0
SECTION
  2
ENTITIES
  0
LINE
  8
0
  6
CONTINUOUS
 62
     3
 10
112.0987396240234
 20
-212.5
 11
476.0987548828125
 21
-212.5
  0
LINE
  8
0
  6
CONTINUOUS
 62
     7
 10
227.0987396240234
 20
-352.5
 11
427.0987548828125
 21
-352.5
  0
LINE
  8
0
  6
CONTINUOUS
 62
     7
 10
227.0987396240234
 20
-326.5
 11
227.0987396240234
 21
-352.5
  0
LINE
  8
0
  6
CONTINUOUS
 62
     7
 10
427.0987548828125
 20
-326.5
 11
427.0987548828125
 21
-352.5
  0
LINE
  8
0
  6
CONTINUOUS
 62
     7
 10
262.0987548828125
 20
-292.5
 11
279.4998168945313
 21
-292.5
  0
LINE
  8
0
  6
CONTINUOUS
 62
     7
 10
247.4980773925781
 20
-321.9358215332031
 11
252.1698608398438
 21
-268.5372619628906
  0
LINE
  8
0
  6
CONTINUOUS
 62
     3
 10
272.0987548828125
 20
-202.5
 11
272.0987548828125
 21
-222.5
  0
LINE
  8
0
  6
CONTINUOUS
 62
     7
 10
257.0987548828125
 20
-252.943603515625
 11
257.0987548828125
 21
-287.5
  0
LINE
  8
0
  6
CONTINUOUS
 62
     3
 10
262.0987548828125
 20
-277.5
 11
282.0987548828125
 21
-277.5
  0
LINE
  8
0
  6
CONTINUOUS
 62
     3
 10
272.0987548828125
 20
-267.5
 11
272.0987548828125
 21
-287.5
  0
LINE
  8
0
  6
CONTINUOUS
 62
     7
 10
218.0987396240234
 20
-157.5000305175781
 11
218.0987396240234
 21
-267.5
  0
LINE
  8
0
  6
CONTINUOUS
 62
     7
 10
230.0987396240234
 20
-125
 11
230.0987396240234
 21
-300
  0
LINE
  8
0
  6
CONTINUOUS
 62
     7
 10
230.0987396240234
 20
-300
 11
249.4172210693359
 21
-300
  0
LINE
  8
0
  6
CONTINUOUS
 62
     7
 10
242.0987396240234
 20
-125
 11
242.0987396240234
 21
-300
  0
LINE
  8
0
  6
CONTINUOUS
 62
     7
 10
230.0987396240234
 20
-125
 11
262.0987548828125
 21
-125
  0
LINE
  8
0
  6
CONTINUOUS
 62
     7
 10
262.0986938476563
 20
-125.0000076293945
 11
281.3603515625
 21
-123.9905471801758
  0
LINE
  8
0
  6
CONTINUOUS
 62
     7
 10
286.0987548828125
 20
-97.5
 11
286.0987548828125
 21
-321.5
  0
LINE
  8
0
  6
CONTINUOUS
 62
     7
 10
286.0987548828125
 20
-97.5
 11
304.0987548828125
 21
-97.5
  0
LINE
  8
0
  6
CONTINUOUS
 62
     7
 10
304.0987548828125
 20
-97.5
 11
304.0987548828125
 21
-246.231689453125
  0
LINE
  8
0
  6
CONTINUOUS
 62
     3
 10
252.0987396240234
 20
-310.6178588867187
 11
252.0987396240234
 21
-367.5
  0
LINE
  8
0
  6
CONTINUOUS
 62
     3
 10
402.0987548828125
 20
-310.6178588867187
 11
402.0987548828125
 21
-367.5
  0
LINE
  8
0
  6
CONTINUOUS
 62
     7
 10
132.0987396240234
 20
-181
 11
132.0987396240234
 21
-240
  0
LINE
  8
0
  6
CONTINUOUS
 62
     7
 10
132.0987396240234
 20
-185
 11
212.0987396240234
 21
-185
  0
LINE
  8
0
  6
CONTINUOUS
 62
     7
 10
132.0987396240234
 20
-240
 11
212.0987396240234
 21
-240
  0
LINE
  8
0
  6
CONTINUOUS
 62
     7
 10
212.0987396240234
 20
-180
 11
218.0987396240234
 21
-180
  0
LINE
  8
0
  6
CONTINUOUS
 62
     7
 10
212.0987396240234
 20
-245
 11
218.0987396240234
 21
-245
  0
LINE
  8
0
  6
CONTINUOUS
 62
     7
 10
212.0987396240234
 20
-180
 11
212.0987396240234
 21
-245
  0
LINE
  8
0
  6
DASHED
 62
     7
 10
242.5987396240234
 20
-326.5
 11
242.5987396240234
 21
-352.5
  0
LINE
  8
0
  6
DASHED
 62
     7
 10
261.5987548828125
 20
-326.5
 11
261.5987548828125
 21
-352.5
  0
LINE
  8
0
  6
DASHED
 62
     7
 10
392.5987548828125
 20
-326.5
 11
392.5987548828125
 21
-352.5
  0
LINE
  8
0
  6
DASHED
 62
     7
 10
411.5987548828125
 20
-326.5
 11
411.5987548828125
 21
-352.5
  0
LINE
  8
0
  6
CONTINUOUS
 62
     7
 10
132.0987396240234
 20
-181
 11
195.0987396240234
 21
-181
  0
LINE
  8
0
  6
CONTINUOUS
 62
     7
 10
227.0987396240234
 20
-326.5
 11
281.0987548828125
 21
-326.5
  0
LINE
  8
0
  6
CONTINUOUS
 62
     7
 10
272.0987548828125
 20
-206.1360168457031
 11
265.7348022460937
 21
-212.4999847412109
  0
LINE
  8
0
  6
CONTINUOUS
 62
     7
 10
265.7348327636719
 20
-212.5000152587891
 11
272.0987854003906
 21
-218.8639831542969
  0
LINE
  8
0
  6
CONTINUOUS
 62
     7
 10
272.0987854003906
 20
-218.8639984130859
 11
278.4627380371094
 21
-212.5000457763672
  0
LINE
  8
0
  6
CONTINUOUS
 62
     7
 10
278.4626770019531
 20
-212.5
 11
272.0987243652344
 21
-206.1360321044922
  0
LINE
  8
0
  6
CONTINUOUS
 62
     7
 10
304.0987548828125
 20
-246.2317199707031
 11
358.5927734375
 21
-313.5262451171875
  0
LINE
  8
0
  6
CONTINUOUS
 62
     7
 10
230.0987548828125
 20
-125
 11
218.0987548828125
 21
-157.5000305175781
  0
LINE
  8
0
  6
CONTINUOUS
 62
     7
 10
218.0987701416016
 20
-267.5000610351563
 11
230.0987548828125
 21
-300.0000305175781
  0
LINE
  8
0
  6
CONTINUOUS
 62
     7
 10
385.7929077148437
 20
-326.5
 11
427.0987548828125
 21
-326.5
  0
LINE
  8
0
  6
CONTINUOUS
 62
     7
 10
195.0987396240234
 20
-181
 11
195.0987396240234
 21
-185
  0
LINE
  8
0
  6
CONTINUOUS
 62
     7
 10
308.0987548828125
 20
-95
 11
352.0987548828125
 21
-95
  0
LINE
  8
0
  6
CONTINUOUS
 62
     7
 10
356.0987548828125
 20
-97.5
 11
356.0987548828125
 21
-310.4463500976563
  0
LINE
  8
0
  6
CONTINUOUS
 62
     7
 10
304.0986938476563
 20
-98.99996185302734
 11
308.0987243652344
 21
-94.99995422363281
  0
LINE
  8
0
  6
CONTINUOUS
 62
     7
 10
352.0986938476563
 20
-94.99998474121094
 11
356.0986938476563
 21
-98.99998474121094
  0
LINE
  8
0
  6
CONTINUOUS
 62
     7
 10
308.0987548828125
 20
-137.5578002929688
 11
352.0987548828125
 21
-137.5578002929688
  0
LINE
  8
0
  6
CONTINUOUS
 62
     7
 10
308.0987548828125
 20
-151.2132568359375
 11
352.0987548828125
 21
-151.2132568359375
  0
LINE
  8
0
  6
CONTINUOUS
 62
     7
 10
308.0987548828125
 20
-159.9596557617187
 11
352.0987548828125
 21
-159.9596557617187
  0
LINE
  8
0
  6
CONTINUOUS
 62
     7
 10
308.0987548828125
 20
-175.3352966308594
 11
352.0987548828125
 21
-175.3352966308594
  0
LINE
  8
0
  6
CONTINUOUS
 62
     7
 10
308.0987548828125
 20
-184.947998046875
 11
352.0987548828125
 21
-184.947998046875
  0
LINE
  8
0
  6
CONTINUOUS
 62
     7
 10
308.0987548828125
 20
-201.50048828125
 11
352.0987548828125
 21
-201.50048828125
  0
LINE
  8
0
  6
CONTINUOUS
 62
     7
 10
308.0987548828125
 20
-223.5003051757812
 11
352.0987548828125
 21
-223.5003051757812
  0
LINE
  8
0
  6
CONTINUOUS
 62
     7
 10
308.0987548828125
 20
-240.0516662597656
 11
352.0987548828125
 21
-240.0516662597656
  0
LINE
  8
0
  6
CONTINUOUS
 62
     7
 10
308.0987548828125
 20
-249.6639404296875
 11
352.0987548828125
 21
-249.6639404296875
  0
LINE
  8
0
  6
CONTINUOUS
 62
     7
 10
319.3297729492187
 20
-265.0404357910156
 11
352.0987548828125
 21
-265.0404357910156
  0
LINE
  8
0
  6
CONTINUOUS
 62
     7
 10
326.4121704101563
 20
-273.7864379882813
 11
352.0987548828125
 21
-273.7864379882813
  0
LINE
  8
0
  6
CONTINUOUS
 62
     7
 10
337.4692993164062
 20
-287.44091796875
 11
352.0987548828125
 21
-287.44091796875
  0
LINE
  8
0
  6
CONTINUOUS
 62
     7
 10
350.0667724609375
 20
-302.9974365234375
 11
352.0987548828125
 21
-302.9974365234375
  0
LINE
  8
0
  6
CONTINUOUS
 62
     3
 10
-207.9012603759766
 20
-33.5
 11
-207.9012603759766
 21
-369.5
  0
LINE
  8
0
  6
CONTINUOUS
 62
     3
 10
-345.4012451171875
 20
-212.5
 11
-71.03309631347656
 21
-212.5
  0
LINE
  8
0
  6
CONTINUOUS
 62
     7
 10
-345.4012451171875
 20
-352.5
 11
-280.4012451171875
 21
-352.5
  0
LINE
  8
0
  6
CONTINUOUS
 62
     7
 10
-70.40126037597656
 20
-326.5
 11
-70.40126037597656
 21
-352.5
  0
LINE
  8
0
  6
CONTINUOUS
 62
     7
 10
-345.4012451171875
 20
-326.5
 11
-345.4012451171875
 21
-352.5
  0
LINE
  8
0
  6
CONTINUOUS
 62
     7
 10
-280.4012451171875
 20
-326.5
 11
-280.4012451171875
 21
-352.5
  0
LINE
  8
0
  6
CONTINUOUS
 62
     7
 10
-135.4012603759766
 20
-326.5
 11
-135.4012603759766
 21
-352.5
  0
LINE
  8
0
  6
CONTINUOUS
 62
     3
 10
-320.4012451171875
 20
-311.5
 11
-320.4012451171875
 21
-367.5
  0
LINE
  8
0
  6
CONTINUOUS
 62
     3
 10
-95.40126037597656
 20
-311.5
 11
-95.40126037597656
 21
-367.5
  0
LINE
  8
0
  6
CONTINUOUS
 62
     7
 10
-345.4012451171875
 20
-326.5
 11
-280.4012451171875
 21
-326.5
  0
LINE
  8
0
  6
CONTINUOUS
 62
     7
 10
-135.4012603759766
 20
-352.5
 11
-70.40126037597656
 21
-352.5
  0
LINE
  8
0
  6
CONTINUOUS
 62
     7
 10
-135.4012603759766
 20
-326.5
 11
-70.40126037597656
 21
-326.5
  0
LINE
  8
0
  6
CONTINUOUS
 62
     7
 10
-345.4013061523438
 20
-326.4999389648438
 11
-321.06298828125
 21
-192.0198974609375
  0
LINE
  8
0
  6
CONTINUOUS
 62
     7
 10
-70.40128326416016
 20
-326.5
 11
-94.73960113525391
 21
-192.0199127197266
  0
LINE
  8
0
  6
CONTINUOUS
 62
     7
 10
-277.4012451171875
 20
-349.5
 11
-138.4012603759766
 21
-349.5
  0
LINE
  8
0
  6
CONTINUOUS
 62
     7
 10
-293.4082641601563
 20
-322.7940979003906
 11
-278.5352172851563
 21
-267.287109375
  0
LINE
  8
0
  6
CONTINUOUS
 62
     7
 10
-280.4012451171875
 20
-326.4999694824219
 11
-269.1495056152344
 21
-284.5079040527344
  0
LINE
  8
0
  6
CONTINUOUS
 62
     7
 10
-135.4012603759766
 20
-326.5000610351562
 11
-146.6529998779297
 21
-284.5079345703125
  0
LINE
  8
0
  6
CONTINUOUS
 62
     7
 10
-122.3943099975586
 20
-322.7940979003906
 11
-137.2673645019531
 21
-267.2870483398437
  0
LINE
  8
0
  6
CONTINUOUS
 62
     7
 10
-287.9012451171875
 20
-292.5
 11
-285.2909545898438
 21
-292.5
  0
LINE
  8
0
  6
CONTINUOUS
 62
     7
 10
-287.9012451171875
 20
-247.943603515625
 11
-287.9012451171875
 21
-292.5
  0
LINE
  8
0
  6
CONTINUOUS
 62
     7
 10
-127.9012603759766
 20
-247.943603515625
 11
-127.9012603759766
 21
-292.5
  0
LINE
  8
0
  6
CONTINUOUS
 62
     7
 10
-130.5115509033203
 20
-292.5
 11
-127.9012603759766
 21
-292.5
  0
LINE
  8
0
  6
CONTINUOUS
 62
     7
 10
-199.9012603759766
 20
-181
 11
-199.9012603759766
 21
-191
  0
LINE
  8
0
  6
CONTINUOUS
 62
     7
 10
-215.9012603759766
 20
-181
 11
-215.9012603759766
 21
-191
  0
LINE
  8
0
  6
CONTINUOUS
 62
     3
 10
-118.2848052978516
 20
-249.6204223632812
 11
-103.5027313232422
 21
-255.7433624267578
  0
LINE
  8
0
  6
CONTINUOUS
 62
     3
 10
-170.7809600830078
 20
-122.8836975097656
 11
-164.6580200195313
 21
-108.1016311645508
  0
LINE
  8
0
  6
CONTINUOUS
 62
     3
 10
-245.0214385986328
 20
-122.8836898803711
 11
-251.1443634033203
 21
-108.1016159057617
  0
LINE
  8
0
  6
CONTINUOUS
 62
     3
 10
-297.5176696777344
 20
-175.379638671875
 11
-312.2997436523438
 21
-169.2566986083984
  0
LINE
  8
0
  6
CONTINUOUS
 62
     3
 10
-297.5176696777344
 20
-249.6203155517578
 11
-312.2997436523438
 21
-255.7432556152344
  0
LINE
  8
0
  6
CONTINUOUS
 62
     3
 10
-118.2849426269531
 20
-175.3796997070313
 11
-103.5028762817383
 21
-169.2567749023437
  0
LINE
  8
0
  6
CONTINUOUS
 62
     3
 10
-170.781005859375
 20
-302.1163940429688
 11
-164.6580810546875
 21
-316.8984680175781
  0
LINE
  8
0
  6
CONTINUOUS
 62
     3
 10
-245.0215911865234
 20
-302.1163635253906
 11
-251.14453125
 21
-316.8984375
  0
LINE
  8
0
  6
DASHED
 62
     7
 10
-310.9012451171875
 20
-326.5
 11
-310.9012451171875
 21
-352.5
  0
LINE
  8
0
  6
DASHED
 62
     7
 10
-329.9012451171875
 20
-326.5
 11
-329.9012451171875
 21
-352.5
  0
LINE
  8
0
  6
DASHED
 62
     7
 10
-104.9012603759766
 20
-326.5
 11
-104.9012603759766
 21
-352.5
  0
LINE
  8
0
  6
DASHED
 62
     7
 10
-85.90126037597656
 20
-326.5
 11
-85.90126037597656
 21
-352.5
  0
LINE
  8
0
  6
CONTINUOUS
 62
     7
 10
-215.9012603759766
 20
-191
 11
-199.9012603759766
 21
-191
  0
LINE
  8
0
  6
CONTINUOUS
 62
     7
 10
-215.9012603759766
 20
-181
 11
-199.9012603759766
 21
-181
  0
LINE
  8
0
  6
CONTINUOUS
 62
     7
 10
-107.4112701416016
 20
-218.4497680664062
 11
-107.4112701416016
 21
-206.5502319335938
  0
LINE
  8
0
  6
CONTINUOUS
 62
     7
 10
-115.4112701416016
 20
-219.2359313964844
 11
-115.4112701416016
 21
-205.7640686035156
  0
LINE
  8
0
  6
CONTINUOUS
 62
     7
 10
-115.4112548828125
 20
-219.2359313964844
 11
-120.6484375
 21
-219.072265625
  0
LINE
  8
0
  6
CONTINUOUS
 62
     7
 10
-115.4112548828125
 20
-205.7640533447266
 11
-120.6484451293945
 21
-205.9277191162109
  0
LINE
  8
0
  6
CONTINUOUS
 62
     7
 10
-107.4112701416016
 20
-218.4497680664062
 11
-115.4112701416016
 21
-218.4497680664062
  0
LINE
  8
0
  6
CONTINUOUS
 62
     7
 10
-107.4112701416016
 20
-206.5502319335938
 11
-115.4112701416016
 21
-206.5502319335938
  0
LINE
  8
0
  6
CONTINUOUS
 62
     3
 10
-264.1929016113281
 20
-180
 11
-281.513427734375
 21
-170
  0
LINE
  8
0
  6
CONTINUOUS
 62
     3
 10
-151.6097106933594
 20
-179.9999542236328
 11
-134.2891998291016
 21
-169.9999542236328
  0
LINE
  8
0
  6
CONTINUOUS
 62
     3
 10
-151.6096801757813
 20
-244.9999694824219
 11
-134.2891845703125
 21
-254.9999694824219
  0
LINE
  8
0
  6
CONTINUOUS
 62
     3
 10
-264.1929626464844
 20
-244.9999084472656
 11
-281.5134582519531
 21
-254.9999084472656
  0
LINE
  8
0
  6
CONTINUOUS
 62
     3
 10
-115.4112777709961
 20
-212.5000610351563
 11
-107.4112701416016
 21
-206.5503082275391
  0
LINE
  8
0
  6
CONTINUOUS
 62
     3
 10
-115.4112854003906
 20
-206.5502319335938
 11
-107.4112548828125
 21
-212.5000152587891
  0
LINE
  8
0
  6
CONTINUOUS
 62
     7
 10
-107.4112701416016
 20
-212.5
 11
-115.4112701416016
 21
-212.5
  0
LINE
  8
0
  6
CONTINUOUS
 62
     3
 10
-115.4112548828125
 20
-212.4999847412109
 11
-107.4112701416016
 21
-218.4497222900391
  0
LINE
  8
0
  6
CONTINUOUS
 62
     3
 10
-107.411247253418
 20
-212.4999847412109
 11
-115.4112243652344
 21
-218.4497222900391
  0
LINE
  8
0
  6
CONTINUOUS
 62
     7
 10
-218.9007568359375
 20
-95.51587677001953
 11
-219.6494750976563
 21
-98.10171508789063
  0
LINE
  8
0
  6
CONTINUOUS
 62
     7
 10
-96.43348693847656
 20
-175.3352966308594
 11
-98.99866485595703
 21
-175.551025390625
  0
LINE
  8
0
  6
CONTINUOUS
 62
     7
 10
-93.67728424072266
 20
-184.9479675292969
 11
-95.96683502197266
 21
-186.124267578125
  0
LINE
  8
0
  6
CONTINUOUS
 62
     7
 10
-90.91742706298828
 20
-201.50048828125
 11
-93.50290679931641
 21
-200.7518768310547
  0
LINE
  8
0
  6
CONTINUOUS
 62
     7
 10
-312.99951171875
 20
-159.9590301513672
 11
-311.0333557128906
 21
-161.6201324462891
  0
LINE
  8
0
  6
CONTINUOUS
 62
     7
 10
-308.1514587402344
 20
-151.2119598388672
 11
-305.7003479003906
 21
-151.999267578125
  0
LINE
  8
0
  6
CONTINUOUS
 62
     7
 10
-319.3688659667969
 20
-175.334228515625
 11
-316.8034973144531
 21
-175.5499725341797
  0
LINE
  8
0
  6
CONTINUOUS
 62
     7
 10
-322.1242370605469
 20
-184.9457092285156
 11
-319.8351135253906
 21
-186.1217956542969
  0
LINE
  8
0
  6
CONTINUOUS
 62
     7
 10
-324.8857116699219
 20
-201.49853515625
 11
-322.6619262695312
 21
-200.8546600341797
  0
LINE
  8
0
  6
CONTINUOUS
 62
     7
 10
-245.0652770996094
 20
-101.0322723388672
 11
-244.8495788574219
 21
-103.5971984863281
  0
LINE
  8
0
  6
CONTINUOUS
 62
     7
 10
-235.45166015625
 20
-98.27503967285156
 11
-234.2751007080078
 21
-100.5650939941406
  0
LINE
  8
0
  6
CONTINUOUS
 62
     7
 10
-260.4407653808594
 20
-107.4003372192383
 11
-258.7793273925781
 21
-109.3669128417969
  0
LINE
  8
0
  6
CONTINUOUS
 62
     7
 10
-269.1859741210937
 20
-112.2484283447266
 11
-268.3988342285156
 21
-114.6989669799805
  0
LINE
  8
0
  6
CONTINUOUS
 62
     7
 10
-282.8423461914063
 20
-121.9999008178711
 11
-280.4838562011719
 21
-123.2992706298828
  0
LINE
  8
0
  6
CONTINUOUS
 62
     7
 10
-298.3971557617188
 20
-137.5563812255859
 11
-297.0986328125
 21
-139.9133148193359
  0
LINE
  8
0
  6
CONTINUOUS
 62
     7
 10
-102.8024139404297
 20
-159.9596557617187
 11
-104.7687454223633
 21
-161.6209106445313
  0
LINE
  8
0
  6
CONTINUOUS
 62
     7
 10
-107.6505584716797
 20
-151.2132415771484
 11
-110.1014251708984
 21
-152.0004577636719
  0
LINE
  8
0
  6
CONTINUOUS
 62
     7
 10
-117.4034118652344
 20
-137.5577850341797
 11
-118.7022476196289
 21
-139.9152984619141
  0
LINE
  8
0
  6
CONTINUOUS
 62
     3
 10
112.0987396240234
 20
167.5
 11
476.0987548828125
 21
167.5
  0
LINE
  8
0
  6
CONTINUOUS
 62
     7
 10
242.0987396240234
 20
255
 11
242.0987396240234
 21
80
  0
LINE
  8
0
  6
CONTINUOUS
 62
     7
 10
304.0987548828125
 20
290.4729614257813
 11
304.0987548828125
 21
44.52700805664062
  0
LINE
  8
0
  6
CONTINUOUS
 62
     7
 10
230.0987396240234
 20
255
 11
262.0987548828125
 21
255
  0
LINE
  8
0
  6
CONTINUOUS
 62
     7
 10
262.0987243652344
 20
254.9999389648438
 11
281.3604431152344
 21
256.0093994140625
  0
LINE
  8
0
  6
CONTINUOUS
 62
     7
 10
286.0987548828125
 20
305
 11
286.0987548828125
 21
30
  0
LINE
  8
0
  6
CONTINUOUS
 62
     7
 10
230.0987396240234
 20
255
 11
230.0987396240234
 21
80
  0
LINE
  8
0
  6
CONTINUOUS
 62
     7
 10
218.0987396240234
 20
222.5
 11
218.0987396240234
 21
112.5
  0
LINE
  8
0
  6
CONTINUOUS
 62
     7
 10
230.0987396240234
 20
80
 11
262.0987548828125
 21
80
  0
LINE
  8
0
  6
CONTINUOUS
 62
     7
 10
262.0987854003906
 20
79.99998474121094
 11
281.3605041503906
 21
78.99052429199219
  0
LINE
  8
0
  6
CONTINUOUS
 62
     7
 10
227.0987396240234
 20
295
 11
227.0987396240234
 21
250
  0
LINE
  8
0
  6
CONTINUOUS
 62
     7
 10
237.0987396240234
 20
305
 11
417.0987548828125
 21
305
  0
LINE
  8
0
  6
CONTINUOUS
 62
     7
 10
237.0987396240234
 20
30
 11
417.0987548828125
 21
30
  0
LINE
  8
0
  6
CONTINUOUS
 62
     7
 10
227.0987396240234
 20
85
 11
227.0987396240234
 21
40
  0
LINE
  8
0
  6
CONTINUOUS
 62
     7
 10
427.0987548828125
 20
71.8919677734375
 11
427.0987548828125
 21
40
  0
LINE
  8
0
  6
CONTINUOUS
 62
     3
 10
237.0987396240234
 20
279.9999389648438
 11
267.0987548828125
 21
279.9999389648438
  0
LINE
  8
0
  6
CONTINUOUS
 62
     3
 10
252.0987396240234
 20
294.9999389648437
 11
252.0987396240234
 21
264.9999389648437
  0
LINE
  8
0
  6
CONTINUOUS
 62
     3
 10
252.0987396240234
 20
69.99993896484375
 11
252.0987396240234
 21
39.99993896484375
  0
LINE
  8
0
  6
CONTINUOUS
 62
     3
 10
237.0987396240234
 20
54.99993896484375
 11
267.0987548828125
 21
54.99993896484375
  0
LINE
  8
0
  6
CONTINUOUS
 62
     3
 10
402.0987548828125
 20
69.99993896484375
 11
402.0987548828125
 21
39.99993896484375
  0
LINE
  8
0
  6
CONTINUOUS
 62
     3
 10
387.0987548828125
 20
54.99993896484375
 11
417.0987548828125
 21
54.99993896484375
  0
LINE
  8
0
  6
CONTINUOUS
 62
     3
 10
402.0987548828125
 20
294.9999389648437
 11
402.0987548828125
 21
264.9999389648437
  0
LINE
  8
0
  6
CONTINUOUS
 62
     3
 10
387.0987548828125
 20
279.9999389648438
 11
417.0987548828125
 21
279.9999389648438
  0
LINE
  8
0
  6
CONTINUOUS
 62
     7
 10
132.0987396240234
 20
195
 11
132.0987396240234
 21
140
  0
LINE
  8
0
  6
CONTINUOUS
 62
     7
 10
132.0987396240234
 20
195
 11
212.0987396240234
 21
195
  0
LINE
  8
0
  6
CONTINUOUS
 62
     7
 10
132.0987396240234
 20
140
 11
212.0987396240234
 21
140
  0
LINE
  8
0
  6
CONTINUOUS
 62
     7
 10
212.0987396240234
 20
200
 11
218.0987396240234
 21
200
  0
LINE
  8
0
  6
CONTINUOUS
 62
     7
 10
212.0987396240234
 20
135
 11
218.0987396240234
 21
135
  0
LINE
  8
0
  6
CONTINUOUS
 62
     7
 10
212.0987396240234
 20
200
 11
212.0987396240234
 21
135
  0
LINE
  8
0
  6
CONTINUOUS
 62
     7
 10
132.0987396240234
 20
175.5
 11
199.0987396240234
 21
175.5
  0
LINE
  8
0
  6
CONTINUOUS
 62
     7
 10
132.0987396240234
 20
159.5
 11
199.0987396240234
 21
159.5
  0
LINE
  8
0
  6
CONTINUOUS
 62
     7
 10
218.0986938476562
 20
222.5000457763672
 11
230.0986785888672
 21
255.0000152587891
  0
LINE
  8
0
  6
CONTINUOUS
 62
     7
 10
218.0986938476562
 20
112.5000305175781
 11
230.0987091064453
 21
80.00000762939453
  0
LINE
  8
0
  6
CONTINUOUS
 62
     3
 10
272.0987548828125
 20
87.79736328125
 11
272.0987548828125
 21
60
  0
LINE
  8
0
  6
CONTINUOUS
 62
     7
 10
392.0987548828125
 20
87.39437103271484
 11
419.1658325195313
 21
81.67597961425781
  0
LINE
  8
0
  6
CONTINUOUS
 62
     7
 10
392.0987548828125
 20
247.6056365966797
 11
419.165771484375
 21
253.3240203857422
  0
LINE
  8
0
  6
CONTINUOUS
 62
     7
 10
427.0987548828125
 20
263.1080322265625
 11
427.0987548828125
 21
295
  0
LINE
  8
0
  6
CONTINUOUS
 62
     7
 10
266.1490478515625
 20
67.010009765625
 11
278.0484619140625
 21
67.010009765625
  0
LINE
  8
0
  6
CONTINUOUS
 62
     7
 10
265.36279296875
 20
75.010009765625
 11
278.834716796875
 21
75.010009765625
  0
LINE
  8
0
  6
CONTINUOUS
 62
     7
 10
265.36279296875
 20
75.01005554199219
 11
265.5131530761719
 21
79.82112121582031
  0
LINE
  8
0
  6
CONTINUOUS
 62
     7
 10
278.8346557617187
 20
75.00999450683594
 11
278.7059326171875
 21
79.12968444824219
  0
LINE
  8
0
  6
CONTINUOUS
 62
     7
 10
266.1490478515625
 20
67.010009765625
 11
266.1490478515625
 21
75.010009765625
  0
LINE
  8
0
  6
CONTINUOUS
 62
     7
 10
278.0484619140625
 20
67.010009765625
 11
278.0484619140625
 21
75.010009765625
  0
LINE
  8
0
  6
CONTINUOUS
 62
     7
 10
304.0986938476563
 20
290.4729614257813
 11
370.7388305664063
 21
304.9999694824219
  0
LINE
  8
0
  6
CONTINUOUS
 62
     7
 10
304.0987548828125
 20
44.52700424194336
 11
370.7388916015625
 21
29.99998664855957
  0
LINE
  8
0
  6
CONTINUOUS
 62
     3
 10
266.1490173339844
 20
75.01001739501953
 11
272.0987548828125
 21
67.01002502441406
  0
LINE
  8
0
  6
CONTINUOUS
 62
     7
 10
272.0987548828125
 20
75.010009765625
 11
272.0987548828125
 21
67.010009765625
  0
LINE
  8
0
  6
CONTINUOUS
 62
     3
 10
272.0987548828125
 20
75.01004791259766
 11
266.1489868164063
 21
67.01003265380859
  0
LINE
  8
0
  6
CONTINUOUS
 62
     3
 10
272.0987548828125
 20
75.01000213623047
 11
278.0484924316406
 21
67.010009765625
  0
LINE
  8
0
  6
CONTINUOUS
 62
     3
 10
278.0484924316406
 20
75.01001739501953
 11
272.0987548828125
 21
67.01002502441406
  0
LINE
  8
0
  6
CONTINUOUS
 62
     7
 10
195.0987396240234
 20
175.5
 11
195.0987396240234
 21
159.5
  0
LINE
  8
0
  6
CONTINUOUS
 62
     7
 10
308.0987548828125
 20
285
 11
352.0987548828125
 21
285
  0
LINE
  8
0
  6
CONTINUOUS
 62
     7
 10
308.0987548828125
 20
50
 11
352.0987548828125
 21
50
  0
LINE
  8
0
  6
CONTINUOUS
 62
     7
 10
304.0987548828125
 20
280.9999389648438
 11
308.0987548828125
 21
284.9999389648438
  0
LINE
  8
0
  6
CONTINUOUS
 62
     7
 10
352.0986022949219
 20
284.9999389648438
 11
356.0986022949219
 21
280.9999389648438
  0
LINE
  8
0
  6
CONTINUOUS
 62
     7
 10
356.0987243652344
 20
54.00000381469727
 11
352.0987243652344
 21
50
  0
LINE
  8
0
  6
CONTINUOUS
 62
     7
 10
308.0988464355469
 20
50.00009536743164
 11
304.098876953125
 21
54.00011825561523
  0
LINE
  8
0
  6
CONTINUOUS
 62
     7
 10
308.0987548828125
 20
278.9676513671875
 11
352.0987548828125
 21
278.9676513671875
  0
LINE
  8
0
  6
CONTINUOUS
 62
     7
 10
308.0987548828125
 20
272.5982666015625
 11
352.0987548828125
 21
272.5982666015625
  0
LINE
  8
0
  6
CONTINUOUS
 62
     7
 10
308.0987548828125
 20
267.7501831054688
 11
352.0987548828125
 21
267.7501831054688
  0
LINE
  8
0
  6
CONTINUOUS
 62
     7
 10
308.0987548828125
 20
257.995849609375
 11
352.0987548828125
 21
257.995849609375
  0
LINE
  8
0
  6
CONTINUOUS
 62
     7
 10
308.0987548828125
 20
242.4411010742188
 11
352.0987548828125
 21
242.4411010742188
  0
LINE
  8
0
  6
CONTINUOUS
 62
     7
 10
308.0987548828125
 20
228.7846984863281
 11
352.0987548828125
 21
228.7846984863281
  0
LINE
  8
0
  6
CONTINUOUS
 62
     7
 10
308.0987548828125
 20
220.0394897460937
 11
352.0987548828125
 21
220.0394897460937
  0
LINE
  8
0
  6
CONTINUOUS
 62
     7
 10
308.0987548828125
 20
204.6640014648437
 11
352.0987548828125
 21
204.6640014648437
  0
LINE
  8
0
  6
CONTINUOUS
 62
     7
 10
308.0987548828125
 20
195.0504150390625
 11
352.0987548828125
 21
195.0504150390625
  0
LINE
  8
0
  6
CONTINUOUS
 62
     7
 10
308.0987548828125
 20
178.4994812011719
 11
352.0987548828125
 21
178.4994812011719
  0
LINE
  8
0
  6
CONTINUOUS
 62
     7
 10
308.0987548828125
 20
77.00216674804688
 11
352.0987548828125
 21
77.00216674804688
  0
LINE
  8
0
  6
CONTINUOUS
 62
     7
 10
308.0987548828125
 20
67.24929809570313
 11
352.0987548828125
 21
67.24929809570313
  0
LINE
  8
0
  6
CONTINUOUS
 62
     7
 10
308.0987548828125
 20
62.40115356445312
 11
352.0987548828125
 21
62.40115356445312
  0
LINE
  8
0
  6
CONTINUOUS
 62
     7
 10
308.0987548828125
 20
56.03225708007813
 11
352.0987548828125
 21
56.03225708007813
  0
LINE
  8
0
  6
CONTINUOUS
 62
     7
 10
356.0987548828125
 20
54.00001525878906
 11
356.0987548828125
 21
163.5
  0
LINE
  8
0
  6
CONTINUOUS
 62
     7
 10
-314.6584167480469
 20
-169.7459106445313
 11
-315.7042236328125
 21
-169.8604431152344
  0
LINE
  8
0
  6
CONTINUOUS
 62
     7
 10
379.0987548828125
 20
-134.9084625244141
 11
386.0987548828125
 21
-134.9084625244141
  0
LINE
  8
0
  6
CONTINUOUS
 62
     7
 10
456.0987548828125
 20
-112.5
 11
456.0987548828125
 21
-312.5
  0
LINE
  8
0
  6
CONTINUOUS
 62
     7
 10
441.0987548828125
 20
-112.5
 11
456.0987548828125
 21
-112.5
  0
LINE
  8
0
  6
CONTINUOUS
 62
     7
 10
441.0987548828125
 20
-312.5
 11
456.0987548828125
 21
-312.5
  0
LINE
  8
0
  6
CONTINUOUS
 62
     7
 10
441.0987548828125
 20
-112.5
 11
441.0987548828125
 21
-312.5
  0
LINE
  8
0
  6
CONTINUOUS
 62
     7
 10
431.0987548828125
 20
-160
 11
436.0987548828125
 21
-160
  0
LINE
  8
0
  6
CONTINUOUS
 62
     7
 10
396.0987548828125
 20
-265
 11
436.0987548828125
 21
-265
  0
LINE
  8
0
  6
CONTINUOUS
 62
     7
 10
374.0987548828125
 20
-102.7140426635742
 11
374.0987548828125
 21
-324.4885864257813
  0
LINE
  8
0
  6
CONTINUOUS
 62
     7
 10
379.0987548828125
 20
-295
 11
386.0987548828125
 21
-295
  0
LINE
  8
0
  6
CONTINUOUS
 62
     7
 10
391.0987548828125
 20
-139.9084625244141
 11
391.0987548828125
 21
-290
  0
LINE
  8
0
  6
CONTINUOUS
 62
     7
 10
390.6813049316406
 20
-292
 11
441.0987548828125
 21
-292
  0
LINE
  8
0
  6
CONTINUOUS
 62
     7
 10
426.0987548828125
 20
-133
 11
441.0987548828125
 21
-133
  0
LINE
  8
0
  6
CONTINUOUS
 62
     7
 10
391.0987548828125
 20
-217.5
 11
441.0987548828125
 21
-217.5
  0
LINE
  8
0
  6
CONTINUOUS
 62
     7
 10
391.0987548828125
 20
-207.5
 11
441.0987548828125
 21
-207.5
  0
LINE
  8
0
  6
CONTINUOUS
 62
     7
 10
396.4266357421875
 20
-170.2187347412109
 11
422.8448486328125
 21
-170.2187347412109
  0
LINE
  8
0
  6
CONTINUOUS
 62
     7
 10
361.0961608886719
 20
-95
 11
381.0987548828125
 21
-95
  0
LINE
  8
0
  6
CONTINUOUS
 62
     7
 10
361.0987548828125
 20
-95
 11
362.0416259765625
 21
-89.65270233154297
  0
LINE
  8
0
  6
CONTINUOUS
 62
     7
 10
371.5128479003906
 20
-86.54334259033203
 11
378.6003723144531
 21
-88.04334259033203
  0
LINE
  8
0
  6
CONTINUOUS
 62
     7
 10
371.0987548828125
 20
-50.3382568359375
 11
371.0987548828125
 21
-103.553825378418
  0
LINE
  8
0
  6
CONTINUOUS
 62
     7
 10
363.5971069335938
 20
-88.04334259033203
 11
370.6846313476562
 21
-86.54334259033203
  0
LINE
  8
0
  6
CONTINUOUS
 62
     7
 10
408.0987548828125
 20
-79.5035400390625
 11
408.0987548828125
 21
-101.452766418457
  0
LINE
  8
0
  6
CONTINUOUS
 62
     7
 10
380.1558532714844
 20
-89.65270233154297
 11
381.0987243652344
 21
-95
  0
LINE
  8
0
  6
CONTINUOUS
 62
     7
 10
361.8987426757812
 20
-95
 11
361.8987426757812
 21
-97.5
  0
LINE
  8
0
  6
CONTINUOUS
 62
     7
 10
364.01123046875
 20
-88
 11
378.1862487792969
 21
-88
  0
LINE
  8
0
  6
CONTINUOUS
 62
     7
 10
408.0987243652344
 20
-82.84999847412109
 11
408.0987243652344
 21
-91.84999847412109
  0
LINE
  8
0
  6
CONTINUOUS
 62
     7
 10
426.0987548828125
 20
-97.5
 11
426.0987548828125
 21
-165.2057647705078
  0
LINE
  8
0
  6
CONTINUOUS
 62
     7
 10
399.5911865234375
 20
-91.84999847412109
 11
399.7677307128906
 21
-97.5
  0
LINE
  8
0
  6
CONTINUOUS
 62
     7
 10
400.0276794433594
 20
-82.84999847412109
 11
400.0276794433594
 21
-91.84999847412109
  0
LINE
  8
0
  6
CONTINUOUS
 62
     7
 10
400.0276794433594
 20
-82.84999847412109
 11
408.0987243652344
 21
-91.84999847412109
  0
LINE
  8
0
  6
CONTINUOUS
 62
     7
 10
400.0276794433594
 20
-91.84999847412109
 11
408.0987243652344
 21
-82.84999847412109
  0
LINE
  8
0
  6
CONTINUOUS
 62
     7
 10
356.0987548828125
 20
-97.5
 11
426.0987548828125
 21
-97.5
  0
LINE
  8
0
  6
CONTINUOUS
 62
     7
 10
416.1697998046875
 20
-82.84999847412109
 11
408.0987243652344
 21
-91.84999847412109
  0
LINE
  8
0
  6
CONTINUOUS
 62
     7
 10
347.6156005859375
 20
-74
 11
393.8963623046875
 21
-74
  0
LINE
  8
0
  6
CONTINUOUS
 62
     7
 10
408.0987243652344
 20
-82.84999847412109
 11
416.1697998046875
 21
-91.84999847412109
  0
LINE
  8
0
  6
CONTINUOUS
 62
     7
 10
371.0987548828125
 20
-97.5
 11
368.5987548828125
 21
-95
  0
LINE
  8
0
  6
CONTINUOUS
 62
     7
 10
371.0987243652344
 20
-95
 11
373.5987243652344
 21
-97.5
  0
LINE
  8
0
  6
CONTINUOUS
 62
     7
 10
416.6062927246094
 20
-91.84999847412109
 11
399.5911865234375
 21
-91.84999847412109
  0
LINE
  8
0
  6
CONTINUOUS
 62
     7
 10
416.1697998046875
 20
-82.84999847412109
 11
416.1697998046875
 21
-91.84999847412109
  0
LINE
  8
0
  6
CONTINUOUS
 62
     7
 10
416.1697998046875
 20
-82.84999847412109
 11
400.0276794433594
 21
-82.84999847412109
  0
LINE
  8
0
  6
CONTINUOUS
 62
     7
 10
416.6062927246094
 20
-91.84999847412109
 11
416.4297485351563
 21
-97.5
  0
LINE
  8
0
  6
CONTINUOUS
 62
     7
 10
380.2987365722656
 20
-95
 11
380.2987365722656
 21
-97.5
  0
LINE
  8
0
  6
CONTINUOUS
 62
     3
 10
396.6016845703125
 20
167.5
 11
418.9149169921875
 21
167.5
  0
LINE
  8
0
  6
CONTINUOUS
 62
     7
 10
408.0987548828125
 20
159.0147399902344
 11
416.5840454101563
 21
167.5000152587891
  0
LINE
  8
0
  6
CONTINUOUS
 62
     7
 10
374.0987243652344
 20
142.5
 11
426.0987243652344
 21
147.0500030517578
  0
LINE
  8
0
  6
CONTINUOUS
 62
     7
 10
408.0987548828125
 20
175.9853057861328
 11
416.5840454101563
 21
167.5000152587891
  0
LINE
  8
0
  6
CONTINUOUS
 62
     7
 10
399.6134643554688
 20
167.5000152587891
 11
408.0987548828125
 21
175.9853057861328
  0
LINE
  8
0
  6
CONTINUOUS
 62
     7
 10
374.0987243652344
 20
192.5
 11
426.0987243652344
 21
187.9499969482422
  0
LINE
  8
0
  6
CONTINUOUS
 62
     7
 10
399.6134643554688
 20
167.5000152587891
 11
408.0987548828125
 21
159.0147399902344
  0
LINE
  8
0
  6
CONTINUOUS
 62
     7
 10
391.0987548828125
 20
143.9875030517578
 11
391.0987548828125
 21
90
  0
LINE
  8
0
  6
CONTINUOUS
 62
     7
 10
456.0987548828125
 20
267.5
 11
456.0987548828125
 21
67.5
  0
LINE
  8
0
  6
CONTINUOUS
 62
     7
 10
441.0987548828125
 20
267.5
 11
456.0987548828125
 21
267.5
  0
LINE
  8
0
  6
CONTINUOUS
 62
     7
 10
441.0987548828125
 20
67.5
 11
456.0987548828125
 21
67.5
  0
LINE
  8
0
  6
CONTINUOUS
 62
     7
 10
441.0987548828125
 20
267.5
 11
441.0987548828125
 21
67.5
  0
LINE
  8
0
  6
CONTINUOUS
 62
     7
 10
396.0987548828125
 20
220
 11
436.0987548828125
 21
220
  0
LINE
  8
0
  6
CONTINUOUS
 62
     7
 10
396.0987548828125
 20
115
 11
436.0987548828125
 21
115
  0
LINE
  8
0
  6
CONTINUOUS
 62
     7
 10
374.0987548828125
 20
282.5
 11
374.0987548828125
 21
192.5
  0
LINE
  8
0
  6
CONTINUOUS
 62
     7
 10
356.0987548828125
 20
52.5
 11
374.0987548828125
 21
52.5
  0
LINE
  8
0
  6
CONTINUOUS
 62
     7
 10
379.0987548828125
 20
85
 11
386.0987548828125
 21
85
  0
LINE
  8
0
  6
CONTINUOUS
 62
     7
 10
391.0987548828125
 20
245
 11
391.0987548828125
 21
191.0124969482422
  0
LINE
  8
0
  6
CONTINUOUS
 62
     7
 10
390.6813049316406
 20
88
 11
441.0987548828125
 21
88
  0
LINE
  8
0
  6
CONTINUOUS
 62
     7
 10
390.6813049316406
 20
247
 11
441.0987548828125
 21
247
  0
LINE
  8
0
  6
CONTINUOUS
 62
     7
 10
426.0987548828125
 20
162.5
 11
441.0987548828125
 21
162.5
  0
LINE
  8
0
  6
CONTINUOUS
 62
     7
 10
426.0987548828125
 20
172.5
 11
441.0987548828125
 21
172.5
  0
LINE
  8
0
  6
CONTINUOUS
 62
     7
 10
379.0987548828125
 20
250
 11
386.0987548828125
 21
250
  0
LINE
  8
0
  6
CONTINUOUS
 62
     7
 10
356.0987548828125
 20
282.5
 11
374.0987548828125
 21
282.5
  0
LINE
  8
0
  6
CONTINUOUS
 62
     7
 10
354.5987548828125
 20
163.5
 11
387.5987548828125
 21
163.5
  0
LINE
  8
0
  6
CONTINUOUS
 62
     7
 10
354.5987548828125
 20
171.5
 11
387.5987548828125
 21
171.5
  0
LINE
  8
0
  6
CONTINUOUS
 62
     7
 10
374.0987548828125
 20
142.5
 11
374.0987548828125
 21
52.5
  0
LINE
  8
0
  6
CONTINUOUS
 62
     7
 10
408.0987548828125
 20
179.7029876708984
 11
408.0987548828125
 21
155.5616912841797
  0
LINE
  8
0
  6
CONTINUOUS
 62
     7
 10
426.0987548828125
 20
187.9499969482422
 11
426.0987548828125
 21
147.0500030517578
  0
LINE
  8
0
  6
CONTINUOUS
 62
     7
 10
356.0987548828125
 20
171.5
 11
356.0987548828125
 21
282.5
  0
LINE
  8
0
  6
CONTINUOUS
 62
     7
 10
-215.9723205566406
 20
-82.84999847412109
 11
-212.0071105957031
 21
-87.27158355712891
  0
LINE
  8
0
  6
CONTINUOUS
 62
     7
 10
-215.9723663330078
 20
-82.85001373291016
 11
-215.9723663330078
 21
-88.04136657714844
  0
LINE
  8
0
  6
CONTINUOUS
 62
     7
 10
-199.8302154541016
 20
-82.85001373291016
 11
-199.8302154541016
 21
-88.04135131835938
  0
LINE
  8
0
  6
CONTINUOUS
 62
     7
 10
-199.8302154541016
 20
-82.85002136230469
 11
-203.9012603759766
 21
-82.85002136230469
  0
LINE
  8
0
  6
CONTINUOUS
 62
     7
 10
-199.8302612304687
 20
-82.84998321533203
 11
-203.7954864501953
 21
-87.27157592773438
  0
LINE
  8
0
  6
CONTINUOUS
 62
     7
 10
-198.9607238769531
 20
-88.99163055419922
 11
-197.9012908935547
 21
-94.99995422363281
  0
LINE
  8
0
  6
CONTINUOUS
 62
     7
 10
-203.9012451171875
 20
-87.25112915039063
 11
-199.9147033691406
 21
-88.02184295654297
  0
LINE
  8
0
  6
CONTINUOUS
 62
     7
 10
-203.9012603759766
 20
-57.5
 11
-203.9012603759766
 21
-92.5999755859375
  0
LINE
  8
0
  6
CONTINUOUS
 62
     7
 10
-216.8418121337891
 20
-88.99165344238281
 11
-217.9012298583984
 21
-94.99997711181641
  0
LINE
  8
0
  6
CONTINUOUS
 62
     7
 10
-211.9012908935547
 20
-87.25112152099609
 11
-215.8878326416016
 21
-88.02183532714844
  0
LINE
  8
0
  6
CONTINUOUS
 62
     7
 10
-211.9012603759766
 20
-57.5
 11
-211.9012603759766
 21
-92.5999755859375
  0
LINE
  8
0
  6
CONTINUOUS
 62
     7
 10
-217.9012603759766
 20
-95
 11
-197.9012603759766
 21
-95
  0
LINE
  8
0
  6
CONTINUOUS
 62
     7
 10
-217.1012725830078
 20
-95
 11
-217.1012725830078
 21
-95.36072540283203
  0
LINE
  8
0
  6
CONTINUOUS
 62
     7
 10
-198.7012481689453
 20
-95
 11
-198.7012481689453
 21
-95.36072540283203
  0
LINE
  8
0
  6
CONTINUOUS
 62
     7
 10
-211.9012603759766
 20
-82.85002136230469
 11
-215.9723663330078
 21
-82.85002136230469
  0
ARC
  8
0
  6
CONTINUOUS
 62
     7
 10
262.0987548828125
 20
-287.5
 40
4.999999999999981
 50
179.9999776881996
 51
270.0000280040023
  0
ARC
  8
0
  6
CONTINUOUS
 62
     7
 10
252.0987396240234
 20
-252.943603515625
 40
5
 50
0
 51
89.99998201391064
  0
ARC
  8
0
  6
CONTINUOUS
 62
     7
 10
281.0987548828125
 20
-118.9973754882812
 40
5.000000000000006
 50
273.0000897865582
 51
0
  0
ARC
  8
0
  6
CONTINUOUS
 62
     7
 10
247.1888275146484
 20
-268.1014709472656
 40
5.00000000000001
 50
355.0000479567779
 51
89.99998201391064
  0
ARC
  8
0
  6
CONTINUOUS
 62
     7
 10
242.5170745849609
 20
-321.5
 40
5.000000000000004
 50
269.9999974955218
 51
354.9999967303589
  0
CIRCLE
  8
0
  6
CONTINUOUS
 62
     3
 10
272.0987548828125
 20
-212.5
 40
6.735937595367432
  0
CIRCLE
  8
0
  6
CONTINUOUS
 62
     3
 10
272.0987548828125
 20
-277.5
 40
6.735937595367432
  0
ARC
  8
0
  6
CONTINUOUS
 62
     7
 10
385.7929077148437
 20
-291.5
 40
35
 50
219.0000063216013
 51
269.9999974955218
  0
ARC
  8
0
  6
CONTINUOUS
 62
     7
 10
281.0987548828125
 20
-321.5
 40
5.000000000000004
 50
269.9999974955215
 51
0
  0
ARC
  8
0
  6
CONTINUOUS
 62
     7
 10
-207.9012603759766
 20
-212.5
 40
27.50000000000001
 50
106.9124114932652
 51
73.08759670341468
  0
ARC
  8
0
  6
CONTINUOUS
 62
     7
 10
-207.9012603759766
 20
-212.5
 40
115
 50
10.25839430313097
 51
169.7416072907308
  0
ARC
  8
0
  6
CONTINUOUS
 62
     7
 10
-138.4012603759766
 20
-352.5
 40
3
 50
0
 51
89.99998201391043
  0
ARC
  8
0
  6
CONTINUOUS
 62
     7
 10
-277.4012451171875
 20
-352.5
 40
2.999999999999977
 50
89.99998201391097
 51
179.9999640278208
  0
ARC
  8
0
  6
CONTINUOUS
 62
     7
 10
-264.3198852539063
 20
-285.802001953125
 40
5.000000000000012
 50
52.41528833221718
 51
164.9998714028546
  0
ARC
  8
0
  6
CONTINUOUS
 62
     7
 10
-283.3648071289062
 20
-265.9930114746094
 40
5.000000000000021
 50
345.00003544108
 51
35.33142793488466
  0
ARC
  8
0
  6
CONTINUOUS
 62
     7
 10
-151.4826202392578
 20
-285.802001953125
 40
5.000000000000004
 50
15.00014555893284
 51
127.5847235069282
  0
ARC
  8
0
  6
CONTINUOUS
 62
     7
 10
-132.4376983642578
 20
-265.9929809570312
 40
5.000000000000002
 50
144.6687341684228
 51
194.9999337093829
  0
ARC
  8
0
  6
CONTINUOUS
 62
     7
 10
-298.2378540039062
 20
-321.5
 40
5.000000000000019
 50
270.0000179860891
 51
344.9999381108843
  0
ARC
  8
0
  6
CONTINUOUS
 62
     7
 10
-117.5646514892578
 20
-321.5
 40
5.000000000000002
 50
194.9999510122271
 51
270.0000179860893
  0
ARC
  8
0
  6
CONTINUOUS
 62
     3
 10
-207.9012603759766
 20
-212.5
 40
105
 50
332.034924254785
 51
342.9649617948546
  0
ARC
  8
0
  6
CONTINUOUS
 62
     3
 10
-207.9012603759766
 20
-212.5
 40
105
 50
62.03496091020903
 51
72.96500528046778
  0
ARC
  8
0
  6
CONTINUOUS
 62
     3
 10
-207.9012603759766
 20
-212.5
 40
105
 50
107.0349587473535
 51
117.9650031176123
  0
ARC
  8
0
  6
CONTINUOUS
 62
     3
 10
-207.9012603759766
 20
-212.5
 40
105
 50
152.0349839052547
 51
162.9650214453243
  0
ARC
  8
0
  6
CONTINUOUS
 62
     3
 10
-207.9012603759766
 20
-212.5
 40
105
 50
197.034992215054
 51
207.9650297551236
  0
ARC
  8
0
  6
CONTINUOUS
 62
     3
 10
-207.9012603759766
 20
-212.5
 40
105
 50
17.03496478061182
 51
27.96500744332328
  0
ARC
  8
0
  6
CONTINUOUS
 62
     3
 10
-207.9012603759766
 20
-212.5
 40
105
 50
287.0349264176405
 51
297.9649639577101
  0
ARC
  8
0
  6
CONTINUOUS
 62
     3
 10
-207.9012603759766
 20
-212.5
 40
105
 50
242.034928580496
 51
252.9649661205656
  0
CIRCLE
  8
0
  6
CONTINUOUS
 62
     7
 10
-207.9012603759766
 20
-212.5
 40
87.5
  0
ARC
  8
0
  6
CONTINUOUS
 62
     7
 10
-272.8531494140625
 20
-175
 40
12.99999999999997
 50
225.5410599236691
 51
74.45884961421953
  0
ARC
  8
0
  6
CONTINUOUS
 62
     3
 10
-207.9012603759766
 20
-212.5
 40
75
 50
142.3549119644325
 51
157.6451100442064
  0
ARC
  8
0
  6
CONTINUOUS
 62
     7
 10
-207.9012603759766
 20
-137.5
 40
13
 50
165.5410136304163
 51
14.45902871720937
  0
ARC
  8
0
  6
CONTINUOUS
 62
     3
 10
-207.9012603759766
 20
-212.5
 40
74.99999999999999
 50
82.35491029478037
 51
97.64511520474348
  0
ARC
  8
0
  6
CONTINUOUS
 62
     7
 10
-142.9493560791016
 20
-175
 40
12.99999999999999
 50
105.541169055115
 51
314.4589041041522
  0
ARC
  8
0
  6
CONTINUOUS
 62
     3
 10
-207.9012603759766
 20
-212.5
 40
75
 50
22.35490179493908
 51
37.64509987471302
  0
ARC
  8
0
  6
CONTINUOUS
 62
     7
 10
-142.9493560791016
 20
-250
 40
12.99999999999999
 50
45.54107517790917
 51
254.4588341326084
  0
ARC
  8
0
  6
CONTINUOUS
 62
     3
 10
-207.9012603759766
 20
-212.5
 40
75
 50
322.3549069554762
 51
337.6451050352501
  0
ARC
  8
0
  6
CONTINUOUS
 62
     7
 10
-207.9012603759766
 20
-287.5
 40
12.99999999999999
 50
345.5409778856087
 51
194.458982727118
  0
ARC
  8
0
  6
CONTINUOUS
 62
     3
 10
-207.9012603759766
 20
-212.5
 40
75
 50
262.3549121160132
 51
277.6451101957871
  0
CIRCLE
  8
0
  6
CONTINUOUS
 62
     7
 10
-207.9012603759766
 20
-212.5
 40
55
  0
ARC
  8
0
  6
CONTINUOUS
 62
     7
 10
-272.8531494140625
 20
-250
 40
13.00000000000002
 50
285.5411367254021
 51
134.4589400763308
  0
ARC
  8
0
  6
CONTINUOUS
 62
     3
 10
-207.9012603759766
 20
-212.5
 40
75.00000000000001
 50
202.3549172765503
 51
217.6451153563242
  0
ARC
  8
0
  6
CONTINUOUS
 62
     7
 10
-207.9012603759766
 20
-212.5
 40
117.5
 50
13.561172403652
 51
18.43890333431877
  0
ARC
  8
0
  6
CONTINUOUS
 62
     7
 10
-207.9012603759766
 20
-212.5
 40
117.5
 50
39.62837165872587
 51
95.37174138101808
  0
ARC
  8
0
  6
CONTINUOUS
 62
     7
 10
-207.9012603759766
 20
-212.5
 40
117.5
 50
358.4180522023705
 51
5.371741437860853
  0
ARC
  8
0
  6
CONTINUOUS
 62
     7
 10
-207.9012603759766
 20
-212.5
 40
117.5
 50
148.5611496933862
 51
153.4388609872591
  0
ARC
  8
0
  6
CONTINUOUS
 62
     7
 10
-207.9012603759766
 20
-212.5
 40
117.5
 50
161.5611580236982
 51
166.4388693175711
  0
ARC
  8
0
  6
CONTINUOUS
 62
     7
 10
-207.9012603759766
 20
-212.5
 40
117.5
 50
174.6282661324164
 51
181.5817265565695
  0
ARC
  8
0
  6
CONTINUOUS
 62
     7
 10
-207.9012603759766
 20
-212.5
 40
117.5
 50
103.5611586864309
 51
108.4388699803038
  0
ARC
  8
0
  6
CONTINUOUS
 62
     7
 10
-207.9012603759766
 20
-212.5
 40
117.5
 50
116.5611670167429
 51
121.4388783106158
  0
ARC
  8
0
  6
CONTINUOUS
 62
     7
 10
-207.9012603759766
 20
-212.5
 40
117.5
 50
129.6282751254611
 51
140.3717528785409
  0
ARC
  8
0
  6
CONTINUOUS
 62
     7
 10
-207.9012603759766
 20
-212.5
 40
117.5
 50
26.56108425754197
 51
31.43879725896217
  0
ARC
  8
0
  6
CONTINUOUS
 62
     7
 10
281.0987548828125
 20
261.0026245117188
 40
4.999999999999978
 50
273.0000897865582
 51
0
  0
ARC
  8
0
  6
CONTINUOUS
 62
     7
 10
281.0987548828125
 20
73.99737548828125
 40
5
 50
359.9999453584866
 51
86.99985557192848
  0
ARC
  8
0
  6
CONTINUOUS
 62
     7
 10
237.0987396240234
 20
295
 40
9.99999999999998
 50
89.99998201391064
 51
179.9999640278213
  0
ARC
  8
0
  6
CONTINUOUS
 62
     7
 10
417.0987548828125
 20
295
 40
10
 50
0
 51
89.99998201391064
  0
ARC
  8
0
  6
CONTINUOUS
 62
     7
 10
237.0987396240234
 20
40
 40
9.999999999999991
 50
179.9999776881997
 51
270.0000280040019
  0
ARC
  8
0
  6
CONTINUOUS
 62
     7
 10
417.0987548828125
 20
40
 40
9.999999999999998
 50
270.0000179860893
 51
0
  0
ARC
  8
0
  6
CONTINUOUS
 62
     7
 10
237.0987396240234
 20
85
 40
10.00000000000001
 50
166.349516782849
 51
179.9999640278213
  0
ARC
  8
0
  6
CONTINUOUS
 62
     7
 10
237.0987396240234
 20
250
 40
9.999999999999991
 50
179.9999776881996
 51
193.6504795746854
  0
ARC
  8
0
  6
CONTINUOUS
 62
     7
 10
199.0987396240234
 20
167.5
 40
7.999999999999996
 50
270.0000179860892
 51
89.99998201391055
  0
CIRCLE
  8
0
  6
CONTINUOUS
 62
     7
 10
252.0987396240234
 20
279.9999389648438
 40
9.5
  0
CIRCLE
  8
0
  6
CONTINUOUS
 62
     7
 10
402.0987548828125
 20
279.9999389648438
 40
9.5
  0
CIRCLE
  8
0
  6
CONTINUOUS
 62
     7
 10
402.0987548828125
 20
54.99993896484375
 40
9.5
  0
CIRCLE
  8
0
  6
CONTINUOUS
 62
     7
 10
252.0987396240234
 20
54.99993896484375
 40
9.5
  0
ARC
  8
0
  6
CONTINUOUS
 62
     7
 10
417.0987548828125
 20
71.8919677734375
 40
10
 50
0
 51
78.07068779826812
  0
ARC
  8
0
  6
CONTINUOUS
 62
     7
 10
417.0987548828125
 20
263.1080322265625
 40
10.00000000000001
 50
281.9293122017319
 51
0
  0
ARC
  8
0
  6
CONTINUOUS
 62
     7
 10
386.0987548828125
 20
-139.9084625244141
 40
5
 50
0
 51
90.00000250447847
  0
ARC
  8
0
  6
CONTINUOUS
 62
     7
 10
431.0987548828125
 20
-155
 40
5.00000000000002
 50
180.0000050089563
 51
270.0000006832456
  0
ARC
  8
0
  6
CONTINUOUS
 62
     7
 10
436.0987548828125
 20
-270
 40
5
 50
0
 51
90.00000250447847
  0
ARC
  8
0
  6
CONTINUOUS
 62
     7
 10
436.0987548828125
 20
-155
 40
5.000000000000004
 50
269.9999974955215
 51
0
  0
ARC
  8
0
  6
CONTINUOUS
 62
     7
 10
379.0987548828125
 20
-300
 40
5.000000000000004
 50
90.00000250447847
 51
180.0000050089563
  0
ARC
  8
0
  6
CONTINUOUS
 62
     7
 10
396.0987548828125
 20
-270
 40
5.000000000000004
 50
90.00000250447847
 51
180.0000050089563
  0
ARC
  8
0
  6
CONTINUOUS
 62
     7
 10
379.0987548828125
 20
-129.9084625244141
 40
5.00000000000002
 50
180.0000050089563
 51
270.0000006832456
  0
ARC
  8
0
  6
CONTINUOUS
 62
     7
 10
386.0987548828125
 20
-290
 40
5.000000000000004
 50
269.9999974955215
 51
0
  0
ARC
  8
0
  6
CONTINUOUS
 62
     7
 10
385.0132446289063
 20
-94.16522216796875
 40
4.000000000000016
 50
124.6066790665329
 51
192.0457812707042
  0
ARC
  8
0
  6
CONTINUOUS
 62
     7
 10
357.1842346191406
 20
-94.16522216796875
 40
3.999999999999983
 50
347.9541887335325
 51
55.39334301789688
  0
CIRCLE
  8
0
  6
CONTINUOUS
 62
     7
 10
371.0987548828125
 20
-74
 40
12.5
  0
ARC
  8
0
  6
CONTINUOUS
 62
     7
 10
378.1862487792969
 20
-90
 40
2.000000000000012
 50
9.999999709092924
 51
89.99998201391097
  0
ARC
  8
0
  6
CONTINUOUS
 62
     7
 10
364.01123046875
 20
-90
 40
1.999999999999999
 50
89.99998201391097
 51
170.000020667789
  0
ARC
  8
0
  6
CONTINUOUS
 62
     7
 10
371.0987548828125
 20
-74
 40
20.5
 50
304.6066501519143
 51
235.3933172910016
  0
ARC
  8
0
  6
CONTINUOUS
 62
     7
 10
371.0987548828125
 20
167.5
 40
10.00000000000001
 50
203.5781631757645
 51
336.4218232775427
  0
ARC
  8
0
  6
CONTINUOUS
 62
     7
 10
387.5987548828125
 20
167.5
 40
3.999999999999998
 50
270.0000179860891
 51
89.99998201391097
  0
ARC
  8
0
  6
CONTINUOUS
 62
     7
 10
354.5987548828125
 20
167.5
 40
3.999999999999998
 50
89.99998201391097
 51
270.0000006832454
  0
ARC
  8
0
  6
CONTINUOUS
 62
     7
 10
371.0987548828125
 20
167.5
 40
9.999999999999982
 50
23.57817672245732
 51
156.4218368242355
  0
ARC
  8
0
  6
CONTINUOUS
 62
     7
 10
379.0987548828125
 20
255
 40
5
 50
179.999991348578
 51
270.0000006832456
  0
ARC
  8
0
  6
CONTINUOUS
 62
     7
 10
436.0987548828125
 20
110
 40
5
 50
0
 51
90.00000250447847
  0
ARC
  8
0
  6
CONTINUOUS
 62
     7
 10
436.0987548828125
 20
225
 40
5.000000000000004
 50
269.9999974955215
 51
0
  0
ARC
  8
0
  6
CONTINUOUS
 62
     7
 10
379.0987548828125
 20
80
 40
5.000000000000004
 50
90.00000250447847
 51
180.0000050089563
  0
ARC
  8
0
  6
CONTINUOUS
 62
     7
 10
396.0987548828125
 20
110
 40
5.000000000000004
 50
90.00000250447847
 51
180.0000050089563
  0
ARC
  8
0
  6
CONTINUOUS
 62
     7
 10
396.0987548828125
 20
225
 40
5
 50
179.999991348578
 51
270.0000006832456
  0
ARC
  8
0
  6
CONTINUOUS
 62
     7
 10
386.0987548828125
 20
245
 40
5
 50
0
 51
90.00000250447847
  0
ARC
  8
0
  6
CONTINUOUS
 62
     7
 10
386.0987548828125
 20
90
 40
5.000000000000004
 50
269.9999974955215
 51
0
  0
ARC
  8
0
  6
CONTINUOUS
 62
     7
 10
386.0987548828125
 20
245
 40
5
 50
0
 51
90.00000250447847
  0
CIRCLE
  8
0
  6
CONTINUOUS
 62
     3
 10
408.0987548828125
 20
167.5
 40
8.5
  0
ARC
  8
0
  6
CONTINUOUS
 62
     7
 10
-200.1424713134766
 20
-89.20001220703125
 40
1.20000004768372
 50
10.00000056286621
 51
79.05805311449561
  0
ARC
  8
0
  6
CONTINUOUS
 62
     7
 10
-207.9012603759766
 20
-57.5
 40
4
 50
0
 51
179.9999640278213
  0
ARC
  8
0
  6
CONTINUOUS
 62
     7
 10
-202.7012481689453
 20
-92.5999755859375
 40
1.200000047683722
 50
179.9999776881998
 51
270.0000280040015
  0
ARC
  8
0
  6
CONTINUOUS
 62
     7
 10
-213.1012725830078
 20
-92.5999755859375
 40
1.20000004768372
 50
269.9999633445766
 51
0
  0
ARC
  8
0
  6
CONTINUOUS
 62
     7
 10
-215.6600494384766
 20
-89.20001220703125
 40
1.200000047683715
 50
100.941910913325
 51
169.9999660262758
  0
TEXT
  8
0
  6
CONTINUOUS
 62
     7
 10
-295.3298301696777
 20
158.5
 40
18
 41
0.8444757469838271
  1
ＥＲＫ－Ｄ－１５００
  0
ENDSEC
  0
EOF
