  0
SECTION
  2
HEADER
  0
ENDSEC
  0
SECTION
  2
TABLES
  0
TABLE
  2
LTYPE
 70
    22
  0
LTYPE
  2
CONTINUOUS
 70
    64
  3
Solid line
 72
    65
 73
     0
 40
0.000000
  0
LTYPE
  2
DASHED
 70
    64
  3
__ __ __ __ __ __ __ __ __ __ __ __ __ __ __
 72
    65
 73
     2
 40
3.500000
 49
2.000000
 49
-1.500000
  0
LTYPE
  2
CENTER
 70
    64
  3
____ _ ____ _ ____ _ ____ _ ____ _ ____ _ ____
 72
    65
 73
     4
 40
17.500000
 49
13.000000
 49
-1.500000
 49
1.500000
 49
-1.500000
  0
LTYPE
  2
PHANTOM
 70
    64
  3
_____ _ _ _____ _ _ _____ _ _ _____ _ _ ____  
 72
    65
 73
     6
 40
15.500000
 49
8.000000
 49
-1.500000
 49
1.500000
 49
-1.500000
 49
1.500000
 49
-1.500000
  0
LTYPE
  2
DOT
 70
    64
  3
. . . . . . . . . . . . . . . . . . . . . . . .
 72
    65
 73
     2
 40
0.25
 49
0.0
 49
-0.25
  0
ENDTAB
  0
TABLE
  2
LAYER
 70
     1
  0
LAYER
  2
0
 70
     0
 62
     7
  6
CONTINUOUS
  0
ENDTAB
  0
TABLE
  2
STYLE
 70
     1
  0
STYLE
  2
STANDARD
 70
     0
 40
0.000000
 41
1.000000
 50
0.000000
 71
     0
 42
0.200000
  3
txt
  4
BIGFONT
  0
ENDTAB
  0
TABLE
  2
VIEW
 70
     0
  0
ENDTAB
  0
ENDSEC
  0
SECTION
  2
BLOCKS
  0
ENDSEC
  0
SECTION
  2
ENTITIES
  0
LINE
  8
0
  6
CONTINUOUS
 62
     3
 10
32.79874038696289
 20
-132.5
 11
317.8227844238281
 21
-132.5
  0
LINE
  8
0
  6
CONTINUOUS
 62
     7
 10
190.7987365722656
 20
-37.5
 11
232.7987365722656
 21
-37.5
  0
LINE
  8
0
  6
CONTINUOUS
 62
     7
 10
190.7987976074219
 20
-37.50006866455078
 11
186.7988128662109
 21
-41.50005340576172
  0
LINE
  8
0
  6
CONTINUOUS
 62
     7
 10
236.7987213134766
 20
-41.49997711181641
 11
232.7987213134766
 21
-37.49997329711914
  0
LINE
  8
0
  6
CONTINUOUS
 62
     7
 10
190.7987365722656
 20
-94.84613037109375
 11
232.7987365722656
 21
-94.84613037109375
  0
LINE
  8
0
  6
CONTINUOUS
 62
     7
 10
190.7987365722656
 20
-106.2876892089844
 11
232.7987365722656
 21
-106.2876892089844
  0
LINE
  8
0
  6
CONTINUOUS
 62
     7
 10
190.7987365722656
 20
-116.0312194824219
 11
232.7987365722656
 21
-116.0312194824219
  0
LINE
  8
0
  6
CONTINUOUS
 62
     7
 10
190.7987365722656
 20
-127.5005187988281
 11
232.7987365722656
 21
-127.5005187988281
  0
LINE
  8
0
  6
CONTINUOUS
 62
     7
 10
190.7987365722656
 20
-137.5001220703125
 11
232.7987365722656
 21
-137.5001220703125
  0
LINE
  8
0
  6
CONTINUOUS
 62
     7
 10
190.7987365722656
 20
-148.9694519042969
 11
232.7987365722656
 21
-148.9694519042969
  0
LINE
  8
0
  6
CONTINUOUS
 62
     7
 10
190.7987365722656
 20
-158.7124633789062
 11
232.7987365722656
 21
-158.7124633789062
  0
LINE
  8
0
  6
CONTINUOUS
 62
     7
 10
194.3576965332031
 20
-170.1537170410156
 11
232.7987365722656
 21
-170.1537170410156
  0
LINE
  8
0
  6
CONTINUOUS
 62
     7
 10
210.3450622558594
 20
-189.2067260742188
 11
232.7987365722656
 21
-189.2067260742188
  0
LINE
  8
0
  6
CONTINUOUS
 62
     7
 10
218.1194152832031
 20
-198.4718017578125
 11
232.7987365722656
 21
-198.4718017578125
  0
LINE
  8
0
  6
CONTINUOUS
 62
     7
 10
223.8432312011719
 20
-205.2931823730469
 11
232.7987365722656
 21
-205.2931823730469
  0
LINE
  8
0
  6
CONTINUOUS
 62
     7
 10
229.6038818359375
 20
-212.1584777832031
 11
232.7987365722656
 21
-212.1584777832031
  0
LINE
  8
0
  6
CONTINUOUS
 62
     7
 10
105.7987365722656
 20
-70
 11
127.7987365722656
 21
-70
  0
LINE
  8
0
  6
CONTINUOUS
 62
     7
 10
105.7987365722656
 20
-195
 11
127.7987365722656
 21
-195
  0
LINE
  8
0
  6
CONTINUOUS
 62
     7
 10
186.7987365722656
 20
-40
 11
186.7987365722656
 21
-161.1453247070313
  0
LINE
  8
0
  6
CONTINUOUS
 62
     7
 10
117.7987365722656
 20
-225.5
 11
117.7987365722656
 21
-247.5
  0
LINE
  8
0
  6
CONTINUOUS
 62
     7
 10
117.7987365722656
 20
-247.5
 11
287.7987365722656
 21
-247.5
  0
LINE
  8
0
  6
CONTINUOUS
 62
     7
 10
287.7987365722656
 20
-225.5
 11
287.7987365722656
 21
-247.5
  0
LINE
  8
0
  6
CONTINUOUS
 62
     7
 10
117.7987365722656
 20
-225.5
 11
156.7987365722656
 21
-225.5
  0
LINE
  8
0
  6
CONTINUOUS
 62
     7
 10
105.7987365722656
 20
-70
 11
105.7987365722656
 21
-79.80374145507813
  0
LINE
  8
0
  6
CONTINUOUS
 62
     7
 10
171.7987365722656
 20
-40
 11
171.7987365722656
 21
-117.8508911132812
  0
LINE
  8
0
  6
CONTINUOUS
 62
     7
 10
127.7987594604492
 20
-194.9999084472656
 11
130.4549713134766
 21
-195.1391143798828
  0
LINE
  8
0
  6
CONTINUOUS
 62
     7
 10
171.7987365722656
 20
-40
 11
186.7987365722656
 21
-40
  0
LINE
  8
0
  6
CONTINUOUS
 62
     7
 10
161.7987365722656
 20
-130.5
 11
161.7987365722656
 21
-220.5
  0
LINE
  8
0
  6
CONTINUOUS
 62
     7
 10
186.7987060546875
 20
-161.1452484130859
 11
231.8066253662109
 21
-214.7835998535156
  0
LINE
  8
0
  6
CONTINUOUS
 62
     7
 10
128.1980590820313
 20
-220.9358062744141
 11
132.4069366455078
 21
-172.828125
  0
LINE
  8
0
  6
CONTINUOUS
 62
     7
 10
102.7987365722656
 20
-85.00003051757812
 11
102.7987365722656
 21
-180
  0
LINE
  8
0
  6
CONTINUOUS
 62
     7
 10
102.7986297607422
 20
-85.00003051757812
 11
105.7986145019531
 21
-79.80390167236328
  0
LINE
  8
0
  6
CONTINUOUS
 62
     7
 10
102.7986679077148
 20
-179.9999542236328
 11
105.7986373901367
 21
-185.1960601806641
  0
LINE
  8
0
  6
CONTINUOUS
 62
     3
 10
137.7987365722656
 20
-217.633544921875
 11
137.7987365722656
 21
-254.395751953125
  0
LINE
  8
0
  6
CONTINUOUS
 62
     7
 10
87.79873657226563
 20
-110.5
 11
87.79873657226563
 21
-113.5
  0
LINE
  8
0
  6
CONTINUOUS
 62
     7
 10
42.79874038696289
 20
-110.5
 11
42.79874038696289
 21
-151.5
  0
LINE
  8
0
  6
CONTINUOUS
 62
     7
 10
42.79874038696289
 20
-113.5
 11
97.79873657226563
 21
-113.5
  0
LINE
  8
0
  6
CONTINUOUS
 62
     7
 10
42.79874038696289
 20
-151.5
 11
97.79873657226563
 21
-151.5
  0
LINE
  8
0
  6
CONTINUOUS
 62
     7
 10
97.79873657226563
 20
-110
 11
97.79873657226563
 21
-155
  0
LINE
  8
0
  6
CONTINUOUS
 62
     7
 10
97.79873657226563
 20
-110
 11
102.7987365722656
 21
-110
  0
LINE
  8
0
  6
CONTINUOUS
 62
     7
 10
97.79873657226563
 20
-155
 11
102.7987365722656
 21
-155
  0
LINE
  8
0
  6
CONTINUOUS
 62
     7
 10
42.79874038696289
 20
-110.5
 11
87.79873657226563
 21
-110.5
  0
LINE
  8
0
  6
DASHED
 62
     7
 10
145.2987365722656
 20
-225.5
 11
145.2987365722656
 21
-247.5
  0
LINE
  8
0
  6
DASHED
 62
     7
 10
130.2987365722656
 20
-225.5
 11
130.2987365722656
 21
-247.5
  0
LINE
  8
0
  6
DASHED
 62
     7
 10
275.2987365722656
 20
-225.5
 11
275.2987365722656
 21
-247.5
  0
LINE
  8
0
  6
DASHED
 62
     7
 10
260.2987365722656
 20
-225.5
 11
260.2987365722656
 21
-247.5
  0
LINE
  8
0
  6
CONTINUOUS
 62
     7
 10
127.7987213134766
 20
-69.99996185302734
 11
167.0603942871094
 21
-67.94234466552734
  0
LINE
  8
0
  6
CONTINUOUS
 62
     7
 10
254.7879638671875
 20
-225.5
 11
287.7987365722656
 21
-225.5
  0
LINE
  8
0
  6
CONTINUOUS
 62
     7
 10
105.7987365722656
 20
-185.1961975097656
 11
105.7987365722656
 21
-195
  0
LINE
  8
0
  6
CONTINUOUS
 62
     7
 10
236.7987365722656
 20
-40
 11
236.7987365722656
 21
-219.508056640625
  0
LINE
  8
0
  6
CONTINUOUS
 62
     3
 10
267.7987365722656
 20
-217.633544921875
 11
267.7987365722656
 21
-254.395751953125
  0
LINE
  8
0
  6
CONTINUOUS
 62
     3
 10
32.09873962402344
 20
157.5
 11
316.098876953125
 21
157.5
  0
LINE
  8
0
  6
CONTINUOUS
 62
     7
 10
186.0987396240234
 20
256.1522216796875
 11
186.0987396240234
 21
58.84767913818359
  0
LINE
  8
0
  6
CONTINUOUS
 62
     7
 10
190.0987396240234
 20
62.5
 11
232.0987396240234
 21
62.5
  0
LINE
  8
0
  6
CONTINUOUS
 62
     7
 10
190.0987396240234
 20
252.5
 11
232.0987396240234
 21
252.5
  0
LINE
  8
0
  6
CONTINUOUS
 62
     7
 10
190.0989074707031
 20
252.4998626708984
 11
186.0989074707031
 21
248.4998626708984
  0
LINE
  8
0
  6
CONTINUOUS
 62
     7
 10
186.0986938476562
 20
66.50005340576172
 11
190.0986938476562
 21
62.50004959106445
  0
LINE
  8
0
  6
CONTINUOUS
 62
     7
 10
232.0988159179688
 20
62.49995040893555
 11
236.0988159179687
 21
66.49995422363281
  0
LINE
  8
0
  6
CONTINUOUS
 62
     7
 10
236.0986938476563
 20
248.5000305175781
 11
232.0986938476563
 21
252.5000305175781
  0
LINE
  8
0
  6
CONTINUOUS
 62
     7
 10
190.0987091064453
 20
244.7189636230469
 11
232.0988311767578
 21
244.7189636230469
  0
LINE
  8
0
  6
CONTINUOUS
 62
     7
 10
190.0987091064453
 20
233.7187805175781
 11
232.0988311767578
 21
233.7187805175781
  0
LINE
  8
0
  6
CONTINUOUS
 62
     7
 10
190.0987091064453
 20
225.8566284179688
 11
232.0988311767578
 21
225.8566284179688
  0
LINE
  8
0
  6
CONTINUOUS
 62
     7
 10
190.0987091064453
 20
218.5436401367188
 11
232.0988311767578
 21
218.5436401367188
  0
LINE
  8
0
  6
CONTINUOUS
 62
     7
 10
190.0987091064453
 20
209.2644958496094
 11
232.0988311767578
 21
209.2644958496094
  0
LINE
  8
0
  6
CONTINUOUS
 62
     7
 10
190.0987091064453
 20
200.6044311523438
 11
232.0988311767578
 21
200.6044311523438
  0
LINE
  8
0
  6
CONTINUOUS
 62
     7
 10
190.0987091064453
 20
190.0186462402344
 11
232.0988311767578
 21
190.0186462402344
  0
LINE
  8
0
  6
CONTINUOUS
 62
     7
 10
190.0987091064453
 20
180.4557495117187
 11
232.0988311767578
 21
180.4557495117187
  0
LINE
  8
0
  6
CONTINUOUS
 62
     7
 10
190.0987091064453
 20
168.5000610351563
 11
232.0988311767578
 21
168.5000610351563
  0
LINE
  8
0
  6
CONTINUOUS
 62
     7
 10
190.0987091064453
 20
70.28070068359375
 11
232.0988311767578
 21
70.28070068359375
  0
LINE
  8
0
  6
CONTINUOUS
 62
     7
 10
127.0987396240234
 20
219.9999389648437
 11
166.3604125976563
 21
222.0575561523438
  0
LINE
  8
0
  6
CONTINUOUS
 62
     7
 10
117.0987396240234
 20
259.4999694824219
 11
117.0987396240234
 21
219.9999694824219
  0
LINE
  8
0
  6
CONTINUOUS
 62
     7
 10
287.0987548828125
 20
259.4999694824219
 11
287.0987548828125
 21
230.5
  0
LINE
  8
0
  6
CONTINUOUS
 62
     7
 10
279.0987548828125
 20
267.4999694824219
 11
125.0987396240234
 21
267.4999694824219
  0
LINE
  8
0
  6
CONTINUOUS
 62
     7
 10
279.0987548828125
 20
47.5
 11
125.0987396240234
 21
47.5
  0
LINE
  8
0
  6
CONTINUOUS
 62
     7
 10
127.0987396240234
 20
219.9999694824219
 11
105.0987396240234
 21
219.9999694824219
  0
LINE
  8
0
  6
CONTINUOUS
 62
     7
 10
127.0987396240234
 20
95
 11
105.0987396240234
 21
95
  0
LINE
  8
0
  6
CONTINUOUS
 62
     7
 10
105.0987396240234
 20
219.9999694824219
 11
105.0987396240234
 21
210.1961975097656
  0
LINE
  8
0
  6
CONTINUOUS
 62
     7
 10
171.0987396240234
 20
249.3382263183594
 11
171.0987396240234
 21
65.66177368164063
  0
LINE
  8
0
  6
CONTINUOUS
 62
     7
 10
287.0987548828125
 20
84.5
 11
287.0987548828125
 21
55.5
  0
LINE
  8
0
  6
CONTINUOUS
 62
     7
 10
117.0987396240234
 20
95
 11
117.0987396240234
 21
55.5
  0
LINE
  8
0
  6
CONTINUOUS
 62
     7
 10
161.0987396240234
 20
93.21817016601563
 11
161.0987396240234
 21
47.5
  0
LINE
  8
0
  6
CONTINUOUS
 62
     7
 10
161.0987396240234
 20
221.7818298339844
 11
161.0987396240234
 21
267.4999694824219
  0
LINE
  8
0
  6
CONTINUOUS
 62
     3
 10
150.4700775146484
 20
67.5
 11
125.0987396240234
 21
67.5
  0
LINE
  8
0
  6
CONTINUOUS
 62
     3
 10
137.0987396240234
 20
80.66946411132812
 11
137.0987396240234
 21
55.5
  0
LINE
  8
0
  6
CONTINUOUS
 62
     3
 10
253.7274017333984
 20
67.5
 11
279.0987548828125
 21
67.5
  0
LINE
  8
0
  6
CONTINUOUS
 62
     3
 10
267.0987548828125
 20
80.66946411132812
 11
267.0987548828125
 21
55.5
  0
LINE
  8
0
  6
CONTINUOUS
 62
     3
 10
150.4700775146484
 20
247.4999694824219
 11
125.0987396240234
 21
247.4999694824219
  0
LINE
  8
0
  6
CONTINUOUS
 62
     3
 10
137.0987396240234
 20
234.3305358886719
 11
137.0987396240234
 21
259.4999694824219
  0
LINE
  8
0
  6
CONTINUOUS
 62
     3
 10
253.7274017333984
 20
247.4999694824219
 11
279.0987548828125
 21
247.4999694824219
  0
LINE
  8
0
  6
CONTINUOUS
 62
     3
 10
267.0987548828125
 20
234.3305358886719
 11
267.0987548828125
 21
259.4999694824219
  0
LINE
  8
0
  6
CONTINUOUS
 62
     7
 10
42.09873962402344
 20
176.5
 11
42.09873962402344
 21
138.5
  0
LINE
  8
0
  6
CONTINUOUS
 62
     7
 10
42.09873962402344
 20
176.5
 11
97.09873962402344
 21
176.5
  0
LINE
  8
0
  6
CONTINUOUS
 62
     7
 10
42.09873962402344
 20
138.5
 11
97.09873962402344
 21
138.5
  0
LINE
  8
0
  6
CONTINUOUS
 62
     7
 10
97.09873962402344
 20
180
 11
97.09873962402344
 21
135
  0
LINE
  8
0
  6
CONTINUOUS
 62
     7
 10
97.09873962402344
 20
180
 11
102.0987396240234
 21
180
  0
LINE
  8
0
  6
CONTINUOUS
 62
     7
 10
97.09873962402344
 20
135
 11
102.0987396240234
 21
135
  0
LINE
  8
0
  6
CONTINUOUS
 62
     7
 10
90.09873962402344
 20
152.5
 11
42.09873962402344
 21
152.5
  0
LINE
  8
0
  6
CONTINUOUS
 62
     7
 10
90.09873962402344
 20
162.5
 11
42.09873962402344
 21
162.5
  0
LINE
  8
0
  6
CONTINUOUS
 62
     7
 10
87.09873962402344
 20
162.5
 11
87.09873962402344
 21
152.5
  0
LINE
  8
0
  6
CONTINUOUS
 62
     7
 10
127.0987701416016
 20
95.00004577636719
 11
166.3604431152344
 21
92.94242858886719
  0
LINE
  8
0
  6
CONTINUOUS
 62
     7
 10
102.0987167358398
 20
110.0000457763672
 11
105.0986862182617
 21
104.8039474487305
  0
LINE
  8
0
  6
CONTINUOUS
 62
     7
 10
102.0987396240234
 20
204.9999694824219
 11
102.0987396240234
 21
110
  0
LINE
  8
0
  6
CONTINUOUS
 62
     7
 10
102.0986785888672
 20
204.9999847412109
 11
105.0986633300781
 21
210.1961059570313
  0
LINE
  8
0
  6
CONTINUOUS
 62
     7
 10
171.0987396240234
 20
249.3382263183594
 11
161.0987396240234
 21
249.3382263183594
  0
LINE
  8
0
  6
CONTINUOUS
 62
     7
 10
171.0987396240234
 20
65.66177368164063
 11
161.0987396240234
 21
65.66177368164063
  0
LINE
  8
0
  6
CONTINUOUS
 62
     7
 10
186.0987548828125
 20
256.1522216796875
 11
240.0987701416016
 21
267.4998779296875
  0
LINE
  8
0
  6
CONTINUOUS
 62
     7
 10
186.0987396240234
 20
58.84769439697266
 11
240.0987243652344
 21
47.50003814697266
  0
LINE
  8
0
  6
CONTINUOUS
 62
     7
 10
105.0987396240234
 20
104.8038635253906
 11
105.0987396240234
 21
95
  0
LINE
  8
0
  6
CONTINUOUS
 62
     7
 10
236.0988616943359
 20
65.00003051757813
 11
236.0988616943359
 21
172.1427612304687
  0
LINE
  8
0
  6
CONTINUOUS
 62
     3
 10
-317.2012634277344
 20
-132.5
 11
-97.20126342773437
 21
-132.5
  0
LINE
  8
0
  6
CONTINUOUS
 62
     3
 10
-207.2012634277344
 20
-22.5
 11
-207.2012634277344
 21
-254.5
  0
LINE
  8
0
  6
CONTINUOUS
 62
     7
 10
-113.6396255493164
 20
-116.0312347412109
 11
-115.9943161010742
 21
-117.0875244140625
  0
LINE
  8
0
  6
CONTINUOUS
 62
     7
 10
-115.889274597168
 20
-106.2876434326172
 11
-118.4685211181641
 21
-106.3704528808594
  0
LINE
  8
0
  6
CONTINUOUS
 62
     7
 10
-119.98193359375
 20
-94.84613037109375
 11
-121.8683471679688
 21
-96.79914855957031
  0
LINE
  8
0
  6
CONTINUOUS
 62
     7
 10
-218.2012939453125
 20
-38.13895797729492
 11
-218.9494323730469
 21
-40.74906921386719
  0
LINE
  8
0
  6
CONTINUOUS
 62
     7
 10
-230.1569976806641
 20
-40.3154182434082
 11
-228.9391021728516
 21
-42.59048080444336
  0
LINE
  8
0
  6
CONTINUOUS
 62
     7
 10
-239.7198944091797
 20
-43.23880386352539
 11
-239.4573059082031
 21
-45.80628204345703
  0
LINE
  8
0
  6
CONTINUOUS
 62
     7
 10
-250.3057098388672
 20
-47.84214782714844
 11
-248.6072998046875
 21
-49.78489303588867
  0
LINE
  8
0
  6
CONTINUOUS
 62
     7
 10
-258.9657592773437
 20
-52.84161376953125
 11
-258.13232421875
 21
-55.28421783447266
  0
LINE
  8
0
  6
CONTINUOUS
 62
     7
 10
-268.244873046875
 20
-59.70851898193359
 11
-266.153076171875
 21
-61.21934127807617
  0
LINE
  8
0
  6
CONTINUOUS
 62
     7
 10
-275.5578918457031
 20
-66.52747344970703
 11
-274.1964111328125
 21
-68.71991729736328
  0
LINE
  8
0
  6
CONTINUOUS
 62
     7
 10
-283.4200134277344
 20
-75.79248809814453
 11
-280.7853088378906
 21
-76.44969940185547
  0
LINE
  8
0
  6
CONTINUOUS
 62
     7
 10
-294.4202270507812
 20
-94.84603118896484
 11
-292.5339965820312
 21
-96.79885101318359
  0
LINE
  8
0
  6
CONTINUOUS
 62
     7
 10
-298.5133056640625
 20
-106.2866592407227
 11
-295.9336853027344
 21
-106.3695068359375
  0
LINE
  8
0
  6
CONTINUOUS
 62
     7
 10
-300.7633361816406
 20
-116.0323181152344
 11
-298.4083862304688
 21
-117.0887451171875
  0
LINE
  8
0
  6
CONTINUOUS
 62
     3
 10
-130.8622283935547
 20
-88.42523956298828
 11
-149.1120452880859
 21
-98.96176910400391
  0
LINE
  8
0
  6
CONTINUOUS
 62
     7
 10
-317.2012634277344
 20
-247.5
 11
-262.2012634277344
 21
-247.5
  0
LINE
  8
0
  6
CONTINUOUS
 62
     7
 10
-317.2012634277344
 20
-225.5
 11
-262.2012634277344
 21
-225.5
  0
LINE
  8
0
  6
CONTINUOUS
 62
     7
 10
-317.2012634277344
 20
-225.5
 11
-317.2012634277344
 21
-247.5
  0
LINE
  8
0
  6
CONTINUOUS
 62
     7
 10
-97.20126342773437
 20
-225.5
 11
-97.20126342773437
 21
-247.5
  0
LINE
  8
0
  6
CONTINUOUS
 62
     7
 10
-262.2012634277344
 20
-225.5
 11
-262.2012634277344
 21
-247.5
  0
LINE
  8
0
  6
CONTINUOUS
 62
     7
 10
-152.2012634277344
 20
-225.5
 11
-152.2012634277344
 21
-247.5
  0
LINE
  8
0
  6
CONTINUOUS
 62
     7
 10
-259.2012634277344
 20
-244.5
 11
-155.2012634277344
 21
-244.5
  0
LINE
  8
0
  6
CONTINUOUS
 62
     7
 10
-152.2012634277344
 20
-225.5
 11
-97.20126342773437
 21
-225.5
  0
LINE
  8
0
  6
CONTINUOUS
 62
     7
 10
-152.2012634277344
 20
-247.5
 11
-97.20126342773437
 21
-247.5
  0
LINE
  8
0
  6
CONTINUOUS
 62
     7
 10
-162.8123168945313
 20
-185.8988037109375
 11
-152.2012176513672
 21
-225.4999542236328
  0
LINE
  8
0
  6
CONTINUOUS
 62
     7
 10
-154.7724761962891
 20
-169.5393371582031
 11
-140.7708892822266
 21
-221.7940216064453
  0
LINE
  8
0
  6
CONTINUOUS
 62
     7
 10
-141.3890075683594
 20
-122.5
 11
-119.5584411621094
 21
-122.5
  0
LINE
  8
0
  6
CONTINUOUS
 62
     7
 10
-141.3890075683594
 20
-142.5
 11
-126.1861267089844
 21
-142.5
  0
LINE
  8
0
  6
CONTINUOUS
 62
     7
 10
-114.6343307495117
 20
-126.631706237793
 11
-97.20117950439453
 21
-225.4999694824219
  0
LINE
  8
0
  6
CONTINUOUS
 62
     7
 10
-121.2620468139648
 20
-146.6317596435547
 11
-108.3901824951172
 21
-219.6317138671875
  0
LINE
  8
0
  6
CONTINUOUS
 62
     7
 10
-251.5901031494141
 20
-185.8988494873047
 11
-262.2012023925781
 21
-225.4999847412109
  0
LINE
  8
0
  6
CONTINUOUS
 62
     7
 10
-259.6299438476562
 20
-169.5394592285156
 11
-273.6315307617187
 21
-221.7940521240234
  0
LINE
  8
0
  6
CONTINUOUS
 62
     7
 10
-273.0135192871094
 20
-122.5
 11
-294.8440856933594
 21
-122.5
  0
LINE
  8
0
  6
CONTINUOUS
 62
     7
 10
-273.0135192871094
 20
-142.5
 11
-288.2164001464844
 21
-142.5
  0
LINE
  8
0
  6
CONTINUOUS
 62
     7
 10
-299.7678527832031
 20
-126.6317977905273
 11
-317.2009887695313
 21
-225.5000305175781
  0
LINE
  8
0
  6
CONTINUOUS
 62
     7
 10
-293.1401977539063
 20
-146.6318206787109
 11
-306.0120544433594
 21
-219.6318054199219
  0
LINE
  8
0
  6
CONTINUOUS
 62
     3
 10
-283.54052734375
 20
-88.42551422119141
 11
-265.2906799316406
 21
-98.96207427978516
  0
LINE
  8
0
  6
CONTINUOUS
 62
     3
 10
-283.5404968261719
 20
-176.5742340087891
 11
-265.2907409667969
 21
-166.0377349853516
  0
LINE
  8
0
  6
CONTINUOUS
 62
     3
 10
-130.8619842529297
 20
-176.5744934082031
 11
-149.1117858886719
 21
-166.0379638671875
  0
LINE
  8
0
  6
CONTINUOUS
 62
     3
 10
-297.2012634277344
 20
-218.6009826660156
 11
-297.2012634277344
 21
-256.3306274414063
  0
LINE
  8
0
  6
CONTINUOUS
 62
     3
 10
-117.2012634277344
 20
-218.6009826660156
 11
-117.2012634277344
 21
-256.3306274414063
  0
LINE
  8
0
  6
CONTINUOUS
 62
     7
 10
-212.2012634277344
 20
-110.5
 11
-212.2012634277344
 21
-118.5
  0
LINE
  8
0
  6
CONTINUOUS
 62
     7
 10
-202.2012634277344
 20
-110.5
 11
-202.2012634277344
 21
-118.5
  0
LINE
  8
0
  6
CONTINUOUS
 62
     7
 10
-212.2012634277344
 20
-118.5
 11
-202.2012634277344
 21
-118.5
  0
LINE
  8
0
  6
CONTINUOUS
 62
     7
 10
-212.2012634277344
 20
-110.5
 11
-202.2012634277344
 21
-110.5
  0
LINE
  8
0
  6
DASHED
 62
     7
 10
-289.7012634277344
 20
-225.5
 11
-289.7012634277344
 21
-247.5
  0
LINE
  8
0
  6
DASHED
 62
     7
 10
-304.7012634277344
 20
-225.5
 11
-304.7012634277344
 21
-247.5
  0
LINE
  8
0
  6
DASHED
 62
     7
 10
-124.7012634277344
 20
-225.5
 11
-124.7012634277344
 21
-247.5
  0
LINE
  8
0
  6
DASHED
 62
     7
 10
-109.7012634277344
 20
-225.5
 11
-109.7012634277344
 21
-247.5
  0
LINE
  8
0
  6
CONTINUOUS
 62
     7
 10
-112.3330841064453
 20
-127.5005111694336
 11
-114.5780410766602
 21
-127.0575790405273
  0
LINE
  8
0
  6
CONTINUOUS
 62
     7
 10
-302.0696411132812
 20
-127.5001068115234
 11
-299.8435668945313
 21
-127.0609283447266
  0
LINE
  8
0
  6
CONTINUOUS
 62
     7
 10
291.098876953125
 20
257.5
 11
306.098876953125
 21
257.5
  0
LINE
  8
0
  6
CONTINUOUS
 62
     7
 10
291.098876953125
 20
257.5
 11
291.098876953125
 21
57.5
  0
LINE
  8
0
  6
CONTINUOUS
 62
     7
 10
236.0988616943359
 20
65
 11
254.0988616943359
 21
65
  0
LINE
  8
0
  6
CONTINUOUS
 62
     7
 10
254.0988616943359
 20
230.5
 11
291.098876953125
 21
230.5
  0
LINE
  8
0
  6
CONTINUOUS
 62
     7
 10
254.0988616943359
 20
250
 11
254.0988616943359
 21
181.6767578125
  0
LINE
  8
0
  6
CONTINUOUS
 62
     7
 10
291.098876953125
 20
57.5
 11
306.098876953125
 21
57.5
  0
LINE
  8
0
  6
CONTINUOUS
 62
     7
 10
306.098876953125
 20
257.5
 11
306.098876953125
 21
57.5
  0
LINE
  8
0
  6
CONTINUOUS
 62
     7
 10
259.098876953125
 20
107.5
 11
286.098876953125
 21
107.5
  0
LINE
  8
0
  6
CONTINUOUS
 62
     7
 10
254.0988616943359
 20
152.5
 11
291.098876953125
 21
152.5
  0
LINE
  8
0
  6
CONTINUOUS
 62
     7
 10
259.098876953125
 20
207.5
 11
286.098876953125
 21
207.5
  0
LINE
  8
0
  6
CONTINUOUS
 62
     7
 10
254.0988616943359
 20
162.5
 11
291.098876953125
 21
162.5
  0
LINE
  8
0
  6
CONTINUOUS
 62
     7
 10
254.0988616943359
 20
84.5
 11
291.098876953125
 21
84.5
  0
LINE
  8
0
  6
CONTINUOUS
 62
     7
 10
236.0988616943359
 20
250
 11
254.0988616943359
 21
250
  0
LINE
  8
0
  6
CONTINUOUS
 62
     7
 10
254.0988616943359
 20
172.1427001953125
 11
254.0988616943359
 21
65
  0
LINE
  8
0
  6
CONTINUOUS
 62
     7
 10
236.0988616943359
 20
181.6766967773437
 11
236.0988616943359
 21
250
  0
LINE
  8
0
  6
CONTINUOUS
 62
     7
 10
249.3336181640625
 20
-225
 11
254.7987365722656
 21
-225
  0
LINE
  8
0
  6
CONTINUOUS
 62
     7
 10
291.7987365722656
 20
-32.5
 11
291.7987365722656
 21
-232.5
  0
LINE
  8
0
  6
CONTINUOUS
 62
     7
 10
291.7987365722656
 20
-32.5
 11
306.7987365722656
 21
-32.5
  0
LINE
  8
0
  6
CONTINUOUS
 62
     7
 10
254.7987365722656
 20
-40
 11
254.7987365722656
 21
-225
  0
LINE
  8
0
  6
CONTINUOUS
 62
     7
 10
291.7987365722656
 20
-232.5
 11
306.7987365722656
 21
-232.5
  0
LINE
  8
0
  6
CONTINUOUS
 62
     7
 10
306.7987365722656
 20
-32.5
 11
306.7987365722656
 21
-232.5
  0
LINE
  8
0
  6
CONTINUOUS
 62
     7
 10
254.7987365722656
 20
-59.5
 11
291.7987365722656
 21
-59.5
  0
LINE
  8
0
  6
CONTINUOUS
 62
     7
 10
259.7987365722656
 20
-182.5
 11
286.7987365722656
 21
-182.5
  0
LINE
  8
0
  6
CONTINUOUS
 62
     7
 10
259.7987365722656
 20
-82.5
 11
286.7987365722656
 21
-82.5
  0
LINE
  8
0
  6
CONTINUOUS
 62
     7
 10
254.7987365722656
 20
-127.5
 11
291.7987365722656
 21
-127.5
  0
LINE
  8
0
  6
CONTINUOUS
 62
     7
 10
254.7987365722656
 20
-137.5
 11
291.7987365722656
 21
-137.5
  0
LINE
  8
0
  6
CONTINUOUS
 62
     7
 10
254.7987365722656
 20
-205.5
 11
291.7987365722656
 21
-205.5
  0
LINE
  8
0
  6
CONTINUOUS
 62
     7
 10
236.7987365722656
 20
-40
 11
254.7987365722656
 21
-40
  0
LINE
  8
0
  6
CONTINUOUS
 62
     7
 10
245.7987365722656
 20
-2.9805908203125
 11
245.7987365722656
 21
-43.633544921875
  0
LINE
  8
0
  6
CONTINUOUS
 62
     7
 10
226.0427551269531
 20
-22.8936767578125
 11
265.5502624511719
 21
-22.8936767578125
  0
LINE
  8
0
  6
CONTINUOUS
 62
     7
 10
237.7987213134766
 20
-39.89361190795898
 11
238.3889312744141
 21
-36.54632568359375
  0
LINE
  8
0
  6
CONTINUOUS
 62
     7
 10
253.2084808349609
 20
-36.54627227783203
 11
253.7987060546875
 21
-39.89355850219727
  0
LINE
  8
0
  6
CONTINUOUS
 62
     7
 10
240.3585510253906
 20
-34.8936767578125
 11
251.2389221191406
 21
-34.8936767578125
  0
LINE
  8
0
  6
CONTINUOUS
 62
     7
 10
239.6684417724609
 20
-35.01651763916016
 11
245.45849609375
 21
-32.88788223266602
  0
LINE
  8
0
  6
CONTINUOUS
 62
     7
 10
246.1389923095703
 20
-32.88786697387695
 11
251.9290008544922
 21
-35.0164794921875
  0
LINE
  8
0
  6
CONTINUOUS
 62
     7
 10
-223.2637176513672
 20
-41.40520477294922
 11
-225.5806274414062
 21
-39.78288650512695
  0
LINE
  8
0
  6
CONTINUOUS
 62
     7
 10
-223.6110534667969
 20
-39.43559646606445
 11
-221.2941436767578
 21
-41.05791854858398
  0
LINE
  8
0
  6
CONTINUOUS
 62
     7
 10
-230.0227508544922
 20
-40.56618881225586
 11
-218.3047790527344
 21
-38.49999618530273
  0
LINE
  8
0
  6
CONTINUOUS
 62
     7
 10
-231.9486541748047
 20
-10.29064083099365
 11
-227.0604553222656
 21
-38.01300430297852
  0
LINE
  8
0
  6
CONTINUOUS
 62
     7
 10
-225.7443695068359
 20
-9.196659088134766
 11
-220.8561706542969
 21
-36.91902160644531
  0
LINE
  8
0
  6
CONTINUOUS
 62
     7
 10
-231.489501953125
 20
-36.5867919921875
 11
-231.489501953125
 21
-40.65729904174805
  0
LINE
  8
0
  6
CONTINUOUS
 62
     7
 10
-227.7631072998047
 20
-34.02822494506836
 11
-230.9538421630859
 21
-35.7010612487793
  0
LINE
  8
0
  6
CONTINUOUS
 62
     7
 10
-221.5587921142578
 20
-32.93431091308594
 11
-217.9883117675781
 21
-33.41497421264648
  0
LINE
  8
0
  6
CONTINUOUS
 62
     7
 10
-217.1820373535156
 20
-34.06405639648438
 11
-215.7898712158203
 21
-37.88903045654297
  0
LINE
  8
0
  6
CONTINUOUS
 62
     7
 10
-221.2060699462891
 20
-53.07471084594727
 11
-230.1759643554688
 21
-2.203956127166748
  0
ARC
  8
0
  6
CONTINUOUS
 62
     7
 10
156.7987365722656
 20
-220.5
 40
4.99999999999999
 50
270.0000179860893
 51
0
  0
ARC
  8
0
  6
CONTINUOUS
 62
     7
 10
169.7987365722656
 20
-130.5
 40
8.000000000000004
 50
103.3424218782613
 51
179.9999640278213
  0
ARC
  8
0
  6
CONTINUOUS
 62
     7
 10
166.7987365722656
 20
-117.8508911132812
 40
5.000000000000002
 50
283.3423007560891
 51
0
  0
ARC
  8
0
  6
CONTINUOUS
 62
     7
 10
254.7879638671875
 20
-195.5
 40
30.00000000000001
 50
220.0000006576045
 51
270.0000179860893
  0
ARC
  8
0
  6
CONTINUOUS
 62
     7
 10
123.2170715332031
 20
-220.5
 40
4.99999999999999
 50
270.0000179860893
 51
355.0000172209265
  0
ARC
  8
0
  6
CONTINUOUS
 62
     7
 10
127.4259338378906
 20
-172.392333984375
 40
5.000000000000012
 50
355.0000479567776
 51
89.99998201391064
  0
ARC
  8
0
  6
CONTINUOUS
 62
     7
 10
166.7987365722656
 20
-62.94927978515625
 40
4.999999999999996
 50
273.000000994099
 51
0
  0
ARC
  8
0
  6
CONTINUOUS
 62
     7
 10
125.0987396240234
 20
259.4999694824219
 40
7.999999999999996
 50
89.99998201391065
 51
179.9999640278211
  0
ARC
  8
0
  6
CONTINUOUS
 62
     7
 10
125.0987396240234
 20
55.5
 40
7.999999999999996
 50
179.9999776881997
 51
270.000028004002
  0
ARC
  8
0
  6
CONTINUOUS
 62
     7
 10
279.0987548828125
 20
55.5
 40
8.000000000000004
 50
270.0000179860895
 51
0
  0
ARC
  8
0
  6
CONTINUOUS
 62
     7
 10
279.0987548828125
 20
259.4999694824219
 40
8
 50
0
 51
89.99998201391055
  0
CIRCLE
  8
0
  6
CONTINUOUS
 62
     7
 10
137.0987396240234
 20
67.5
 40
7.5
  0
CIRCLE
  8
0
  6
CONTINUOUS
 62
     7
 10
267.0987548828125
 20
67.5
 40
7.5
  0
CIRCLE
  8
0
  6
CONTINUOUS
 62
     7
 10
137.0987396240234
 20
247.4999694824219
 40
7.5
  0
CIRCLE
  8
0
  6
CONTINUOUS
 62
     7
 10
267.0987548828125
 20
247.4999694824219
 40
7.5
  0
ARC
  8
0
  6
CONTINUOUS
 62
     7
 10
90.09873962402344
 20
157.5
 40
4.99999999999999
 50
270.0000179860893
 51
89.99998201391064
  0
ARC
  8
0
  6
CONTINUOUS
 62
     7
 10
166.0987396240234
 20
227.0507507324219
 40
5.00000000000001
 50
273.000000994099
 51
0
  0
ARC
  8
0
  6
CONTINUOUS
 62
     7
 10
166.0987396240234
 20
87.94927978515625
 40
5
 50
0
 51
86.99999900590097
  0
ARC
  8
0
  6
CONTINUOUS
 62
     7
 10
-207.2012634277344
 20
-132.5
 40
95
 50
9.983048887120244
 51
16.01707022634129
  0
ARC
  8
0
  6
CONTINUOUS
 62
     7
 10
-207.2012634277344
 20
-132.5
 40
95
 50
23.35063067780564
 51
96.64934875583648
  0
ARC
  8
0
  6
CONTINUOUS
 62
     7
 10
-207.2012634277344
 20
-132.5
 40
95
 50
103.982957018625
 51
110.0169373767111
  0
ARC
  8
0
  6
CONTINUOUS
 62
     7
 10
-207.2012634277344
 20
-132.5
 40
94.99999999999999
 50
116.9830268206396
 51
123.0169388768339
  0
ARC
  8
0
  6
CONTINUOUS
 62
     7
 10
-207.2012634277344
 20
-132.5
 40
95
 50
129.9829258679248
 51
136.0171111316859
  0
ARC
  8
0
  6
CONTINUOUS
 62
     7
 10
-207.2012634277344
 20
-132.5
 40
95
 50
143.3506306020153
 51
156.6490225764084
  0
ARC
  8
0
  6
CONTINUOUS
 62
     7
 10
-207.2012634277344
 20
-132.5
 40
95
 50
163.9828698958179
 51
170.0171781029841
  0
ARC
  8
0
  6
CONTINUOUS
 62
     7
 10
-207.2012634277344
 20
-132.5
 40
92.5
 50
4.323779963977107
 51
175.6762357171498
  0
CIRCLE
  8
0
  6
CONTINUOUS
 62
     7
 10
-207.2012634277344
 20
-132.5
 40
62.5
  0
CIRCLE
  8
0
  6
CONTINUOUS
 62
     7
 10
-207.2012634277344
 20
-132.5
 40
47.5
  0
ARC
  8
0
  6
CONTINUOUS
 62
     7
 10
-259.2012634277344
 20
-247.5
 40
3.000000000000006
 50
89.99998201391097
 51
179.9999640278214
  0
ARC
  8
0
  6
CONTINUOUS
 62
     7
 10
-155.2012634277344
 20
-247.5
 40
3
 50
0
 51
89.99998201391043
  0
ARC
  8
0
  6
CONTINUOUS
 62
     7
 10
-135.9413146972656
 20
-220.5
 40
4.999999999999988
 50
194.9999510122271
 51
270.0000179860893
  0
ARC
  8
0
  6
CONTINUOUS
 62
     7
 10
-119.5584411621094
 20
-127.5
 40
5.000000000000004
 50
10.00004837419074
 51
89.99998201391064
  0
ARC
  8
0
  6
CONTINUOUS
 62
     7
 10
-126.1861267089844
 20
-147.5
 40
5.000000000000002
 50
9.999876765687821
 51
89.99998201391064
  0
ARC
  8
0
  6
CONTINUOUS
 62
     7
 10
-113.3143005371094
 20
-220.5
 40
4.99999999999999
 50
270.0000179860893
 51
10.00004837419058
  0
ARC
  8
0
  6
CONTINUOUS
 62
     7
 10
-301.0882263183594
 20
-220.5
 40
5.000000000000004
 50
169.9999113847624
 51
269.9999460417322
  0
ARC
  8
0
  6
CONTINUOUS
 62
     7
 10
-288.2164001464844
 20
-147.5
 40
4.99999999999999
 50
89.99998201391097
 51
170.0000889696808
  0
ARC
  8
0
  6
CONTINUOUS
 62
     7
 10
-294.8440856933594
 20
-127.5
 40
5.000000000000004
 50
89.99998201391097
 51
169.9999113847624
  0
ARC
  8
0
  6
CONTINUOUS
 62
     7
 10
-278.4612121582031
 20
-220.5
 40
5
 50
269.9999633445757
 51
345.000030318438
  0
ARC
  8
0
  6
CONTINUOUS
 62
     3
 10
-207.2012634277344
 20
-132.5
 40
81
 50
23.67662536160659
 51
36.77558947261372
  0
ARC
  8
0
  6
CONTINUOUS
 62
     3
 10
-207.2012634277344
 20
-132.5
 40
81
 50
83.67662703125869
 51
96.77561163283335
  0
ARC
  8
0
  6
CONTINUOUS
 62
     3
 10
-207.2012634277344
 20
-132.5
 40
81
 50
143.6766218707216
 51
156.2036259406319
  0
ARC
  8
0
  6
CONTINUOUS
 62
     3
 10
-207.2012634277344
 20
-132.5
 40
81.00000000000001
 50
203.6766408432178
 51
216.7756049542249
  0
ARC
  8
0
  6
CONTINUOUS
 62
     3
 10
-207.2012634277344
 20
-132.5
 40
80.99999999999999
 50
263.6766356826807
 51
276.7755997936878
  0
ARC
  8
0
  6
CONTINUOUS
 62
     3
 10
-207.2012634277344
 20
-132.5
 40
81
 50
323.6766305221436
 51
336.7755946331508
  0
ARC
  8
0
  6
CONTINUOUS
 62
     7
 10
-207.2012634277344
 20
-132.5
 40
18.99999999999999
 50
105.2575386196411
 51
74.74246957703868
  0
ARC
  8
0
  6
CONTINUOUS
 62
     7
 10
-149.9428405761719
 20
-168.2453002929688
 40
4.999999999999998
 50
148.0243651265147
 51
194.9999337093829
  0
ARC
  8
0
  6
CONTINUOUS
 62
     7
 10
-167.6419982910156
 20
-187.1929016113281
 40
4.999999999999994
 50
14.99996455892005
 51
125.8780641390172
  0
ARC
  8
0
  6
CONTINUOUS
 62
     7
 10
-246.7604675292969
 20
-187.1929626464844
 40
5.000000000000004
 50
54.12205698315525
 51
165.0001446104211
  0
ARC
  8
0
  6
CONTINUOUS
 62
     7
 10
-264.4596252441406
 20
-168.245361328125
 40
5.000000000000021
 50
345.00003544108
 51
31.97565354281958
  0
ARC
  8
0
  6
CONTINUOUS
 62
     7
 10
-141.3890075683594
 20
-117.5
 40
4.999999999999995
 50
192.8395894985088
 51
269.9999974955218
  0
ARC
  8
0
  6
CONTINUOUS
 62
     7
 10
-141.3890075683594
 20
-147.5
 40
5.000000000000004
 50
90.00000250447815
 51
167.1604105014914
  0
ARC
  8
0
  6
CONTINUOUS
 62
     7
 10
-273.0135192871094
 20
-117.5
 40
5.000000000000004
 50
269.9999974955215
 51
347.1604114689504
  0
ARC
  8
0
  6
CONTINUOUS
 62
     7
 10
-273.0135192871094
 20
-147.5
 40
4.99999999999998
 50
12.83958853104963
 51
90.00000250447847
  0
ARC
  8
0
  6
CONTINUOUS
 62
     7
 10
-207.2012634277344
 20
-132.5
 40
94.99999999999999
 50
356.9830815379433
 51
3.017020914894262
  0
ARC
  8
0
  6
CONTINUOUS
 62
     7
 10
-207.2012634277344
 20
-132.5
 40
94.99999999999999
 50
176.9830284902917
 51
183.0170088483777
  0
ARC
  8
0
  6
CONTINUOUS
 62
     7
 10
259.098876953125
 20
102.5
 40
5.000000000000004
 50
90.00000250447847
 51
180.0000050089563
  0
ARC
  8
0
  6
CONTINUOUS
 62
     7
 10
259.098876953125
 20
212.5
 40
5
 50
179.999991348578
 51
270.0000006832456
  0
ARC
  8
0
  6
CONTINUOUS
 62
     7
 10
286.098876953125
 20
102.5
 40
5
 50
0
 51
90.00000250447847
  0
ARC
  8
0
  6
CONTINUOUS
 62
     7
 10
286.098876953125
 20
212.5
 40
5.000000000000004
 50
269.9999974955215
 51
0
  0
ARC
  8
0
  6
CONTINUOUS
 62
     7
 10
259.7987365722656
 20
-187.5
 40
5.000000000000004
 50
90.00000250447847
 51
180.0000050089563
  0
ARC
  8
0
  6
CONTINUOUS
 62
     7
 10
259.7987365722656
 20
-77.5
 40
5
 50
179.999991348578
 51
270.0000006832456
  0
ARC
  8
0
  6
CONTINUOUS
 62
     7
 10
286.7987365722656
 20
-77.5
 40
5.000000000000004
 50
269.9999974955215
 51
0
  0
ARC
  8
0
  6
CONTINUOUS
 62
     7
 10
286.7987365722656
 20
-187.5
 40
5
 50
0
 51
90.00000250447847
  0
ARC
  8
0
  6
CONTINUOUS
 62
     7
 10
257.7555236816406
 20
-39.2987060546875
 40
3.999999999999994
 50
126.0864395502159
 51
188.5540383028319
  0
ARC
  8
0
  6
CONTINUOUS
 62
     7
 10
233.8419494628906
 20
-39.2987060546875
 40
3.999999999999995
 50
351.4459282863103
 51
53.91357911911859
  0
ARC
  8
0
  6
CONTINUOUS
 62
     7
 10
245.7987365722656
 20
-22.8936767578125
 40
16.29999923706054
 50
306.086414050692
 51
233.91354314694
  0
CIRCLE
  8
0
  6
CONTINUOUS
 62
     7
 10
245.7987365722656
 20
-22.8936767578125
 40
10
  0
ARC
  8
0
  6
CONTINUOUS
 62
     7
 10
240.3585510253906
 20
-36.8936767578125
 40
1.999999999999999
 50
89.99998201391097
 51
170.0000206677891
  0
ARC
  8
0
  6
CONTINUOUS
 62
     7
 10
251.2389221191406
 20
-36.8936767578125
 40
2.000000000000004
 50
10.00000397796112
 51
89.99998201391097
  0
ARC
  8
0
  6
CONTINUOUS
 62
     7
 10
-207.2012634277344
 20
-132.5
 40
99.99999999999999
 50
347.1901484050494
 51
96.95762934402501
  0
ARC
  8
0
  6
CONTINUOUS
 62
     7
 10
-218.1217346191406
 20
-34.406005859375
 40
0.9999999999999987
 50
20.0000130785643
 51
82.33288293470682
  0
ARC
  8
0
  6
CONTINUOUS
 62
     7
 10
-228.8465270996094
 20
-9.74365234375
 40
3.150000095367426
 50
9.999999709092926
 51
189.9999620293669
  0
ARC
  8
0
  6
CONTINUOUS
 62
     7
 10
-219.8713684082031
 20
-36.745361328125
 40
0.999999999999986
 50
189.999979332211
 51
280.0000159876346
  0
ARC
  8
0
  6
CONTINUOUS
 62
     7
 10
-228.0452575683594
 20
-38.1866455078125
 40
0.9999999999999978
 50
279.9999613461212
 51
9.999999709092924
  0
ARC
  8
0
  6
CONTINUOUS
 62
     7
 10
-230.4894714355469
 20
-36.5867919921875
 40
0.9999999999999956
 50
117.667083926394
 51
179.9999503674428
  0
ARC
  8
0
  6
CONTINUOUS
 62
     7
 10
-207.2012634277344
 20
-132.5
 40
100
 50
103.0425424227518
 51
192.8103526463954
  0
POLYLINE
  8
0
  6
CONTINUOUS
 62
     7
 66
     1
 10
0
 20
0
  0
VERTEX
  8
0
  6
CONTINUOUS
 62
     7
 10
237.3607637527599
 20
171.9583637129985
 42
0.04188691999828362
  0
VERTEX
  8
0
  6
CONTINUOUS
 62
     7
 10
237.8008946535597
 20
170.7303844402992
 42
0.04165559636298012
  0
VERTEX
  8
0
  6
CONTINUOUS
 62
     7
 10
238.4391392114113
 20
169.5924553077192
 42
0.04136485841421703
  0
VERTEX
  8
0
  6
CONTINUOUS
 62
     7
 10
239.2565936761496
 20
168.5755945573833
 42
0.04106105922612218
  0
VERTEX
  8
0
  6
CONTINUOUS
 62
     7
 10
240.2299019671899
 20
167.7064504863346
 42
0.04077367481028425
  0
VERTEX
  8
0
  6
CONTINUOUS
 62
     7
 10
241.3319740538272
 20
167.007262490735
 42
0.04052906794775765
  0
VERTEX
  8
0
  6
CONTINUOUS
 62
     7
 10
242.5328345170228
 20
166.4955070129774
 42
0.04034774979670977
  0
VERTEX
  8
0
  6
CONTINUOUS
 62
     7
 10
243.8004123181636
 20
166.1836904889402
 42
0.04023569854257229
  0
VERTEX
  8
0
  6
CONTINUOUS
 62
     7
 10
245.1010397041514
 20
166.0792239244677
 42
0.04022884956922503
  0
VERTEX
  8
0
  6
CONTINUOUS
 62
     7
 10
246.4013855777702
 20
166.1843512723062
 42
0.04031599865617568
  0
VERTEX
  8
0
  6
CONTINUOUS
 62
     7
 10
247.6678174216769
 20
166.4964838661883
 42
0.04051172969274934
  0
VERTEX
  8
0
  6
CONTINUOUS
 62
     7
 10
248.8679734435099
 20
167.0084315531415
 42
0.04075994656516571
  0
VERTEX
  8
0
  6
CONTINUOUS
 62
     7
 10
249.9694628485796
 20
167.7076904947337
 42
0.04105999637891018
  0
VERTEX
  8
0
  6
CONTINUOUS
 62
     7
 10
250.9425125181997
 20
168.5770507697545
 42
0.0413775378125462
  0
VERTEX
  8
0
  6
CONTINUOUS
 62
     7
 10
251.7599232382391
 20
169.5944377549724
 42
0.04167518698815412
  0
VERTEX
  8
0
  6
CONTINUOUS
 62
     7
 10
252.3980680575088
 20
170.7331047908889
 42
0.04191607587233776
  0
VERTEX
  8
0
  6
CONTINUOUS
 62
     7
 10
252.8379577230822
 20
171.9621153909912
 42
0
  0
SEQEND
  8
0
  0
POLYLINE
  8
0
  6
CONTINUOUS
 62
     7
 66
     1
 10
0
 20
0
  0
VERTEX
  8
0
  6
CONTINUOUS
 62
     7
 10
233.5604095458984
 20
172.7122802734375
 42
-0.01902109328027098
  0
VERTEX
  8
0
  6
CONTINUOUS
 62
     7
 10
232.8185235445171
 20
172.9164866823955
 42
-0.01048045990913845
  0
VERTEX
  8
0
  6
CONTINUOUS
 62
     7
 10
232.0898720799829
 20
173.1642086053957
 42
-0.005827269390781929
  0
VERTEX
  8
0
  6
CONTINUOUS
 62
     7
 10
231.3682718546473
 20
173.432840319979
 42
-0.02972369337179293
  0
VERTEX
  8
0
  6
CONTINUOUS
 62
     7
 10
230.6674394984164
 20
173.7499674878509
 42
-0.05879617539137561
  0
VERTEX
  8
0
  6
CONTINUOUS
 62
     7
 10
230.0343691376348
 20
174.1843225967268
 42
-0.05380099723800118
  0
VERTEX
  8
0
  6
CONTINUOUS
 62
     7
 10
229.5229821939309
 20
174.7575613681425
 42
-0.04813552611520511
  0
VERTEX
  8
0
  6
CONTINUOUS
 62
     7
 10
229.1300918181974
 20
175.4188832527771
 42
-0.05484783603246387
  0
VERTEX
  8
0
  6
CONTINUOUS
 62
     7
 10
228.8845015623169
 20
176.146505046056
 42
-0.05417228071399098
  0
VERTEX
  8
0
  6
CONTINUOUS
 62
     7
 10
228.8011932373047
 20
176.90966796875
 42
-0.05420200911559125
  0
VERTEX
  8
0
  6
CONTINUOUS
 62
     7
 10
228.8845934451991
 20
177.6732482428266
 42
-0.05486067752536748
  0
VERTEX
  8
0
  6
CONTINUOUS
 62
     7
 10
229.1303394955192
 20
178.4009846501812
 42
-0.04805888679706172
  0
VERTEX
  8
0
  6
CONTINUOUS
 62
     7
 10
229.5226131097188
 20
179.0612665521795
 42
-0.05381547759309285
  0
VERTEX
  8
0
  6
CONTINUOUS
 62
     7
 10
230.0341964976444
 20
179.6348600765111
 42
-0.05878999911459879
  0
VERTEX
  8
0
  6
CONTINUOUS
 62
     7
 10
230.6672869902728
 20
180.069299108513
 42
-0.02971471689119718
  0
VERTEX
  8
0
  6
CONTINUOUS
 62
     7
 10
231.3677809131914
 20
180.3863558914019
 42
-0.005836783465652047
  0
VERTEX
  8
0
  6
CONTINUOUS
 62
     7
 10
232.0891485263926
 20
180.6549659923297
 42
-0.01048619870862602
  0
VERTEX
  8
0
  6
CONTINUOUS
 62
     7
 10
232.8180797675421
 20
180.9028297813244
 42
-0.0190213517499245
  0
VERTEX
  8
0
  6
CONTINUOUS
 62
     7
 10
233.5599212646484
 20
181.1070556640625
 42
0
  0
SEQEND
  8
0
  0
POLYLINE
  8
0
  6
CONTINUOUS
 62
     7
 66
     1
 10
0
 20
0
  0
VERTEX
  8
0
  6
CONTINUOUS
 62
     7
 10
256.6505773024119
 20
181.102924586078
 42
0.0248301830398892
  0
VERTEX
  8
0
  6
CONTINUOUS
 62
     7
 10
255.2421863812868
 20
181.4650396410134
 42
0.01364847221910822
  0
VERTEX
  8
0
  6
CONTINUOUS
 62
     7
 10
253.810340968425
 20
181.722346174252
 42
0.009382790529355752
  0
VERTEX
  8
0
  6
CONTINUOUS
 62
     7
 10
252.3680543280771
 20
181.914684373237
 42
0.007275393931656857
  0
VERTEX
  8
0
  6
CONTINUOUS
 62
     7
 10
250.9196591647879
 20
182.0593996005087
 42
0.006095649948760848
  0
VERTEX
  8
0
  6
CONTINUOUS
 62
     7
 10
249.4676639084248
 20
182.1655857455632
 42
0.005403400979612311
  0
VERTEX
  8
0
  6
CONTINUOUS
 62
     7
 10
248.0135942464298
 20
182.238488610882
 42
0.005011271187421922
  0
VERTEX
  8
0
  6
CONTINUOUS
 62
     7
 10
246.5582068820901
 20
182.281183034491
 42
0.004832083732811102
  0
VERTEX
  8
0
  6
CONTINUOUS
 62
     7
 10
245.1022813339162
 20
182.2952880082119
 42
0.004831338334627657
  0
VERTEX
  8
0
  6
CONTINUOUS
 62
     7
 10
243.6464610732709
 20
182.2813177517493
 42
0.005006473239260163
  0
VERTEX
  8
0
  6
CONTINUOUS
 62
     7
 10
242.1920641008102
 20
182.2388020240478
 42
0.005400885097223876
  0
VERTEX
  8
0
  6
CONTINUOUS
 62
     7
 10
240.7379067445315
 20
182.1660660769974
 42
0.006091148482974497
  0
VERTEX
  8
0
  6
CONTINUOUS
 62
     7
 10
239.2858324904971
 20
182.0600658694035
 42
0.007269855108538421
  0
VERTEX
  8
0
  6
CONTINUOUS
 62
     7
 10
237.836941332498
 20
181.9155223985599
 42
0.009378779576645627
  0
VERTEX
  8
0
  6
CONTINUOUS
 62
     7
 10
236.3932258746135
 20
181.7232438543219
 42
0.01364228778892294
  0
VERTEX
  8
0
  6
CONTINUOUS
 62
     7
 10
234.9597116900558
 20
181.4659185109431
 42
0.02480857460875693
  0
VERTEX
  8
0
  6
CONTINUOUS
 62
     7
 10
233.549815764017
 20
181.1037768296283
 42
0
  0
SEQEND
  8
0
  0
POLYLINE
  8
0
  6
CONTINUOUS
 62
     7
 66
     1
 10
0
 20
0
  0
VERTEX
  8
0
  6
CONTINUOUS
 62
     7
 10
256.6372528076172
 20
172.7122802734375
 42
0.01901719329665844
  0
VERTEX
  8
0
  6
CONTINUOUS
 62
     7
 10
257.3791455647385
 20
172.9164817416466
 42
0.01048147890373235
  0
VERTEX
  8
0
  6
CONTINUOUS
 62
     7
 10
258.1078057561201
 20
173.1641941327595
 42
0.005828949537316175
  0
VERTEX
  8
0
  6
CONTINUOUS
 62
     7
 10
258.8294115514381
 20
173.432824555782
 42
0.02972247381443288
  0
VERTEX
  8
0
  6
CONTINUOUS
 62
     7
 10
259.5302505333139
 20
173.7499495933801
 42
0.05879520872839997
  0
VERTEX
  8
0
  6
CONTINUOUS
 62
     7
 10
260.1633300688101
 20
174.1843010683079
 42
0.05380222322810303
  0
VERTEX
  8
0
  6
CONTINUOUS
 62
     7
 10
260.6747251662507
 20
174.7575393175096
 42
0.04813549971090469
  0
VERTEX
  8
0
  6
CONTINUOUS
 62
     7
 10
261.0676222152833
 20
175.4188632101603
 42
0.05487659544254414
  0
VERTEX
  8
0
  6
CONTINUOUS
 62
     7
 10
261.3131623943151
 20
176.1465042260815
 42
0.05415676635067297
  0
VERTEX
  8
0
  6
CONTINUOUS
 62
     7
 10
261.3965301513672
 20
176.90966796875
 42
0.05418624781464659
  0
VERTEX
  8
0
  6
CONTINUOUS
 62
     7
 10
261.3130707262098
 20
177.6732483156352
 42
0.05488944054694594
  0
VERTEX
  8
0
  6
CONTINUOUS
 62
     7
 10
261.0673746164062
 20
178.4010046258233
 42
0.04805876225598019
  0
VERTEX
  8
0
  6
CONTINUOUS
 62
     7
 10
260.6750942698487
 20
179.0612886143707
 42
0.05381674756642502
  0
VERTEX
  8
0
  6
CONTINUOUS
 62
     7
 10
260.1635027811772
 20
179.6348814927743
 42
0.05878926351402212
  0
VERTEX
  8
0
  6
CONTINUOUS
 62
     7
 10
259.5304035253318
 20
180.0693168595233
 42
0.02971347199896662
  0
VERTEX
  8
0
  6
CONTINUOUS
 62
     7
 10
258.829902782794
 20
180.3863714445175
 42
0.005838370890084195
  0
VERTEX
  8
0
  6
CONTINUOUS
 62
     7
 10
258.1085294674041
 20
180.6549805451724
 42
0.01048739289946683
  0
VERTEX
  8
0
  6
CONTINUOUS
 62
     7
 10
257.379585255251
 20
180.9028359622951
 42
0.01901716268107613
  0
VERTEX
  8
0
  6
CONTINUOUS
 62
     7
 10
256.6377410888672
 20
181.1070556640625
 42
0
  0
SEQEND
  8
0
  0
POLYLINE
  8
0
  6
CONTINUOUS
 62
     7
 66
     1
 10
0
 20
0
  0
VERTEX
  8
0
  6
CONTINUOUS
 62
     7
 10
231.9488372802734
 20
173.8076171875
 42
0.1945678779482179
  0
VERTEX
  8
0
  6
CONTINUOUS
 62
     7
 10
234.8909793732534
 20
172.3681133773115
 42
0.02554539515689374
  0
VERTEX
  8
0
  6
CONTINUOUS
 62
     7
 10
238.2695902179362
 20
171.8562514429992
 42
0.0144691204213784
  0
VERTEX
  8
0
  6
CONTINUOUS
 62
     7
 10
241.6790003931029
 20
171.6027413968744
 42
0.01163093268933886
  0
VERTEX
  8
0
  6
CONTINUOUS
 62
     7
 10
245.0988616943359
 20
171.524169921875
 42
0.01162460429330306
  0
VERTEX
  8
0
  6
CONTINUOUS
 62
     7
 10
248.5169780043731
 20
171.6026590727082
 42
0.01447194698141188
  0
VERTEX
  8
0
  6
CONTINUOUS
 62
     7
 10
251.9274935542118
 20
171.8561830020402
 42
0.02555996167658237
  0
VERTEX
  8
0
  6
CONTINUOUS
 62
     7
 10
255.3078342479066
 20
172.3683458509101
 42
0.1952823917148923
  0
VERTEX
  8
0
  6
CONTINUOUS
 62
     7
 10
258.2488800554196
 20
173.809808167896
 42
0.1938955516856478
  0
VERTEX
  8
0
  6
CONTINUOUS
 62
     7
 10
255.3045943789593
 20
175.247580514272
 42
0.02553113147664001
  0
VERTEX
  8
0
  6
CONTINUOUS
 62
     7
 10
251.9259441584686
 20
175.7592138818558
 42
0.01446583190082248
  0
VERTEX
  8
0
  6
CONTINUOUS
 62
     7
 10
248.516522957489
 20
176.0125958354174
 42
0.01162286901853558
  0
VERTEX
  8
0
  6
CONTINUOUS
 62
     7
 10
245.0988616943359
 20
176.091064453125
 42
0.01162460429331949
  0
VERTEX
  8
0
  6
CONTINUOUS
 62
     7
 10
241.6807453842988
 20
176.0125753022918
 42
0.01447194698140305
  0
VERTEX
  8
0
  6
CONTINUOUS
 62
     7
 10
238.27022983446
 20
175.7590513729598
 42
0.02555996167655565
  0
VERTEX
  8
0
  6
CONTINUOUS
 62
     7
 10
234.8898891407652
 20
175.2468885240899
 42
0.1952823917149088
  0
VERTEX
  8
0
  6
CONTINUOUS
 62
     7
 10
231.9488433332523
 20
173.805426207104
 42
0
  0
SEQEND
  8
0
  0
TEXT
  8
0
  6
CONTINUOUS
 62
     7
 10
-286.3298306465149
 20
148.5
 40
18
 41
0.8449533945834478
  1
ＥＲＫ－Ｃ－７５０
  0
ENDSEC
  0
EOF
