  0
SECTION
  2
HEADER
  0
ENDSEC
  0
SECTION
  2
TABLES
  0
TABLE
  2
LTYPE
 70
    22
  0
LTYPE
  2
CONTINUOUS
 70
    64
  3
Solid line
 72
    65
 73
     0
 40
0.000000
  0
LTYPE
  2
DASHED
 70
    64
  3
__ __ __ __ __ __ __ __ __ __ __ __ __ __ __
 72
    65
 73
     2
 40
3.500000
 49
2.000000
 49
-1.500000
  0
LTYPE
  2
CENTER
 70
    64
  3
____ _ ____ _ ____ _ ____ _ ____ _ ____ _ ____
 72
    65
 73
     4
 40
17.500000
 49
13.000000
 49
-1.500000
 49
1.500000
 49
-1.500000
  0
LTYPE
  2
PHANTOM
 70
    64
  3
_____ _ _ _____ _ _ _____ _ _ _____ _ _ ____  
 72
    65
 73
     6
 40
15.500000
 49
8.000000
 49
-1.500000
 49
1.500000
 49
-1.500000
 49
1.500000
 49
-1.500000
  0
LTYPE
  2
DOT
 70
    64
  3
. . . . . . . . . . . . . . . . . . . . . . . .
 72
    65
 73
     2
 40
0.25
 49
0.0
 49
-0.25
  0
ENDTAB
  0
TABLE
  2
LAYER
 70
     1
  0
LAYER
  2
0
 70
     0
 62
     7
  6
CONTINUOUS
  0
ENDTAB
  0
TABLE
  2
STYLE
 70
     1
  0
STYLE
  2
STANDARD
 70
     0
 40
0.000000
 41
1.000000
 50
0.000000
 71
     0
 42
0.200000
  3
txt
  4
BIGFONT
  0
ENDTAB
  0
TABLE
  2
VIEW
 70
     0
  0
ENDTAB
  0
ENDSEC
  0
SECTION
  2
BLOCKS
  0
ENDSEC
  0
SECTION
  2
ENTITIES
  0
LINE
  8
0
  6
CONTINUOUS
 62
     3
 10
32.79874038696289
 20
-132.5
 11
301.7987365722656
 21
-132.5
  0
LINE
  8
0
  6
CONTINUOUS
 62
     7
 10
190.7987365722656
 20
-37.5
 11
232.7987365722656
 21
-37.5
  0
LINE
  8
0
  6
CONTINUOUS
 62
     7
 10
190.7987976074219
 20
-37.50006866455078
 11
186.7988128662109
 21
-41.50005340576172
  0
LINE
  8
0
  6
CONTINUOUS
 62
     7
 10
236.7987213134766
 20
-41.49997711181641
 11
232.7987213134766
 21
-37.49997329711914
  0
LINE
  8
0
  6
CONTINUOUS
 62
     7
 10
190.7987365722656
 20
-94.84613037109375
 11
232.7987365722656
 21
-94.84613037109375
  0
LINE
  8
0
  6
CONTINUOUS
 62
     7
 10
190.7987365722656
 20
-106.2876892089844
 11
232.7987365722656
 21
-106.2876892089844
  0
LINE
  8
0
  6
CONTINUOUS
 62
     7
 10
190.7987365722656
 20
-116.0312194824219
 11
232.7987365722656
 21
-116.0312194824219
  0
LINE
  8
0
  6
CONTINUOUS
 62
     7
 10
190.7987365722656
 20
-127.5005187988281
 11
232.7987365722656
 21
-127.5005187988281
  0
LINE
  8
0
  6
CONTINUOUS
 62
     7
 10
190.7987365722656
 20
-137.5001220703125
 11
232.7987365722656
 21
-137.5001220703125
  0
LINE
  8
0
  6
CONTINUOUS
 62
     7
 10
190.7987365722656
 20
-148.9694519042969
 11
232.7987365722656
 21
-148.9694519042969
  0
LINE
  8
0
  6
CONTINUOUS
 62
     7
 10
190.7987365722656
 20
-158.7124633789062
 11
232.7987365722656
 21
-158.7124633789062
  0
LINE
  8
0
  6
CONTINUOUS
 62
     7
 10
194.3576965332031
 20
-170.1537170410156
 11
232.7987365722656
 21
-170.1537170410156
  0
LINE
  8
0
  6
CONTINUOUS
 62
     7
 10
210.3450622558594
 20
-189.2067260742188
 11
232.7987365722656
 21
-189.2067260742188
  0
LINE
  8
0
  6
CONTINUOUS
 62
     7
 10
218.1194152832031
 20
-198.4718017578125
 11
232.7987365722656
 21
-198.4718017578125
  0
LINE
  8
0
  6
CONTINUOUS
 62
     7
 10
223.8432312011719
 20
-205.2931823730469
 11
232.7987365722656
 21
-205.2931823730469
  0
LINE
  8
0
  6
CONTINUOUS
 62
     7
 10
229.6038818359375
 20
-212.1584777832031
 11
232.7987365722656
 21
-212.1584777832031
  0
LINE
  8
0
  6
CONTINUOUS
 62
     7
 10
105.7987365722656
 20
-70
 11
127.7987365722656
 21
-70
  0
LINE
  8
0
  6
CONTINUOUS
 62
     7
 10
105.7987365722656
 20
-195
 11
127.7987365722656
 21
-195
  0
LINE
  8
0
  6
CONTINUOUS
 62
     7
 10
186.7987365722656
 20
-40
 11
186.7987365722656
 21
-161.1453247070313
  0
LINE
  8
0
  6
CONTINUOUS
 62
     7
 10
117.7987365722656
 20
-225.5
 11
117.7987365722656
 21
-247.5
  0
LINE
  8
0
  6
CONTINUOUS
 62
     7
 10
117.7987365722656
 20
-247.5
 11
287.7987365722656
 21
-247.5
  0
LINE
  8
0
  6
CONTINUOUS
 62
     7
 10
287.7987365722656
 20
-225.5
 11
287.7987365722656
 21
-247.5
  0
LINE
  8
0
  6
CONTINUOUS
 62
     7
 10
117.7987365722656
 20
-225.5
 11
156.7987365722656
 21
-225.5
  0
LINE
  8
0
  6
CONTINUOUS
 62
     7
 10
105.7987365722656
 20
-70
 11
105.7987365722656
 21
-79.80374145507813
  0
LINE
  8
0
  6
CONTINUOUS
 62
     7
 10
171.7987365722656
 20
-40
 11
171.7987365722656
 21
-117.8508911132812
  0
LINE
  8
0
  6
CONTINUOUS
 62
     7
 10
127.7987594604492
 20
-194.9999084472656
 11
130.4549713134766
 21
-195.1391143798828
  0
LINE
  8
0
  6
CONTINUOUS
 62
     7
 10
171.7987365722656
 20
-40
 11
186.7987365722656
 21
-40
  0
LINE
  8
0
  6
CONTINUOUS
 62
     7
 10
161.7987365722656
 20
-130.5
 11
161.7987365722656
 21
-220.5
  0
LINE
  8
0
  6
CONTINUOUS
 62
     7
 10
186.7987060546875
 20
-161.1452484130859
 11
231.8066253662109
 21
-214.7835998535156
  0
LINE
  8
0
  6
CONTINUOUS
 62
     7
 10
128.1980590820313
 20
-220.9358062744141
 11
132.4069366455078
 21
-172.828125
  0
LINE
  8
0
  6
CONTINUOUS
 62
     7
 10
102.7987365722656
 20
-85.00003051757812
 11
102.7987365722656
 21
-180
  0
LINE
  8
0
  6
CONTINUOUS
 62
     7
 10
102.7986297607422
 20
-85.00003051757812
 11
105.7986145019531
 21
-79.80390167236328
  0
LINE
  8
0
  6
CONTINUOUS
 62
     7
 10
102.7986679077148
 20
-179.9999542236328
 11
105.7986373901367
 21
-185.1960601806641
  0
LINE
  8
0
  6
CONTINUOUS
 62
     3
 10
137.7987365722656
 20
-217.633544921875
 11
137.7987365722656
 21
-254.395751953125
  0
LINE
  8
0
  6
CONTINUOUS
 62
     7
 10
87.79873657226563
 20
-110.5
 11
87.79873657226563
 21
-113.5
  0
LINE
  8
0
  6
CONTINUOUS
 62
     7
 10
42.79874038696289
 20
-110.5
 11
42.79874038696289
 21
-151.5
  0
LINE
  8
0
  6
CONTINUOUS
 62
     7
 10
42.79874038696289
 20
-113.5
 11
97.79873657226563
 21
-113.5
  0
LINE
  8
0
  6
CONTINUOUS
 62
     7
 10
42.79874038696289
 20
-151.5
 11
97.79873657226563
 21
-151.5
  0
LINE
  8
0
  6
CONTINUOUS
 62
     7
 10
97.79873657226563
 20
-110
 11
97.79873657226563
 21
-155
  0
LINE
  8
0
  6
CONTINUOUS
 62
     7
 10
97.79873657226563
 20
-110
 11
102.7987365722656
 21
-110
  0
LINE
  8
0
  6
CONTINUOUS
 62
     7
 10
97.79873657226563
 20
-155
 11
102.7987365722656
 21
-155
  0
LINE
  8
0
  6
CONTINUOUS
 62
     7
 10
42.79874038696289
 20
-110.5
 11
87.79873657226563
 21
-110.5
  0
LINE
  8
0
  6
DASHED
 62
     7
 10
145.2987365722656
 20
-225.5
 11
145.2987365722656
 21
-247.5
  0
LINE
  8
0
  6
DASHED
 62
     7
 10
130.2987365722656
 20
-225.5
 11
130.2987365722656
 21
-247.5
  0
LINE
  8
0
  6
DASHED
 62
     7
 10
275.2987365722656
 20
-225.5
 11
275.2987365722656
 21
-247.5
  0
LINE
  8
0
  6
DASHED
 62
     7
 10
260.2987365722656
 20
-225.5
 11
260.2987365722656
 21
-247.5
  0
LINE
  8
0
  6
CONTINUOUS
 62
     7
 10
127.7987213134766
 20
-69.99996185302734
 11
167.0603942871094
 21
-67.94234466552734
  0
LINE
  8
0
  6
CONTINUOUS
 62
     7
 10
254.7879638671875
 20
-225.5
 11
287.7987365722656
 21
-225.5
  0
LINE
  8
0
  6
CONTINUOUS
 62
     7
 10
105.7987365722656
 20
-185.1961975097656
 11
105.7987365722656
 21
-195
  0
LINE
  8
0
  6
CONTINUOUS
 62
     7
 10
236.7987365722656
 20
-40
 11
236.7987365722656
 21
-219.508056640625
  0
LINE
  8
0
  6
CONTINUOUS
 62
     3
 10
267.7987365722656
 20
-217.633544921875
 11
267.7987365722656
 21
-254.395751953125
  0
LINE
  8
0
  6
CONTINUOUS
 62
     3
 10
32.09873962402344
 20
157.5
 11
301.098876953125
 21
157.5
  0
LINE
  8
0
  6
CONTINUOUS
 62
     7
 10
186.0987396240234
 20
256.1522216796875
 11
186.0987396240234
 21
58.84767913818359
  0
LINE
  8
0
  6
CONTINUOUS
 62
     7
 10
190.0987396240234
 20
62.5
 11
232.0987396240234
 21
62.5
  0
LINE
  8
0
  6
CONTINUOUS
 62
     7
 10
190.0987396240234
 20
252.5
 11
232.0987396240234
 21
252.5
  0
LINE
  8
0
  6
CONTINUOUS
 62
     7
 10
190.0989074707031
 20
252.4998626708984
 11
186.0989074707031
 21
248.4998626708984
  0
LINE
  8
0
  6
CONTINUOUS
 62
     7
 10
186.0986938476562
 20
66.50005340576172
 11
190.0986938476562
 21
62.50004959106445
  0
LINE
  8
0
  6
CONTINUOUS
 62
     7
 10
232.0988159179688
 20
62.49995040893555
 11
236.0988159179687
 21
66.49995422363281
  0
LINE
  8
0
  6
CONTINUOUS
 62
     7
 10
236.0986938476563
 20
248.5000305175781
 11
232.0986938476563
 21
252.5000305175781
  0
LINE
  8
0
  6
CONTINUOUS
 62
     7
 10
190.0987091064453
 20
244.7189636230469
 11
232.0988311767578
 21
244.7189636230469
  0
LINE
  8
0
  6
CONTINUOUS
 62
     7
 10
190.0987091064453
 20
233.7187805175781
 11
232.0988311767578
 21
233.7187805175781
  0
LINE
  8
0
  6
CONTINUOUS
 62
     7
 10
190.0987091064453
 20
225.8566284179688
 11
232.0988311767578
 21
225.8566284179688
  0
LINE
  8
0
  6
CONTINUOUS
 62
     7
 10
190.0987091064453
 20
218.5436401367188
 11
232.0988311767578
 21
218.5436401367188
  0
LINE
  8
0
  6
CONTINUOUS
 62
     7
 10
190.0987091064453
 20
209.2644958496094
 11
232.0988311767578
 21
209.2644958496094
  0
LINE
  8
0
  6
CONTINUOUS
 62
     7
 10
190.0987091064453
 20
200.6044311523438
 11
232.0988311767578
 21
200.6044311523438
  0
LINE
  8
0
  6
CONTINUOUS
 62
     7
 10
190.0987091064453
 20
190.0186462402344
 11
232.0988311767578
 21
190.0186462402344
  0
LINE
  8
0
  6
CONTINUOUS
 62
     7
 10
190.0987091064453
 20
180.4557495117187
 11
232.0988311767578
 21
180.4557495117187
  0
LINE
  8
0
  6
CONTINUOUS
 62
     7
 10
190.0987091064453
 20
168.5000610351563
 11
232.0988311767578
 21
168.5000610351563
  0
LINE
  8
0
  6
CONTINUOUS
 62
     7
 10
190.0987091064453
 20
70.28070068359375
 11
232.0988311767578
 21
70.28070068359375
  0
LINE
  8
0
  6
CONTINUOUS
 62
     7
 10
127.0987396240234
 20
219.9999389648437
 11
166.3604125976563
 21
222.0575561523438
  0
LINE
  8
0
  6
CONTINUOUS
 62
     7
 10
117.0987396240234
 20
259.4999694824219
 11
117.0987396240234
 21
219.9999694824219
  0
LINE
  8
0
  6
CONTINUOUS
 62
     7
 10
287.0987548828125
 20
259.4999694824219
 11
287.0987548828125
 21
237.5
  0
LINE
  8
0
  6
CONTINUOUS
 62
     7
 10
279.0987548828125
 20
267.4999694824219
 11
125.0987396240234
 21
267.4999694824219
  0
LINE
  8
0
  6
CONTINUOUS
 62
     7
 10
279.0987548828125
 20
47.5
 11
125.0987396240234
 21
47.5
  0
LINE
  8
0
  6
CONTINUOUS
 62
     7
 10
127.0987396240234
 20
219.9999694824219
 11
105.0987396240234
 21
219.9999694824219
  0
LINE
  8
0
  6
CONTINUOUS
 62
     7
 10
127.0987396240234
 20
95
 11
105.0987396240234
 21
95
  0
LINE
  8
0
  6
CONTINUOUS
 62
     7
 10
105.0987396240234
 20
219.9999694824219
 11
105.0987396240234
 21
210.1961975097656
  0
LINE
  8
0
  6
CONTINUOUS
 62
     7
 10
171.0987396240234
 20
249.3382263183594
 11
171.0987396240234
 21
65.66177368164063
  0
LINE
  8
0
  6
CONTINUOUS
 62
     7
 10
287.0987548828125
 20
77.5
 11
287.0987548828125
 21
55.5
  0
LINE
  8
0
  6
CONTINUOUS
 62
     7
 10
117.0987396240234
 20
95
 11
117.0987396240234
 21
55.5
  0
LINE
  8
0
  6
CONTINUOUS
 62
     7
 10
161.0987396240234
 20
93.21817016601563
 11
161.0987396240234
 21
47.5
  0
LINE
  8
0
  6
CONTINUOUS
 62
     7
 10
161.0987396240234
 20
221.7818298339844
 11
161.0987396240234
 21
267.4999694824219
  0
LINE
  8
0
  6
CONTINUOUS
 62
     3
 10
150.4700775146484
 20
67.5
 11
125.0987396240234
 21
67.5
  0
LINE
  8
0
  6
CONTINUOUS
 62
     3
 10
137.0987396240234
 20
80.66946411132812
 11
137.0987396240234
 21
55.5
  0
LINE
  8
0
  6
CONTINUOUS
 62
     3
 10
253.7274017333984
 20
67.5
 11
279.0987548828125
 21
67.5
  0
LINE
  8
0
  6
CONTINUOUS
 62
     3
 10
267.0987548828125
 20
80.66946411132812
 11
267.0987548828125
 21
55.5
  0
LINE
  8
0
  6
CONTINUOUS
 62
     3
 10
150.4700775146484
 20
247.4999694824219
 11
125.0987396240234
 21
247.4999694824219
  0
LINE
  8
0
  6
CONTINUOUS
 62
     3
 10
137.0987396240234
 20
234.3305358886719
 11
137.0987396240234
 21
259.4999694824219
  0
LINE
  8
0
  6
CONTINUOUS
 62
     3
 10
253.7274017333984
 20
247.4999694824219
 11
279.0987548828125
 21
247.4999694824219
  0
LINE
  8
0
  6
CONTINUOUS
 62
     3
 10
267.0987548828125
 20
234.3305358886719
 11
267.0987548828125
 21
259.4999694824219
  0
LINE
  8
0
  6
CONTINUOUS
 62
     7
 10
42.09873962402344
 20
176.5
 11
42.09873962402344
 21
138.5
  0
LINE
  8
0
  6
CONTINUOUS
 62
     7
 10
42.09873962402344
 20
176.5
 11
97.09873962402344
 21
176.5
  0
LINE
  8
0
  6
CONTINUOUS
 62
     7
 10
42.09873962402344
 20
138.5
 11
97.09873962402344
 21
138.5
  0
LINE
  8
0
  6
CONTINUOUS
 62
     7
 10
97.09873962402344
 20
180
 11
97.09873962402344
 21
135
  0
LINE
  8
0
  6
CONTINUOUS
 62
     7
 10
97.09873962402344
 20
180
 11
102.0987396240234
 21
180
  0
LINE
  8
0
  6
CONTINUOUS
 62
     7
 10
97.09873962402344
 20
135
 11
102.0987396240234
 21
135
  0
LINE
  8
0
  6
CONTINUOUS
 62
     7
 10
90.09873962402344
 20
152.5
 11
42.09873962402344
 21
152.5
  0
LINE
  8
0
  6
CONTINUOUS
 62
     7
 10
90.09873962402344
 20
162.5
 11
42.09873962402344
 21
162.5
  0
LINE
  8
0
  6
CONTINUOUS
 62
     7
 10
87.09873962402344
 20
162.5
 11
87.09873962402344
 21
152.5
  0
LINE
  8
0
  6
CONTINUOUS
 62
     7
 10
127.0987701416016
 20
95.00004577636719
 11
166.3604431152344
 21
92.94242858886719
  0
LINE
  8
0
  6
CONTINUOUS
 62
     7
 10
102.0987167358398
 20
110.0000457763672
 11
105.0986862182617
 21
104.8039474487305
  0
LINE
  8
0
  6
CONTINUOUS
 62
     7
 10
102.0987396240234
 20
204.9999694824219
 11
102.0987396240234
 21
110
  0
LINE
  8
0
  6
CONTINUOUS
 62
     7
 10
102.0986785888672
 20
204.9999847412109
 11
105.0986633300781
 21
210.1961059570313
  0
LINE
  8
0
  6
CONTINUOUS
 62
     7
 10
171.0987396240234
 20
249.3382263183594
 11
161.0987396240234
 21
249.3382263183594
  0
LINE
  8
0
  6
CONTINUOUS
 62
     7
 10
171.0987396240234
 20
65.66177368164063
 11
161.0987396240234
 21
65.66177368164063
  0
LINE
  8
0
  6
CONTINUOUS
 62
     7
 10
186.0987548828125
 20
256.1522216796875
 11
240.0987701416016
 21
267.4998779296875
  0
LINE
  8
0
  6
CONTINUOUS
 62
     7
 10
186.0987396240234
 20
58.84769439697266
 11
240.0987243652344
 21
47.50003814697266
  0
LINE
  8
0
  6
CONTINUOUS
 62
     7
 10
105.0987396240234
 20
104.8038635253906
 11
105.0987396240234
 21
95
  0
LINE
  8
0
  6
CONTINUOUS
 62
     7
 10
236.0988616943359
 20
65.00003051757813
 11
236.0988616943359
 21
172.1427612304687
  0
LINE
  8
0
  6
CONTINUOUS
 62
     3
 10
-317.2012634277344
 20
-132.5
 11
-97.20126342773437
 21
-132.5
  0
LINE
  8
0
  6
CONTINUOUS
 62
     3
 10
-207.2012634277344
 20
-22.5
 11
-207.2012634277344
 21
-254.5
  0
LINE
  8
0
  6
CONTINUOUS
 62
     7
 10
-113.6396255493164
 20
-116.0312347412109
 11
-115.9943161010742
 21
-117.0875244140625
  0
LINE
  8
0
  6
CONTINUOUS
 62
     7
 10
-115.889274597168
 20
-106.2876434326172
 11
-118.4685211181641
 21
-106.3704528808594
  0
LINE
  8
0
  6
CONTINUOUS
 62
     7
 10
-119.98193359375
 20
-94.84613037109375
 11
-121.8683471679688
 21
-96.79914855957031
  0
LINE
  8
0
  6
CONTINUOUS
 62
     7
 10
-218.2012939453125
 20
-38.13895797729492
 11
-218.9494323730469
 21
-40.74906921386719
  0
LINE
  8
0
  6
CONTINUOUS
 62
     7
 10
-230.1569976806641
 20
-40.3154182434082
 11
-228.9391021728516
 21
-42.59048080444336
  0
LINE
  8
0
  6
CONTINUOUS
 62
     7
 10
-239.7198944091797
 20
-43.23880386352539
 11
-239.4573059082031
 21
-45.80628204345703
  0
LINE
  8
0
  6
CONTINUOUS
 62
     7
 10
-250.3057098388672
 20
-47.84214782714844
 11
-248.6072998046875
 21
-49.78489303588867
  0
LINE
  8
0
  6
CONTINUOUS
 62
     7
 10
-258.9657592773437
 20
-52.84161376953125
 11
-258.13232421875
 21
-55.28421783447266
  0
LINE
  8
0
  6
CONTINUOUS
 62
     7
 10
-268.244873046875
 20
-59.70851898193359
 11
-266.153076171875
 21
-61.21934127807617
  0
LINE
  8
0
  6
CONTINUOUS
 62
     7
 10
-275.5578918457031
 20
-66.52747344970703
 11
-274.1964111328125
 21
-68.71991729736328
  0
LINE
  8
0
  6
CONTINUOUS
 62
     7
 10
-283.4200134277344
 20
-75.79248809814453
 11
-280.7853088378906
 21
-76.44969940185547
  0
LINE
  8
0
  6
CONTINUOUS
 62
     7
 10
-294.4202270507812
 20
-94.84603118896484
 11
-292.5339965820312
 21
-96.79885101318359
  0
LINE
  8
0
  6
CONTINUOUS
 62
     7
 10
-298.5133056640625
 20
-106.2866592407227
 11
-295.9336853027344
 21
-106.3695068359375
  0
LINE
  8
0
  6
CONTINUOUS
 62
     7
 10
-300.7633361816406
 20
-116.0323181152344
 11
-298.4083862304688
 21
-117.0887451171875
  0
LINE
  8
0
  6
CONTINUOUS
 62
     3
 10
-130.8622283935547
 20
-88.42523956298828
 11
-149.1120452880859
 21
-98.96176910400391
  0
LINE
  8
0
  6
CONTINUOUS
 62
     7
 10
-317.2012634277344
 20
-247.5
 11
-262.2012634277344
 21
-247.5
  0
LINE
  8
0
  6
CONTINUOUS
 62
     7
 10
-317.2012634277344
 20
-225.5
 11
-262.2012634277344
 21
-225.5
  0
LINE
  8
0
  6
CONTINUOUS
 62
     7
 10
-317.2012634277344
 20
-225.5
 11
-317.2012634277344
 21
-247.5
  0
LINE
  8
0
  6
CONTINUOUS
 62
     7
 10
-97.20126342773437
 20
-225.5
 11
-97.20126342773437
 21
-247.5
  0
LINE
  8
0
  6
CONTINUOUS
 62
     7
 10
-262.2012634277344
 20
-225.5
 11
-262.2012634277344
 21
-247.5
  0
LINE
  8
0
  6
CONTINUOUS
 62
     7
 10
-152.2012634277344
 20
-225.5
 11
-152.2012634277344
 21
-247.5
  0
LINE
  8
0
  6
CONTINUOUS
 62
     7
 10
-259.2012634277344
 20
-244.5
 11
-155.2012634277344
 21
-244.5
  0
LINE
  8
0
  6
CONTINUOUS
 62
     7
 10
-152.2012634277344
 20
-225.5
 11
-97.20126342773437
 21
-225.5
  0
LINE
  8
0
  6
CONTINUOUS
 62
     7
 10
-152.2012634277344
 20
-247.5
 11
-97.20126342773437
 21
-247.5
  0
LINE
  8
0
  6
CONTINUOUS
 62
     7
 10
-162.8123168945313
 20
-185.8988037109375
 11
-152.2012176513672
 21
-225.4999542236328
  0
LINE
  8
0
  6
CONTINUOUS
 62
     7
 10
-154.7724761962891
 20
-169.5393371582031
 11
-140.7708892822266
 21
-221.7940216064453
  0
LINE
  8
0
  6
CONTINUOUS
 62
     7
 10
-141.3890075683594
 20
-122.5
 11
-119.5584411621094
 21
-122.5
  0
LINE
  8
0
  6
CONTINUOUS
 62
     7
 10
-141.3890075683594
 20
-142.5
 11
-126.1861267089844
 21
-142.5
  0
LINE
  8
0
  6
CONTINUOUS
 62
     7
 10
-114.6343307495117
 20
-126.631706237793
 11
-97.20117950439453
 21
-225.4999694824219
  0
LINE
  8
0
  6
CONTINUOUS
 62
     7
 10
-121.2620468139648
 20
-146.6317596435547
 11
-108.3901824951172
 21
-219.6317138671875
  0
LINE
  8
0
  6
CONTINUOUS
 62
     7
 10
-251.5901031494141
 20
-185.8988494873047
 11
-262.2012023925781
 21
-225.4999847412109
  0
LINE
  8
0
  6
CONTINUOUS
 62
     7
 10
-259.6299438476562
 20
-169.5394592285156
 11
-273.6315307617187
 21
-221.7940521240234
  0
LINE
  8
0
  6
CONTINUOUS
 62
     7
 10
-273.0135192871094
 20
-122.5
 11
-294.8440856933594
 21
-122.5
  0
LINE
  8
0
  6
CONTINUOUS
 62
     7
 10
-273.0135192871094
 20
-142.5
 11
-288.2164001464844
 21
-142.5
  0
LINE
  8
0
  6
CONTINUOUS
 62
     7
 10
-299.7678527832031
 20
-126.6317977905273
 11
-317.2009887695313
 21
-225.5000305175781
  0
LINE
  8
0
  6
CONTINUOUS
 62
     7
 10
-293.1401977539063
 20
-146.6318206787109
 11
-306.0120544433594
 21
-219.6318054199219
  0
LINE
  8
0
  6
CONTINUOUS
 62
     3
 10
-283.54052734375
 20
-88.42551422119141
 11
-265.2906799316406
 21
-98.96207427978516
  0
LINE
  8
0
  6
CONTINUOUS
 62
     3
 10
-283.5404968261719
 20
-176.5742340087891
 11
-265.2907409667969
 21
-166.0377349853516
  0
LINE
  8
0
  6
CONTINUOUS
 62
     3
 10
-130.8619842529297
 20
-176.5744934082031
 11
-149.1117858886719
 21
-166.0379638671875
  0
LINE
  8
0
  6
CONTINUOUS
 62
     3
 10
-297.2012634277344
 20
-218.6009826660156
 11
-297.2012634277344
 21
-256.3306274414063
  0
LINE
  8
0
  6
CONTINUOUS
 62
     3
 10
-117.2012634277344
 20
-218.6009826660156
 11
-117.2012634277344
 21
-256.3306274414063
  0
LINE
  8
0
  6
CONTINUOUS
 62
     7
 10
-212.2012634277344
 20
-110.5
 11
-212.2012634277344
 21
-118.5
  0
LINE
  8
0
  6
CONTINUOUS
 62
     7
 10
-202.2012634277344
 20
-110.5
 11
-202.2012634277344
 21
-118.5
  0
LINE
  8
0
  6
CONTINUOUS
 62
     7
 10
-212.2012634277344
 20
-118.5
 11
-202.2012634277344
 21
-118.5
  0
LINE
  8
0
  6
CONTINUOUS
 62
     7
 10
-212.2012634277344
 20
-110.5
 11
-202.2012634277344
 21
-110.5
  0
LINE
  8
0
  6
DASHED
 62
     7
 10
-289.7012634277344
 20
-225.5
 11
-289.7012634277344
 21
-247.5
  0
LINE
  8
0
  6
DASHED
 62
     7
 10
-304.7012634277344
 20
-225.5
 11
-304.7012634277344
 21
-247.5
  0
LINE
  8
0
  6
DASHED
 62
     7
 10
-124.7012634277344
 20
-225.5
 11
-124.7012634277344
 21
-247.5
  0
LINE
  8
0
  6
DASHED
 62
     7
 10
-109.7012634277344
 20
-225.5
 11
-109.7012634277344
 21
-247.5
  0
LINE
  8
0
  6
CONTINUOUS
 62
     7
 10
-112.3330841064453
 20
-127.5005111694336
 11
-114.5780410766602
 21
-127.0575790405273
  0
LINE
  8
0
  6
CONTINUOUS
 62
     7
 10
-302.0696411132812
 20
-127.5001068115234
 11
-299.8435668945313
 21
-127.0609283447266
  0
LINE
  8
0
  6
CONTINUOUS
 62
     7
 10
236.0988616943359
 20
181.6766967773437
 11
236.0988616943359
 21
250
  0
LINE
  8
0
  6
CONTINUOUS
 62
     7
 10
249.3336181640625
 20
-225
 11
254.7987365722656
 21
-225
  0
LINE
  8
0
  6
CONTINUOUS
 62
     7
 10
-223.2637176513672
 20
-41.40520477294922
 11
-225.5806274414062
 21
-39.78288650512695
  0
LINE
  8
0
  6
CONTINUOUS
 62
     7
 10
-223.6110534667969
 20
-39.43559646606445
 11
-221.2941436767578
 21
-41.05791854858398
  0
LINE
  8
0
  6
CONTINUOUS
 62
     7
 10
-230.0227508544922
 20
-40.56618881225586
 11
-218.3047790527344
 21
-38.49999618530273
  0
LINE
  8
0
  6
CONTINUOUS
 62
     7
 10
-231.9486541748047
 20
-10.29064083099365
 11
-227.0604553222656
 21
-38.01300430297852
  0
LINE
  8
0
  6
CONTINUOUS
 62
     7
 10
-225.7443695068359
 20
-9.196659088134766
 11
-220.8561706542969
 21
-36.91902160644531
  0
LINE
  8
0
  6
CONTINUOUS
 62
     7
 10
-231.489501953125
 20
-36.5867919921875
 11
-231.489501953125
 21
-40.65729904174805
  0
LINE
  8
0
  6
CONTINUOUS
 62
     7
 10
-227.7631072998047
 20
-34.02822494506836
 11
-230.9538421630859
 21
-35.7010612487793
  0
LINE
  8
0
  6
CONTINUOUS
 62
     7
 10
-221.5587921142578
 20
-32.93431091308594
 11
-217.9883117675781
 21
-33.41497421264648
  0
LINE
  8
0
  6
CONTINUOUS
 62
     7
 10
-217.1820373535156
 20
-34.06405639648438
 11
-215.7898712158203
 21
-37.88903045654297
  0
LINE
  8
0
  6
CONTINUOUS
 62
     7
 10
-221.2060699462891
 20
-53.07471084594727
 11
-230.1759643554688
 21
-2.203956127166748
  0
LINE
  8
0
  6
CONTINUOUS
 62
     7
 10
279.7987365722656
 20
-52.5
 11
291.7987365722656
 21
-52.5
  0
LINE
  8
0
  6
CONTINUOUS
 62
     7
 10
291.7987365722656
 20
-212.5
 11
291.7987365722656
 21
-52.5
  0
LINE
  8
0
  6
CONTINUOUS
 62
     7
 10
279.7987365722656
 20
-212.5
 11
291.7987365722656
 21
-212.5
  0
LINE
  8
0
  6
CONTINUOUS
 62
     7
 10
245.7987365722656
 20
-2.9805908203125
 11
245.7987365722656
 21
-43.633544921875
  0
LINE
  8
0
  6
CONTINUOUS
 62
     7
 10
226.0427398681641
 20
-22.8936767578125
 11
265.5502624511719
 21
-22.8936767578125
  0
LINE
  8
0
  6
CONTINUOUS
 62
     7
 10
279.7987365722656
 20
-212.5
 11
279.7987365722656
 21
-52.5
  0
LINE
  8
0
  6
CONTINUOUS
 62
     7
 10
254.7987365722656
 20
-225
 11
254.7987365722656
 21
-40
  0
LINE
  8
0
  6
CONTINUOUS
 62
     7
 10
236.7987365722656
 20
-40
 11
254.7987365722656
 21
-40
  0
LINE
  8
0
  6
CONTINUOUS
 62
     7
 10
249.3336181640625
 20
-225
 11
254.7987365722656
 21
-225
  0
LINE
  8
0
  6
CONTINUOUS
 62
     7
 10
259.7987365722656
 20
-82.5
 11
274.7987365722656
 21
-82.5
  0
LINE
  8
0
  6
CONTINUOUS
 62
     7
 10
259.7987365722656
 20
-182.5
 11
274.7987365722656
 21
-182.5
  0
LINE
  8
0
  6
CONTINUOUS
 62
     7
 10
254.7987365722656
 20
-205.5
 11
279.7987365722656
 21
-205.5
  0
LINE
  8
0
  6
CONTINUOUS
 62
     7
 10
254.7987365722656
 20
-59.5
 11
279.7987365722656
 21
-59.5
  0
LINE
  8
0
  6
CONTINUOUS
 62
     7
 10
254.7987365722656
 20
-137.5
 11
279.7987365722656
 21
-137.5
  0
LINE
  8
0
  6
CONTINUOUS
 62
     7
 10
254.7987365722656
 20
-127.5
 11
279.7987365722656
 21
-127.5
  0
LINE
  8
0
  6
CONTINUOUS
 62
     7
 10
246.1389465332031
 20
-32.8879508972168
 11
251.9289855957031
 21
-35.01657485961914
  0
LINE
  8
0
  6
CONTINUOUS
 62
     7
 10
239.6684875488281
 20
-35.01652145385742
 11
245.4585113525391
 21
-32.88790130615234
  0
LINE
  8
0
  6
CONTINUOUS
 62
     7
 10
240.3585662841797
 20
-34.8936767578125
 11
251.2389068603516
 21
-34.8936767578125
  0
LINE
  8
0
  6
CONTINUOUS
 62
     7
 10
253.20849609375
 20
-36.54626083374023
 11
253.7987060546875
 21
-39.89355087280273
  0
LINE
  8
0
  6
CONTINUOUS
 62
     7
 10
237.7987213134766
 20
-39.89365005493164
 11
238.3889465332031
 21
-36.54636001586914
  0
LINE
  8
0
  6
CONTINUOUS
 62
     7
 10
254.0988616943359
 20
152.5
 11
279.098876953125
 21
152.5
  0
LINE
  8
0
  6
CONTINUOUS
 62
     7
 10
291.098876953125
 20
77.5
 11
291.098876953125
 21
237.5
  0
LINE
  8
0
  6
CONTINUOUS
 62
     7
 10
254.0988616943359
 20
84.5
 11
279.098876953125
 21
84.5
  0
LINE
  8
0
  6
CONTINUOUS
 62
     7
 10
259.098876953125
 20
207.5
 11
274.098876953125
 21
207.5
  0
LINE
  8
0
  6
CONTINUOUS
 62
     7
 10
259.098876953125
 20
107.5
 11
274.098876953125
 21
107.5
  0
LINE
  8
0
  6
CONTINUOUS
 62
     7
 10
236.0988616943359
 20
250
 11
254.0988616943359
 21
250
  0
LINE
  8
0
  6
CONTINUOUS
 62
     7
 10
254.0988616943359
 20
65
 11
254.0988616943359
 21
172.0948486328125
  0
LINE
  8
0
  6
CONTINUOUS
 62
     7
 10
236.0988616943359
 20
65
 11
254.0988616943359
 21
65
  0
LINE
  8
0
  6
CONTINUOUS
 62
     7
 10
254.0988616943359
 20
230.5
 11
279.098876953125
 21
230.5
  0
LINE
  8
0
  6
CONTINUOUS
 62
     7
 10
279.098876953125
 20
77.5
 11
279.098876953125
 21
237.5
  0
LINE
  8
0
  6
CONTINUOUS
 62
     7
 10
254.0988616943359
 20
162.5
 11
279.098876953125
 21
162.5
  0
LINE
  8
0
  6
CONTINUOUS
 62
     7
 10
279.098876953125
 20
237.5
 11
291.098876953125
 21
237.5
  0
LINE
  8
0
  6
CONTINUOUS
 62
     7
 10
253.5988616943359
 20
209.385498046875
 11
253.5988616943359
 21
209.280029296875
  0
LINE
  8
0
  6
CONTINUOUS
 62
     7
 10
254.0988616943359
 20
181.6287841796875
 11
254.0988616943359
 21
250
  0
LINE
  8
0
  6
CONTINUOUS
 62
     7
 10
279.098876953125
 20
77.5
 11
291.098876953125
 21
77.5
  0
ARC
  8
0
  6
CONTINUOUS
 62
     7
 10
156.7987365722656
 20
-220.5
 40
4.99999999999999
 50
270.0000179860893
 51
0
  0
ARC
  8
0
  6
CONTINUOUS
 62
     7
 10
169.7987365722656
 20
-130.5
 40
8.000000000000004
 50
103.3424218782613
 51
179.9999640278213
  0
ARC
  8
0
  6
CONTINUOUS
 62
     7
 10
166.7987365722656
 20
-117.8508911132812
 40
5.000000000000002
 50
283.3423007560891
 51
0
  0
ARC
  8
0
  6
CONTINUOUS
 62
     7
 10
254.7879638671875
 20
-195.5
 40
30.00000000000001
 50
220.0000006576045
 51
270.0000179860893
  0
ARC
  8
0
  6
CONTINUOUS
 62
     7
 10
123.2170715332031
 20
-220.5
 40
4.99999999999999
 50
270.0000179860893
 51
355.0000172209265
  0
ARC
  8
0
  6
CONTINUOUS
 62
     7
 10
127.4259338378906
 20
-172.392333984375
 40
5.000000000000012
 50
355.0000479567776
 51
89.99998201391064
  0
ARC
  8
0
  6
CONTINUOUS
 62
     7
 10
166.7987365722656
 20
-62.94927978515625
 40
4.999999999999996
 50
273.000000994099
 51
0
  0
ARC
  8
0
  6
CONTINUOUS
 62
     7
 10
125.0987396240234
 20
259.4999694824219
 40
7.999999999999996
 50
89.99998201391065
 51
179.9999640278211
  0
ARC
  8
0
  6
CONTINUOUS
 62
     7
 10
125.0987396240234
 20
55.5
 40
7.999999999999996
 50
179.9999776881997
 51
270.000028004002
  0
ARC
  8
0
  6
CONTINUOUS
 62
     7
 10
279.0987548828125
 20
55.5
 40
8.000000000000004
 50
270.0000179860895
 51
0
  0
ARC
  8
0
  6
CONTINUOUS
 62
     7
 10
279.0987548828125
 20
259.4999694824219
 40
8
 50
0
 51
89.99998201391055
  0
CIRCLE
  8
0
  6
CONTINUOUS
 62
     7
 10
137.0987396240234
 20
67.5
 40
7.5
  0
CIRCLE
  8
0
  6
CONTINUOUS
 62
     7
 10
267.0987548828125
 20
67.5
 40
7.5
  0
CIRCLE
  8
0
  6
CONTINUOUS
 62
     7
 10
137.0987396240234
 20
247.4999694824219
 40
7.5
  0
CIRCLE
  8
0
  6
CONTINUOUS
 62
     7
 10
267.0987548828125
 20
247.4999694824219
 40
7.5
  0
ARC
  8
0
  6
CONTINUOUS
 62
     7
 10
90.09873962402344
 20
157.5
 40
4.99999999999999
 50
270.0000179860893
 51
89.99998201391064
  0
ARC
  8
0
  6
CONTINUOUS
 62
     7
 10
166.0987396240234
 20
227.0507507324219
 40
5.00000000000001
 50
273.000000994099
 51
0
  0
ARC
  8
0
  6
CONTINUOUS
 62
     7
 10
166.0987396240234
 20
87.94927978515625
 40
5
 50
0
 51
86.99999900590097
  0
ARC
  8
0
  6
CONTINUOUS
 62
     7
 10
-207.2012634277344
 20
-132.5
 40
95
 50
9.983048887120244
 51
16.01707022634129
  0
ARC
  8
0
  6
CONTINUOUS
 62
     7
 10
-207.2012634277344
 20
-132.5
 40
95
 50
23.35063067780564
 51
96.64934875583648
  0
ARC
  8
0
  6
CONTINUOUS
 62
     7
 10
-207.2012634277344
 20
-132.5
 40
95
 50
103.982957018625
 51
110.0169373767111
  0
ARC
  8
0
  6
CONTINUOUS
 62
     7
 10
-207.2012634277344
 20
-132.5
 40
94.99999999999999
 50
116.9830268206396
 51
123.0169388768339
  0
ARC
  8
0
  6
CONTINUOUS
 62
     7
 10
-207.2012634277344
 20
-132.5
 40
95
 50
129.9829258679248
 51
136.0171111316859
  0
ARC
  8
0
  6
CONTINUOUS
 62
     7
 10
-207.2012634277344
 20
-132.5
 40
95
 50
143.3506306020153
 51
156.6490225764084
  0
ARC
  8
0
  6
CONTINUOUS
 62
     7
 10
-207.2012634277344
 20
-132.5
 40
95
 50
163.9828698958179
 51
170.0171781029841
  0
ARC
  8
0
  6
CONTINUOUS
 62
     7
 10
-207.2012634277344
 20
-132.5
 40
92.5
 50
4.323779963977107
 51
175.6762357171498
  0
CIRCLE
  8
0
  6
CONTINUOUS
 62
     7
 10
-207.2012634277344
 20
-132.5
 40
62.5
  0
CIRCLE
  8
0
  6
CONTINUOUS
 62
     7
 10
-207.2012634277344
 20
-132.5
 40
47.5
  0
ARC
  8
0
  6
CONTINUOUS
 62
     7
 10
-259.2012634277344
 20
-247.5
 40
3.000000000000006
 50
89.99998201391097
 51
179.9999640278214
  0
ARC
  8
0
  6
CONTINUOUS
 62
     7
 10
-155.2012634277344
 20
-247.5
 40
3
 50
0
 51
89.99998201391043
  0
ARC
  8
0
  6
CONTINUOUS
 62
     7
 10
-135.9413146972656
 20
-220.5
 40
4.999999999999988
 50
194.9999510122271
 51
270.0000179860893
  0
ARC
  8
0
  6
CONTINUOUS
 62
     7
 10
-119.5584411621094
 20
-127.5
 40
5.000000000000004
 50
10.00004837419074
 51
89.99998201391064
  0
ARC
  8
0
  6
CONTINUOUS
 62
     7
 10
-126.1861267089844
 20
-147.5
 40
5.000000000000002
 50
9.999876765687821
 51
89.99998201391064
  0
ARC
  8
0
  6
CONTINUOUS
 62
     7
 10
-113.3143005371094
 20
-220.5
 40
4.99999999999999
 50
270.0000179860893
 51
10.00004837419058
  0
ARC
  8
0
  6
CONTINUOUS
 62
     7
 10
-301.0882263183594
 20
-220.5
 40
5.000000000000004
 50
169.9999113847624
 51
269.9999460417322
  0
ARC
  8
0
  6
CONTINUOUS
 62
     7
 10
-288.2164001464844
 20
-147.5
 40
4.99999999999999
 50
89.99998201391097
 51
170.0000889696808
  0
ARC
  8
0
  6
CONTINUOUS
 62
     7
 10
-294.8440856933594
 20
-127.5
 40
5.000000000000004
 50
89.99998201391097
 51
169.9999113847624
  0
ARC
  8
0
  6
CONTINUOUS
 62
     7
 10
-278.4612121582031
 20
-220.5
 40
5
 50
269.9999633445757
 51
345.000030318438
  0
ARC
  8
0
  6
CONTINUOUS
 62
     3
 10
-207.2012634277344
 20
-132.5
 40
81
 50
23.67662536160659
 51
36.77558947261372
  0
ARC
  8
0
  6
CONTINUOUS
 62
     3
 10
-207.2012634277344
 20
-132.5
 40
81
 50
83.67662703125869
 51
96.77561163283335
  0
ARC
  8
0
  6
CONTINUOUS
 62
     3
 10
-207.2012634277344
 20
-132.5
 40
81
 50
143.6766218707216
 51
156.2036259406319
  0
ARC
  8
0
  6
CONTINUOUS
 62
     3
 10
-207.2012634277344
 20
-132.5
 40
81.00000000000001
 50
203.6766408432178
 51
216.7756049542249
  0
ARC
  8
0
  6
CONTINUOUS
 62
     3
 10
-207.2012634277344
 20
-132.5
 40
80.99999999999999
 50
263.6766356826807
 51
276.7755997936878
  0
ARC
  8
0
  6
CONTINUOUS
 62
     3
 10
-207.2012634277344
 20
-132.5
 40
81
 50
323.6766305221436
 51
336.7755946331508
  0
ARC
  8
0
  6
CONTINUOUS
 62
     7
 10
-207.2012634277344
 20
-132.5
 40
18.99999999999999
 50
105.2575386196411
 51
74.74246957703868
  0
ARC
  8
0
  6
CONTINUOUS
 62
     7
 10
-149.9428405761719
 20
-168.2453002929688
 40
4.999999999999998
 50
148.0243651265147
 51
194.9999337093829
  0
ARC
  8
0
  6
CONTINUOUS
 62
     7
 10
-167.6419982910156
 20
-187.1929016113281
 40
4.999999999999994
 50
14.99996455892005
 51
125.8780641390172
  0
ARC
  8
0
  6
CONTINUOUS
 62
     7
 10
-246.7604675292969
 20
-187.1929626464844
 40
5.000000000000004
 50
54.12205698315525
 51
165.0001446104211
  0
ARC
  8
0
  6
CONTINUOUS
 62
     7
 10
-264.4596252441406
 20
-168.245361328125
 40
5.000000000000021
 50
345.00003544108
 51
31.97565354281958
  0
ARC
  8
0
  6
CONTINUOUS
 62
     7
 10
-141.3890075683594
 20
-117.5
 40
4.999999999999995
 50
192.8395894985088
 51
269.9999974955218
  0
ARC
  8
0
  6
CONTINUOUS
 62
     7
 10
-141.3890075683594
 20
-147.5
 40
5.000000000000004
 50
90.00000250447815
 51
167.1604105014914
  0
ARC
  8
0
  6
CONTINUOUS
 62
     7
 10
-273.0135192871094
 20
-117.5
 40
5.000000000000004
 50
269.9999974955215
 51
347.1604114689504
  0
ARC
  8
0
  6
CONTINUOUS
 62
     7
 10
-273.0135192871094
 20
-147.5
 40
4.99999999999998
 50
12.83958853104963
 51
90.00000250447847
  0
ARC
  8
0
  6
CONTINUOUS
 62
     7
 10
-207.2012634277344
 20
-132.5
 40
94.99999999999999
 50
356.9830815379433
 51
3.017020914894262
  0
ARC
  8
0
  6
CONTINUOUS
 62
     7
 10
-207.2012634277344
 20
-132.5
 40
94.99999999999999
 50
176.9830284902917
 51
183.0170088483777
  0
ARC
  8
0
  6
CONTINUOUS
 62
     7
 10
-218.1217346191406
 20
-34.406005859375
 40
0.9999999999999987
 50
20.0000130785643
 51
82.33288293470682
  0
ARC
  8
0
  6
CONTINUOUS
 62
     7
 10
-228.8465270996094
 20
-9.74365234375
 40
3.150000095367426
 50
9.999999709092926
 51
189.9999620293669
  0
ARC
  8
0
  6
CONTINUOUS
 62
     7
 10
-219.8713684082031
 20
-36.745361328125
 40
0.999999999999986
 50
189.999979332211
 51
280.0000159876346
  0
ARC
  8
0
  6
CONTINUOUS
 62
     7
 10
-228.0452575683594
 20
-38.1866455078125
 40
0.9999999999999978
 50
279.9999613461212
 51
9.999999709092924
  0
ARC
  8
0
  6
CONTINUOUS
 62
     7
 10
-230.4894714355469
 20
-36.5867919921875
 40
0.9999999999999956
 50
117.667083926394
 51
179.9999503674428
  0
ARC
  8
0
  6
CONTINUOUS
 62
     7
 10
274.7987365722656
 20
-187.5
 40
5
 50
0
 51
90.00000250447847
  0
ARC
  8
0
  6
CONTINUOUS
 62
     7
 10
274.7987365722656
 20
-77.5
 40
5.000000000000004
 50
269.9999974955215
 51
0
  0
ARC
  8
0
  6
CONTINUOUS
 62
     7
 10
259.7987365722656
 20
-77.5
 40
5
 50
179.999991348578
 51
270.0000006832456
  0
ARC
  8
0
  6
CONTINUOUS
 62
     7
 10
259.7987365722656
 20
-187.5
 40
5.000000000000004
 50
90.00000250447847
 51
180.0000050089563
  0
ARC
  8
0
  6
CONTINUOUS
 62
     7
 10
257.7555236816406
 20
-39.2987060546875
 40
3.999999999999994
 50
126.0864395502159
 51
188.5540383028319
  0
ARC
  8
0
  6
CONTINUOUS
 62
     7
 10
233.8419494628906
 20
-39.2987060546875
 40
3.999999999999995
 50
351.4459282863103
 51
53.91357911911859
  0
ARC
  8
0
  6
CONTINUOUS
 62
     7
 10
251.2389068603516
 20
-36.8936767578125
 40
2.000000000000004
 50
10.00000397796112
 51
89.99998201391097
  0
ARC
  8
0
  6
CONTINUOUS
 62
     7
 10
240.3585662841797
 20
-36.8936767578125
 40
1.999999999999999
 50
89.99998201391097
 51
170.0000206677891
  0
CIRCLE
  8
0
  6
CONTINUOUS
 62
     7
 10
245.7987365722656
 20
-22.8936767578125
 40
10
  0
ARC
  8
0
  6
CONTINUOUS
 62
     7
 10
245.7987365722656
 20
-22.8936767578125
 40
16.29999923706054
 50
306.086414050692
 51
233.91354314694
  0
ARC
  8
0
  6
CONTINUOUS
 62
     7
 10
259.098876953125
 20
102.5
 40
5.000000000000004
 50
90.00000250447847
 51
180.0000050089563
  0
ARC
  8
0
  6
CONTINUOUS
 62
     7
 10
259.098876953125
 20
212.5
 40
5
 50
179.999991348578
 51
270.0000006832456
  0
ARC
  8
0
  6
CONTINUOUS
 62
     7
 10
274.098876953125
 20
102.5
 40
5
 50
0
 51
90.00000250447847
  0
ARC
  8
0
  6
CONTINUOUS
 62
     7
 10
274.098876953125
 20
212.5
 40
5.000000000000004
 50
269.9999974955215
 51
0
  0
POLYLINE
  8
0
  6
CONTINUOUS
 62
     7
 66
     1
 10
0
 20
0
  0
VERTEX
  8
0
  6
CONTINUOUS
 62
     7
 10
237.3607637527599
 20
171.9105121504985
 42
0.04188691999822824
  0
VERTEX
  8
0
  6
CONTINUOUS
 62
     7
 10
237.8008946535597
 20
170.6825328777991
 42
0.0416555963629303
  0
VERTEX
  8
0
  6
CONTINUOUS
 62
     7
 10
238.4391392114114
 20
169.5446037452191
 42
0.04136485841427853
  0
VERTEX
  8
0
  6
CONTINUOUS
 62
     7
 10
239.2565936761497
 20
168.5277429948832
 42
0.04106105922615154
  0
VERTEX
  8
0
  6
CONTINUOUS
 62
     7
 10
240.2299019671899
 20
167.6585989238345
 42
0.04077367481031472
  0
VERTEX
  8
0
  6
CONTINUOUS
 62
     7
 10
241.3319740538272
 20
166.959410928235
 42
0.04052906794768803
  0
VERTEX
  8
0
  6
CONTINUOUS
 62
     7
 10
242.5328345170229
 20
166.4476554504774
 42
0.04034774979671955
  0
VERTEX
  8
0
  6
CONTINUOUS
 62
     7
 10
243.8004123181636
 20
166.1358389264402
 42
0.04023569854262189
  0
VERTEX
  8
0
  6
CONTINUOUS
 62
     7
 10
245.1010397041515
 20
166.0313723619677
 42
0.04022884956918122
  0
VERTEX
  8
0
  6
CONTINUOUS
 62
     7
 10
246.4013855777703
 20
166.1364997098062
 42
0.04031599865617434
  0
VERTEX
  8
0
  6
CONTINUOUS
 62
     7
 10
247.6678174216769
 20
166.4486323036883
 42
0.04051172969271775
  0
VERTEX
  8
0
  6
CONTINUOUS
 62
     7
 10
248.8679734435099
 20
166.9605799906415
 42
0.0407599465651646
  0
VERTEX
  8
0
  6
CONTINUOUS
 62
     7
 10
249.9694628485796
 20
167.6598389322337
 42
0.0410599963789411
  0
VERTEX
  8
0
  6
CONTINUOUS
 62
     7
 10
250.9425125181997
 20
168.5291992072545
 42
0.04137753781254754
  0
VERTEX
  8
0
  6
CONTINUOUS
 62
     7
 10
251.7599232382391
 20
169.5465861924724
 42
0.04167518698812143
  0
VERTEX
  8
0
  6
CONTINUOUS
 62
     7
 10
252.3980680575087
 20
170.6852532283889
 42
0.04191607587232019
  0
VERTEX
  8
0
  6
CONTINUOUS
 62
     7
 10
252.8379577230822
 20
171.9142638284912
 42
0
  0
SEQEND
  8
0
  0
POLYLINE
  8
0
  6
CONTINUOUS
 62
     7
 66
     1
 10
0
 20
0
  0
VERTEX
  8
0
  6
CONTINUOUS
 62
     7
 10
256.6372528076172
 20
172.6644287109375
 42
0.01901722292056118
  0
VERTEX
  8
0
  6
CONTINUOUS
 62
     7
 10
257.3791470272762
 20
172.8686306377324
 42
0.01048147390050603
  0
VERTEX
  8
0
  6
CONTINUOUS
 62
     7
 10
258.1078086402723
 20
173.1163436092795
 42
0.005829026850387673
  0
VERTEX
  8
0
  6
CONTINUOUS
 62
     7
 10
258.8294158585924
 20
173.3849746859975
 42
0.02972272599864987
  0
VERTEX
  8
0
  6
CONTINUOUS
 62
     7
 10
259.5302559583167
 20
173.7021009503767
 42
0.05879257033815662
  0
VERTEX
  8
0
  6
CONTINUOUS
 62
     7
 10
260.1633427400386
 20
174.1364570846068
 42
0.05382043780374127
  0
VERTEX
  8
0
  6
CONTINUOUS
 62
     7
 10
260.6747855193793
 20
174.7096493441497
 42
0.04814190952129014
  0
VERTEX
  8
0
  6
CONTINUOUS
 62
     7
 10
261.0676257046348
 20
175.3710133814932
 42
0.05485939680814068
  0
VERTEX
  8
0
  6
CONTINUOUS
 62
     7
 10
261.3131912532614
 20
176.0986492144074
 42
0.05416481640973198
  0
VERTEX
  8
0
  6
CONTINUOUS
 62
     7
 10
261.3965301513672
 20
176.86181640625
 42
0.05419439745468509
  0
VERTEX
  8
0
  6
CONTINUOUS
 62
     7
 10
261.313099461141
 20
177.6254007188809
 42
0.05487532435806065
  0
VERTEX
  8
0
  6
CONTINUOUS
 62
     7
 10
261.0673758164605
 20
178.3531504863973
 42
0.04805889164739859
  0
VERTEX
  8
0
  6
CONTINUOUS
 62
     7
 10
260.6750950437414
 20
179.0134359861304
 42
0.05381683917318236
  0
VERTEX
  8
0
  6
CONTINUOUS
 62
     7
 10
260.163502620126
 20
179.587030073502
 42
0.05878934397898305
  0
VERTEX
  8
0
  6
CONTINUOUS
 62
     7
 10
259.5304019859071
 20
180.0214661256175
 42
0.02971344216686118
  0
VERTEX
  8
0
  6
CONTINUOUS
 62
     7
 10
258.8298997202472
 20
180.3385210859632
 42
0.005838324514773685
  0
VERTEX
  8
0
  6
CONTINUOUS
 62
     7
 10
258.1085249355313
 20
180.6071306156347
 42
0.01048747642925383
  0
VERTEX
  8
0
  6
CONTINUOUS
 62
     7
 10
257.3795792094346
 20
180.8549862957694
 42
0.01901705417151347
  0
VERTEX
  8
0
  6
CONTINUOUS
 62
     7
 10
256.6377410888672
 20
181.0592041015625
 42
0
  0
SEQEND
  8
0
  0
POLYLINE
  8
0
  6
CONTINUOUS
 62
     7
 66
     1
 10
0
 20
0
  0
VERTEX
  8
0
  6
CONTINUOUS
 62
     7
 10
256.6505540435248
 20
181.0550730200712
 42
0.02483033891498922
  0
VERTEX
  8
0
  6
CONTINUOUS
 62
     7
 10
255.2421648242877
 20
181.4171888195152
 42
0.0136485411258301
  0
VERTEX
  8
0
  6
CONTINUOUS
 62
     7
 10
253.810320938142
 20
181.6744956188353
 42
0.009382830365737688
  0
VERTEX
  8
0
  6
CONTINUOUS
 62
     7
 10
252.3680357712084
 20
181.8668338478487
 42
0.007275419706910966
  0
VERTEX
  8
0
  6
CONTINUOUS
 62
     7
 10
250.9196420598838
 20
182.0115489668309
 42
0.006095667176916386
  0
VERTEX
  8
0
  6
CONTINUOUS
 62
     7
 10
249.4676482297332
 20
182.1177349199314
 42
0.005403411756207979
  0
VERTEX
  8
0
  6
CONTINUOUS
 62
     7
 10
248.0135799944553
 20
182.190637545011
 42
0.005011276167627945
  0
VERTEX
  8
0
  6
CONTINUOUS
 62
     7
 10
246.5581940635136
 20
182.2333317121229
 42
0.004832082136159925
  0
VERTEX
  8
0
  6
CONTINUOUS
 62
     7
 10
245.1022700718004
 20
182.2474364462213
 42
0.004831334188063647
  0
VERTEX
  8
0
  6
CONTINUOUS
 62
     7
 10
243.6464512485626
 20
182.2334659996619
 42
0.005006470056500659
  0
VERTEX
  8
0
  6
CONTINUOUS
 62
     7
 10
242.1920557042846
 20
182.1909501310783
 42
0.005400882552912396
  0
VERTEX
  8
0
  6
CONTINUOUS
 62
     7
 10
240.7378997785709
 20
182.1182140892895
 42
0.006091146285466782
  0
VERTEX
  8
0
  6
CONTINUOUS
 62
     7
 10
239.2858269668407
 20
182.0122138342083
 42
0.007269852988975403
  0
VERTEX
  8
0
  6
CONTINUOUS
 62
     7
 10
237.8369372506837
 20
181.8676703665552
 42
0.009378776901489274
  0
VERTEX
  8
0
  6
CONTINUOUS
 62
     7
 10
236.3932232325087
 20
181.6753918865678
 42
0.01364228252148008
  0
VERTEX
  8
0
  6
CONTINUOUS
 62
     7
 10
234.9597104798021
 20
181.4180666939832
 42
0.02480855593621406
  0
VERTEX
  8
0
  6
CONTINUOUS
 62
     7
 10
233.549815954335
 20
181.0559253278239
 42
0
  0
SEQEND
  8
0
  0
POLYLINE
  8
0
  6
CONTINUOUS
 62
     7
 66
     1
 10
0
 20
0
  0
VERTEX
  8
0
  6
CONTINUOUS
 62
     7
 10
231.9488372802734
 20
173.759765625
 42
0.1945679449910091
  0
VERTEX
  8
0
  6
CONTINUOUS
 62
     7
 10
234.8909758178831
 20
172.3202625750261
 42
0.02554540162902248
  0
VERTEX
  8
0
  6
CONTINUOUS
 62
     7
 10
238.2695829850679
 20
171.8084006437647
 42
0.01446911835915357
  0
VERTEX
  8
0
  6
CONTINUOUS
 62
     7
 10
241.6789894965854
 20
171.5548903439906
 42
0.01163097283867613
  0
VERTEX
  8
0
  6
CONTINUOUS
 62
     7
 10
245.0988616943359
 20
171.476318359375
 42
0.01162461432894264
  0
VERTEX
  8
0
  6
CONTINUOUS
 62
     7
 10
248.5169743766147
 20
171.5548074467171
 42
0.01447200377677643
  0
VERTEX
  8
0
  6
CONTINUOUS
 62
     7
 10
251.9274862930251
 20
171.8083315687619
 42
0.02556014787298454
  0
VERTEX
  8
0
  6
CONTINUOUS
 62
     7
 10
255.3078231018635
 20
172.3204958105289
 42
0.1952864972448106
  0
VERTEX
  8
0
  6
CONTINUOUS
 62
     7
 10
258.2488494780789
 20
173.7619674007538
 42
0.1938928100961479
  0
VERTEX
  8
0
  6
CONTINUOUS
 62
     7
 10
255.3045584075933
 20
175.1997327386519
 42
0.02553115247777539
  0
VERTEX
  8
0
  6
CONTINUOUS
 62
     7
 10
251.925911670801
 20
175.7113648514734
 42
0.01446585061048808
  0
VERTEX
  8
0
  6
CONTINUOUS
 62
     7
 10
248.5164940241202
 20
175.9647455191155
 42
0.01162278630400712
  0
VERTEX
  8
0
  6
CONTINUOUS
 62
     7
 10
245.0988616943359
 20
176.043212890625
 42
0.01162459121063312
  0
VERTEX
  8
0
  6
CONTINUOUS
 62
     7
 10
241.6807490104277
 20
175.9647239092875
 42
0.01447192314326284
  0
VERTEX
  8
0
  6
CONTINUOUS
 62
     7
 10
238.2702370641235
 20
175.7112005732883
 42
0.02555987352345059
  0
VERTEX
  8
0
  6
CONTINUOUS
 62
     7
 10
234.8898998139114
 20
175.1990392443494
 42
0.1952789243987251
  0
VERTEX
  8
0
  6
CONTINUOUS
 62
     7
 10
231.9488432738514
 20
173.7575854213937
 42
0
  0
SEQEND
  8
0
  0
POLYLINE
  8
0
  6
CONTINUOUS
 62
     7
 66
     1
 10
0
 20
0
  0
VERTEX
  8
0
  6
CONTINUOUS
 62
     7
 10
233.5604400634766
 20
172.6644287109375
 42
-0.01901913015891742
  0
VERTEX
  8
0
  6
CONTINUOUS
 62
     7
 10
232.8185484992231
 20
172.8686333448109
 42
-0.01048098675010371
  0
VERTEX
  8
0
  6
CONTINUOUS
 62
     7
 10
232.0898905329941
 20
173.1163513309718
 42
-0.005826329862791173
  0
VERTEX
  8
0
  6
CONTINUOUS
 62
     7
 10
231.3682854781611
 20
173.3849818298834
 42
-0.02972119430012691
  0
VERTEX
  8
0
  6
CONTINUOUS
 62
     7
 10
230.6674444440523
 20
173.7021017923306
 42
-0.05879614128215934
  0
VERTEX
  8
0
  6
CONTINUOUS
 62
     7
 10
230.0343539428746
 20
174.1364545408498
 42
-0.05382070117581625
  0
VERTEX
  8
0
  6
CONTINUOUS
 62
     7
 10
229.5229298722704
 20
174.7096601420753
 42
-0.04814179416566034
  0
VERTEX
  8
0
  6
CONTINUOUS
 62
     7
 10
229.1300927583144
 20
175.3710239095122
 42
-0.05484502792667745
  0
VERTEX
  8
0
  6
CONTINUOUS
 62
     7
 10
228.8845021262901
 20
176.0986509214989
 42
-0.05417246470157532
  0
VERTEX
  8
0
  6
CONTINUOUS
 62
     7
 10
228.8011932373047
 20
176.86181640625
 42
-0.05420234858736041
  0
VERTEX
  8
0
  6
CONTINUOUS
 62
     7
 10
228.8845944897004
 20
177.6254014226542
 42
-0.05486104264164943
  0
VERTEX
  8
0
  6
CONTINUOUS
 62
     7
 10
229.1303435860426
 20
178.3531418715303
 42
-0.0480588937713201
  0
VERTEX
  8
0
  6
CONTINUOUS
 62
     7
 10
229.5226220265504
 20
179.0134274596198
 42
-0.05381702913190284
  0
VERTEX
  8
0
  6
CONTINUOUS
 62
     7
 10
230.0341954532202
 20
179.5870339020116
 42
-0.05879241653404026
  0
VERTEX
  8
0
  6
CONTINUOUS
 62
     7
 10
230.667297300001
 20
180.0214645683018
 42
-0.02971206235187482
  0
VERTEX
  8
0
  6
CONTINUOUS
 62
     7
 10
231.3678023316636
 20
180.3385143234471
 42
-0.005835716207294652
  0
VERTEX
  8
0
  6
CONTINUOUS
 62
     7
 10
232.0891758330885
 20
180.6071233342674
 42
-0.01048687003273774
  0
VERTEX
  8
0
  6
CONTINUOUS
 62
     7
 10
232.818115781691
 20
180.8549834619493
 42
-0.01901919283316371
  0
VERTEX
  8
0
  6
CONTINUOUS
 62
     7
 10
233.5599517822266
 20
181.0592041015625
 42
0
  0
SEQEND
  8
0
  0
TEXT
  8
0
  6
CONTINUOUS
 62
     7
 10
-286.3298306465149
 20
148.5
 40
18
 41
0.8449533945834478
  1
ＥＲＫ－Ｃ－４００
  0
ENDSEC
  0
EOF
