  0
SECTION
  2
HEADER
  0
ENDSEC
  0
SECTION
  2
TABLES
  0
TABLE
  2
LTYPE
 70
    22
  0
LTYPE
  2
CONTINUOUS
 70
    64
  3
Solid line
 72
    65
 73
     0
 40
0.000000
  0
LTYPE
  2
DASHED
 70
    64
  3
__ __ __ __ __ __ __ __ __ __ __ __ __ __ __
 72
    65
 73
     2
 40
3.500000
 49
2.000000
 49
-1.500000
  0
LTYPE
  2
CENTER
 70
    64
  3
____ _ ____ _ ____ _ ____ _ ____ _ ____ _ ____
 72
    65
 73
     4
 40
17.500000
 49
13.000000
 49
-1.500000
 49
1.500000
 49
-1.500000
  0
LTYPE
  2
PHANTOM
 70
    64
  3
_____ _ _ _____ _ _ _____ _ _ _____ _ _ ____  
 72
    65
 73
     6
 40
15.500000
 49
8.000000
 49
-1.500000
 49
1.500000
 49
-1.500000
 49
1.500000
 49
-1.500000
  0
LTYPE
  2
DOT
 70
    64
  3
. . . . . . . . . . . . . . . . . . . . . . . .
 72
    65
 73
     2
 40
0.25
 49
0.0
 49
-0.25
  0
ENDTAB
  0
TABLE
  2
LAYER
 70
     1
  0
LAYER
  2
0
 70
     0
 62
     7
  6
CONTINUOUS
  0
ENDTAB
  0
TABLE
  2
STYLE
 70
     1
  0
STYLE
  2
STANDARD
 70
     0
 40
0.000000
 41
1.000000
 50
0.000000
 71
     0
 42
0.200000
  3
txt
  4
BIGFONT
  0
ENDTAB
  0
TABLE
  2
VIEW
 70
     0
  0
ENDTAB
  0
ENDSEC
  0
SECTION
  2
BLOCKS
  0
ENDSEC
  0
SECTION
  2
ENTITIES
  0
LINE
  8
0
  6
CONTINUOUS
 62
     3
 10
62.09873962402344
 20
-142.5
 11
356.0987548828125
 21
-142.5
  0
LINE
  8
0
  6
CONTINUOUS
 62
     7
 10
147.0987396240234
 20
-282.5
 11
317.0987548828125
 21
-282.5
  0
LINE
  8
0
  6
CONTINUOUS
 62
     7
 10
147.0987396240234
 20
-260.5
 11
147.0987396240234
 21
-282.5
  0
LINE
  8
0
  6
CONTINUOUS
 62
     7
 10
147.0987396240234
 20
-260.5
 11
186.0987396240234
 21
-260.5
  0
LINE
  8
0
  6
CONTINUOUS
 62
     7
 10
157.4977416992187
 20
-255.9357757568359
 11
163.0981597900391
 21
-191.9227905273438
  0
LINE
  8
0
  6
CONTINUOUS
 62
     3
 10
167.0987396240234
 20
-254.3575744628906
 11
167.0987396240234
 21
-287.8685913085938
  0
LINE
  8
0
  6
CONTINUOUS
 62
     7
 10
261.1678161621094
 20
-247.8077392578125
 11
216.0988311767578
 21
-175.6822357177734
  0
LINE
  8
0
  6
CONTINUOUS
 62
     7
 10
201.0987396240234
 20
-50
 11
216.0987396240234
 21
-50
  0
LINE
  8
0
  6
CONTINUOUS
 62
     7
 10
201.0987396240234
 20
-50
 11
201.0987396240234
 21
-127.8508911132812
  0
LINE
  8
0
  6
CONTINUOUS
 62
     7
 10
132.0987396240234
 20
-95
 11
132.0987396240234
 21
-190
  0
LINE
  8
0
  6
CONTINUOUS
 62
     7
 10
135.0987396240234
 20
-205
 11
157.0987396240234
 21
-205
  0
LINE
  8
0
  6
CONTINUOUS
 62
     7
 10
135.0987396240234
 20
-80
 11
157.0986785888672
 21
-80
  0
LINE
  8
0
  6
CONTINUOUS
 62
     7
 10
135.0987396240234
 20
-80
 11
135.0987396240234
 21
-92.0001220703125
  0
LINE
  8
0
  6
CONTINUOUS
 62
     7
 10
157.0987243652344
 20
-205.0000305175781
 11
161.9319305419922
 21
-205.2533264160156
  0
LINE
  8
0
  6
CONTINUOUS
 62
     7
 10
132.0988464355469
 20
-95.00006866455078
 11
135.0988311767578
 21
-92.00006103515625
  0
LINE
  8
0
  6
CONTINUOUS
 62
     7
 10
132.0985565185547
 20
-190.0001831054688
 11
135.0985870361328
 21
-193.0001983642578
  0
LINE
  8
0
  6
CONTINUOUS
 62
     7
 10
216.0987396240234
 20
-50
 11
216.0987396240234
 21
-175.6822509765625
  0
LINE
  8
0
  6
CONTINUOUS
 62
     7
 10
317.0987548828125
 20
-260.5
 11
317.0987548828125
 21
-282.5
  0
LINE
  8
0
  6
CONTINUOUS
 62
     3
 10
297.0987548828125
 20
-254.3575744628906
 11
297.0987548828125
 21
-287.8685913085938
  0
LINE
  8
0
  6
CONTINUOUS
 62
     7
 10
191.0987396240234
 20
-140.5
 11
191.0987396240234
 21
-255.5
  0
LINE
  8
0
  6
CONTINUOUS
 62
     7
 10
72.09873962402344
 20
-120.5
 11
72.09873962402344
 21
-161.5
  0
LINE
  8
0
  6
CONTINUOUS
 62
     7
 10
72.09873962402344
 20
-123.5
 11
127.0987396240234
 21
-123.5
  0
LINE
  8
0
  6
CONTINUOUS
 62
     7
 10
72.09873962402344
 20
-161.5
 11
127.0987396240234
 21
-161.5
  0
LINE
  8
0
  6
CONTINUOUS
 62
     7
 10
127.0987396240234
 20
-120
 11
127.0987396240234
 21
-165
  0
LINE
  8
0
  6
CONTINUOUS
 62
     7
 10
127.0987396240234
 20
-165
 11
132.0987396240234
 21
-165
  0
LINE
  8
0
  6
CONTINUOUS
 62
     7
 10
127.0987396240234
 20
-120
 11
132.0987396240234
 21
-120
  0
LINE
  8
0
  6
CONTINUOUS
 62
     7
 10
72.09873962402344
 20
-120.5
 11
117.0987396240234
 21
-120.5
  0
LINE
  8
0
  6
CONTINUOUS
 62
     7
 10
117.0987396240234
 20
-120.5
 11
117.0987396240234
 21
-123.5
  0
LINE
  8
0
  6
DASHED
 62
     7
 10
174.5987396240234
 20
-260.5
 11
174.5987396240234
 21
-282.5
  0
LINE
  8
0
  6
DASHED
 62
     7
 10
159.5987396240234
 20
-260.5
 11
159.5987396240234
 21
-282.5
  0
LINE
  8
0
  6
DASHED
 62
     7
 10
289.5987548828125
 20
-260.5
 11
289.5987548828125
 21
-282.5
  0
LINE
  8
0
  6
DASHED
 62
     7
 10
304.5987548828125
 20
-260.5
 11
304.5987548828125
 21
-282.5
  0
LINE
  8
0
  6
CONTINUOUS
 62
     7
 10
157.0986938476563
 20
-80.00005340576172
 11
196.3603973388672
 21
-77.94243621826172
  0
LINE
  8
0
  6
CONTINUOUS
 62
     7
 10
284.0650634765625
 20
-260.5
 11
317.0987548828125
 21
-260.5
  0
LINE
  8
0
  6
CONTINUOUS
 62
     7
 10
135.0987396240234
 20
-193.0003662109375
 11
135.0987396240234
 21
-205
  0
LINE
  8
0
  6
CONTINUOUS
 62
     7
 10
220.0987396240234
 20
-104.8461303710938
 11
262.0987548828125
 21
-104.8461303710938
  0
LINE
  8
0
  6
CONTINUOUS
 62
     7
 10
266.0986938476562
 20
-51.5
 11
262.0986938476563
 21
-47.49999618530273
  0
LINE
  8
0
  6
CONTINUOUS
 62
     7
 10
262.0987548828125
 20
-237.5000152587891
 11
266.0987548828125
 21
-233.5000152587891
  0
LINE
  8
0
  6
CONTINUOUS
 62
     7
 10
220.0988159179687
 20
-47.50009155273437
 11
216.0988159179687
 21
-51.50008392333984
  0
LINE
  8
0
  6
CONTINUOUS
 62
     7
 10
220.0987396240234
 20
-47.5
 11
262.0987548828125
 21
-47.5
  0
LINE
  8
0
  6
CONTINUOUS
 62
     7
 10
254.7268524169922
 20
-237.5
 11
262.0987548828125
 21
-237.5
  0
LINE
  8
0
  6
CONTINUOUS
 62
     7
 10
266.0987548828125
 20
-50.00003051757812
 11
266.0987548828125
 21
-235
  0
LINE
  8
0
  6
CONTINUOUS
 62
     7
 10
251.1408843994141
 20
-231.76123046875
 11
262.0987548828125
 21
-231.76123046875
  0
LINE
  8
0
  6
CONTINUOUS
 62
     7
 10
248.2648773193359
 20
-227.1587219238281
 11
262.0987548828125
 21
-227.1587219238281
  0
LINE
  8
0
  6
CONTINUOUS
 62
     7
 10
245.1403961181641
 20
-222.1584777832031
 11
262.0987548828125
 21
-222.1584777832031
  0
LINE
  8
0
  6
CONTINUOUS
 62
     7
 10
240.8505096435547
 20
-215.2931823730469
 11
262.0987548828125
 21
-215.2931823730469
  0
LINE
  8
0
  6
CONTINUOUS
 62
     7
 10
236.5880279541016
 20
-208.4718017578125
 11
262.0987548828125
 21
-208.4718017578125
  0
LINE
  8
0
  6
CONTINUOUS
 62
     7
 10
230.7985687255859
 20
-199.2067260742187
 11
262.0987548828125
 21
-199.2067260742187
  0
LINE
  8
0
  6
CONTINUOUS
 62
     7
 10
220.0987396240234
 20
-180.1537170410156
 11
262.0987548828125
 21
-180.1537170410156
  0
LINE
  8
0
  6
CONTINUOUS
 62
     7
 10
220.0987396240234
 20
-168.7124633789063
 11
262.0987548828125
 21
-168.7124633789063
  0
LINE
  8
0
  6
CONTINUOUS
 62
     7
 10
220.0987396240234
 20
-158.9694519042969
 11
262.0987548828125
 21
-158.9694519042969
  0
LINE
  8
0
  6
CONTINUOUS
 62
     7
 10
220.0987396240234
 20
-147.5001220703125
 11
262.0987548828125
 21
-147.5001220703125
  0
LINE
  8
0
  6
CONTINUOUS
 62
     7
 10
220.0987396240234
 20
-137.5005187988281
 11
262.0987548828125
 21
-137.5005187988281
  0
LINE
  8
0
  6
CONTINUOUS
 62
     7
 10
220.0987396240234
 20
-126.0312194824219
 11
262.0987548828125
 21
-126.0312194824219
  0
LINE
  8
0
  6
CONTINUOUS
 62
     7
 10
220.0987396240234
 20
-116.2876892089844
 11
262.0987548828125
 21
-116.2876892089844
  0
LINE
  8
0
  6
CONTINUOUS
 62
     3
 10
-322.9012451171875
 20
-142.5
 11
-52.90126037597656
 21
-142.5
  0
LINE
  8
0
  6
CONTINUOUS
 62
     3
 10
-187.9012603759766
 20
-7.5
 11
-187.9012603759766
 21
-289.5
  0
LINE
  8
0
  6
CONTINUOUS
 62
     7
 10
-93.03306579589844
 20
-137.5005035400391
 11
-95.25855255126953
 21
-137.0614318847656
  0
LINE
  8
0
  6
CONTINUOUS
 62
     7
 10
-94.33963012695313
 20
-126.0312347412109
 11
-96.69432067871094
 21
-127.0875244140625
  0
LINE
  8
0
  6
CONTINUOUS
 62
     7
 10
-96.58927917480469
 20
-116.2877044677734
 11
-99.16851806640625
 21
-116.3705139160156
  0
LINE
  8
0
  6
CONTINUOUS
 62
     7
 10
-100.6819610595703
 20
-104.8461227416992
 11
-102.5683975219727
 21
-106.7991485595703
  0
LINE
  8
0
  6
CONTINUOUS
 62
     7
 10
-198.9013061523438
 20
-48.13898849487305
 11
-199.6494293212891
 21
-50.74906921386719
  0
LINE
  8
0
  6
CONTINUOUS
 62
     7
 10
-210.8569946289062
 20
-50.31545257568359
 11
-209.6390991210937
 21
-52.59051513671875
  0
LINE
  8
0
  6
CONTINUOUS
 62
     7
 10
-220.4198913574219
 20
-53.23880386352539
 11
-220.1573028564453
 21
-55.80628204345703
  0
LINE
  8
0
  6
CONTINUOUS
 62
     7
 10
-231.0056915283203
 20
-57.84214019775391
 11
-229.3072814941406
 21
-59.78488159179687
  0
LINE
  8
0
  6
CONTINUOUS
 62
     7
 10
-239.665771484375
 20
-62.84165191650391
 11
-238.8323669433594
 21
-65.28422546386719
  0
LINE
  8
0
  6
CONTINUOUS
 62
     7
 10
-248.9448852539062
 20
-69.70851135253906
 11
-246.8530731201172
 21
-71.21932983398438
  0
LINE
  8
0
  6
CONTINUOUS
 62
     7
 10
-256.2579040527344
 20
-76.52748870849609
 11
-254.8964233398438
 21
-78.71994018554688
  0
LINE
  8
0
  6
CONTINUOUS
 62
     7
 10
-264.1200256347656
 20
-85.79248809814453
 11
-261.4853210449219
 21
-86.44969940185547
  0
LINE
  8
0
  6
CONTINUOUS
 62
     7
 10
-279.2132873535156
 20
-116.2865982055664
 11
-276.6336975097656
 21
-116.3694458007813
  0
LINE
  8
0
  6
CONTINUOUS
 62
     7
 10
-281.4633483886719
 20
-126.032341003418
 11
-279.1083984375
 21
-127.0887756347656
  0
LINE
  8
0
  6
CONTINUOUS
 62
     7
 10
-282.7696228027344
 20
-137.5001983642578
 11
-280.2376403808594
 21
-137.0006713867187
  0
LINE
  8
0
  6
CONTINUOUS
 62
     7
 10
-132.9012603759766
 20
-282.5
 11
-77.90126037597656
 21
-282.5
  0
LINE
  8
0
  6
CONTINUOUS
 62
     7
 10
-132.9012603759766
 20
-260.5
 11
-77.90126037597656
 21
-260.5
  0
LINE
  8
0
  6
CONTINUOUS
 62
     7
 10
-77.90126037597656
 20
-260.5
 11
-77.90126037597656
 21
-282.5
  0
LINE
  8
0
  6
CONTINUOUS
 62
     7
 10
-122.0890045166016
 20
-132.5
 11
-100.2369232177734
 21
-132.5
  0
LINE
  8
0
  6
CONTINUOUS
 62
     7
 10
-77.90106201171875
 20
-260.5
 11
-95.28538513183594
 21
-136.8040924072266
  0
LINE
  8
0
  6
CONTINUOUS
 62
     7
 10
-132.9012603759766
 20
-260.5
 11
-132.9012603759766
 21
-282.5
  0
LINE
  8
0
  6
CONTINUOUS
 62
     7
 10
-132.9012908935547
 20
-260.5
 11
-149.2185974121094
 21
-199.6029815673828
  0
LINE
  8
0
  6
CONTINUOUS
 62
     7
 10
-121.4709930419922
 20
-256.7941284179687
 11
-140.3438110351562
 21
-186.3598327636719
  0
LINE
  8
0
  6
CONTINUOUS
 62
     7
 10
-242.9012603759766
 20
-282.5
 11
-297.9012451171875
 21
-282.5
  0
LINE
  8
0
  6
CONTINUOUS
 62
     7
 10
-242.9012603759766
 20
-260.5
 11
-297.9012451171875
 21
-260.5
  0
LINE
  8
0
  6
CONTINUOUS
 62
     7
 10
-297.9012451171875
 20
-260.5
 11
-297.9012451171875
 21
-282.5
  0
LINE
  8
0
  6
CONTINUOUS
 62
     7
 10
-297.9013061523437
 20
-260.5
 11
-280.5169982910156
 21
-136.8041076660156
  0
LINE
  8
0
  6
CONTINUOUS
 62
     7
 10
-242.9012603759766
 20
-260.5
 11
-242.9012603759766
 21
-282.5
  0
LINE
  8
0
  6
CONTINUOUS
 62
     7
 10
-242.9012756347656
 20
-260.4999694824219
 11
-226.5839691162109
 21
-199.6029815673828
  0
LINE
  8
0
  6
CONTINUOUS
 62
     7
 10
-134.9012603759766
 20
-279.5
 11
-240.9012603759766
 21
-279.5
  0
LINE
  8
0
  6
CONTINUOUS
 62
     7
 10
-253.7135162353516
 20
-132.5
 11
-275.5656127929688
 21
-132.5
  0
LINE
  8
0
  6
CONTINUOUS
 62
     7
 10
-254.3316192626953
 20
-256.7940979003906
 11
-235.4587860107422
 21
-186.3597869873047
  0
LINE
  8
0
  6
CONTINUOUS
 62
     3
 10
-124.2484436035156
 20
-179.2499847412109
 11
-111.2580642700195
 21
-186.7499847412109
  0
LINE
  8
0
  6
CONTINUOUS
 62
     3
 10
-124.2483978271484
 20
-105.75
 11
-111.2580184936523
 21
-98.25
  0
LINE
  8
0
  6
CONTINUOUS
 62
     3
 10
-251.5540924072266
 20
-105.7499542236328
 11
-264.5444641113281
 21
-98.24995422363281
  0
LINE
  8
0
  6
CONTINUOUS
 62
     3
 10
-251.55419921875
 20
-179.2499694824219
 11
-264.5445861816406
 21
-186.7499694824219
  0
LINE
  8
0
  6
CONTINUOUS
 62
     3
 10
-277.9012451171875
 20
-253.6026306152344
 11
-277.9012451171875
 21
-289.4757080078125
  0
LINE
  8
0
  6
CONTINUOUS
 62
     7
 10
-88.79983520507813
 20
-254.8041381835937
 11
-102.5728378295898
 21
-156.8041381835937
  0
LINE
  8
0
  6
CONTINUOUS
 62
     7
 10
-122.0890045166016
 20
-152.5
 11
-107.5241851806641
 21
-152.5
  0
LINE
  8
0
  6
CONTINUOUS
 62
     7
 10
-287.0026245117188
 20
-254.8041534423828
 11
-273.2296447753906
 21
-156.8041534423828
  0
LINE
  8
0
  6
CONTINUOUS
 62
     7
 10
-253.7135162353516
 20
-152.5
 11
-268.2783203125
 21
-152.5
  0
LINE
  8
0
  6
CONTINUOUS
 62
     7
 10
-192.9012603759766
 20
-120.5
 11
-192.9012603759766
 21
-128.5
  0
LINE
  8
0
  6
CONTINUOUS
 62
     7
 10
-182.9012603759766
 20
-120.5
 11
-182.9012603759766
 21
-128.5
  0
LINE
  8
0
  6
CONTINUOUS
 62
     7
 10
-192.9012603759766
 20
-128.5
 11
-182.9012603759766
 21
-128.5
  0
LINE
  8
0
  6
CONTINUOUS
 62
     7
 10
-192.9012603759766
 20
-120.5
 11
-182.9012603759766
 21
-120.5
  0
LINE
  8
0
  6
DASHED
 62
     7
 10
-285.4012451171875
 20
-260.5
 11
-285.4012451171875
 21
-282.5
  0
LINE
  8
0
  6
DASHED
 62
     7
 10
-270.4012451171875
 20
-260.5
 11
-270.4012451171875
 21
-282.5
  0
LINE
  8
0
  6
DASHED
 62
     7
 10
-105.4012603759766
 20
-260.5
 11
-105.4012603759766
 21
-282.5
  0
LINE
  8
0
  6
DASHED
 62
     7
 10
-90.40126037597656
 20
-260.5
 11
-90.40126037597656
 21
-282.5
  0
LINE
  8
0
  6
CONTINUOUS
 62
     7
 10
-275.1207275390625
 20
-104.8462600708008
 11
-273.2342224121094
 21
-106.7993774414062
  0
LINE
  8
0
  6
CONTINUOUS
 62
     3
 10
62.09873962402344
 20
157.5
 11
356.0987548828125
 21
157.5
  0
LINE
  8
0
  6
CONTINUOUS
 62
     7
 10
132.0987396240234
 20
205
 11
132.0987396240234
 21
110
  0
LINE
  8
0
  6
CONTINUOUS
 62
     7
 10
135.0987396240234
 20
95
 11
157.0986785888672
 21
95
  0
LINE
  8
0
  6
CONTINUOUS
 62
     7
 10
135.0987396240234
 20
220
 11
157.0986785888672
 21
220
  0
LINE
  8
0
  6
CONTINUOUS
 62
     7
 10
135.0987396240234
 20
220
 11
135.0987396240234
 21
207.9997253417969
  0
LINE
  8
0
  6
CONTINUOUS
 62
     7
 10
317.0987548828125
 20
85
 11
317.0987548828125
 21
55.5
  0
LINE
  8
0
  6
CONTINUOUS
 62
     7
 10
201.0987396240234
 20
249.510986328125
 11
201.0987396240234
 21
65.489013671875
  0
LINE
  8
0
  6
CONTINUOUS
 62
     7
 10
132.0988922119141
 20
204.9998474121094
 11
135.0988922119141
 21
207.9998779296875
  0
LINE
  8
0
  6
CONTINUOUS
 62
     7
 10
132.0985717773437
 20
109.9998626708984
 11
135.0985870361328
 21
106.9998397827148
  0
LINE
  8
0
  6
CONTINUOUS
 62
     7
 10
157.0986785888672
 20
219.9999389648437
 11
196.3604125976562
 21
222.0575561523438
  0
LINE
  8
0
  6
CONTINUOUS
 62
     7
 10
155.0987396240234
 20
47.5
 11
309.0987548828125
 21
47.5
  0
LINE
  8
0
  6
CONTINUOUS
 62
     7
 10
147.0987396240234
 20
94.5
 11
147.0987396240234
 21
55.5
  0
LINE
  8
0
  6
CONTINUOUS
 62
     3
 10
283.5618896484375
 20
67.5
 11
311.1132202148437
 21
67.5
  0
LINE
  8
0
  6
CONTINUOUS
 62
     3
 10
297.0987548828125
 20
78.32707977294922
 11
297.0987548828125
 21
54.4599609375
  0
LINE
  8
0
  6
CONTINUOUS
 62
     7
 10
317.0987548828125
 20
230
 11
317.0987548828125
 21
259.5
  0
LINE
  8
0
  6
CONTINUOUS
 62
     7
 10
155.0987396240234
 20
267.5
 11
309.0987548828125
 21
267.5
  0
LINE
  8
0
  6
CONTINUOUS
 62
     7
 10
147.0987396240234
 20
220.5
 11
147.0987396240234
 21
259.5
  0
LINE
  8
0
  6
CONTINUOUS
 62
     7
 10
216.0987396240234
 20
255.5797119140625
 11
216.0987396240234
 21
59.4202880859375
  0
LINE
  8
0
  6
CONTINUOUS
 62
     7
 10
191.0987396240234
 20
93.21817016601563
 11
191.0987396240234
 21
47.5
  0
LINE
  8
0
  6
CONTINUOUS
 62
     7
 10
191.0987396240234
 20
221.7818298339844
 11
191.0987396240234
 21
267.5
  0
LINE
  8
0
  6
CONTINUOUS
 62
     3
 10
167.0987396240234
 20
80.289306640625
 11
167.0987396240234
 21
54.4599609375
  0
LINE
  8
0
  6
CONTINUOUS
 62
     3
 10
153.5618743896484
 20
67.5
 11
181.1132049560547
 21
67.5
  0
LINE
  8
0
  6
CONTINUOUS
 62
     3
 10
167.0987396240234
 20
234.710693359375
 11
167.0987396240234
 21
260.5400390625
  0
LINE
  8
0
  6
CONTINUOUS
 62
     3
 10
153.5618743896484
 20
247.5
 11
181.1132049560547
 21
247.5
  0
LINE
  8
0
  6
CONTINUOUS
 62
     3
 10
283.5618896484375
 20
247.5
 11
311.1132202148437
 21
247.5
  0
LINE
  8
0
  6
CONTINUOUS
 62
     3
 10
297.0987548828125
 20
236.5860137939453
 11
297.0987548828125
 21
260.5400390625
  0
LINE
  8
0
  6
CONTINUOUS
 62
     7
 10
72.09873962402344
 20
162.5
 11
120.0987396240234
 21
162.5
  0
LINE
  8
0
  6
CONTINUOUS
 62
     7
 10
72.09873962402344
 20
152.5
 11
120.0987396240234
 21
152.5
  0
LINE
  8
0
  6
CONTINUOUS
 62
     7
 10
117.0987396240234
 20
162.5
 11
117.0987396240234
 21
152.5
  0
LINE
  8
0
  6
CONTINUOUS
 62
     7
 10
72.09873962402344
 20
176.5
 11
72.09873962402344
 21
138.5
  0
LINE
  8
0
  6
CONTINUOUS
 62
     7
 10
72.09873962402344
 20
176.5
 11
127.0987396240234
 21
176.5
  0
LINE
  8
0
  6
CONTINUOUS
 62
     7
 10
72.09873962402344
 20
138.5
 11
127.0987396240234
 21
138.5
  0
LINE
  8
0
  6
CONTINUOUS
 62
     7
 10
127.0987396240234
 20
180
 11
127.0987396240234
 21
135
  0
LINE
  8
0
  6
CONTINUOUS
 62
     7
 10
127.0987396240234
 20
180
 11
132.0987396240234
 21
180
  0
LINE
  8
0
  6
CONTINUOUS
 62
     7
 10
127.0987396240234
 20
135
 11
132.0987396240234
 21
135
  0
LINE
  8
0
  6
CONTINUOUS
 62
     7
 10
157.0986785888672
 20
95.00005340576172
 11
196.3603820800781
 21
92.94243621826172
  0
LINE
  8
0
  6
CONTINUOUS
 62
     7
 10
191.0987396240234
 20
65.489013671875
 11
201.0987396240234
 21
65.489013671875
  0
LINE
  8
0
  6
CONTINUOUS
 62
     7
 10
191.0987396240234
 20
249.510986328125
 11
201.0987396240234
 21
249.510986328125
  0
LINE
  8
0
  6
CONTINUOUS
 62
     7
 10
216.0987854003906
 20
255.5796966552734
 11
269.098876953125
 21
267.5
  0
LINE
  8
0
  6
CONTINUOUS
 62
     7
 10
265.4353637695312
 20
256.6692199707031
 11
247.0495147705078
 21
252.5
  0
LINE
  8
0
  6
CONTINUOUS
 62
     7
 10
265.4353942871094
 20
58.33076858520508
 11
247.0494842529297
 21
62.5
  0
LINE
  8
0
  6
CONTINUOUS
 62
     7
 10
216.0987396240234
 20
59.42028045654297
 11
269.0988464355469
 21
47.49999237060547
  0
LINE
  8
0
  6
CONTINUOUS
 62
     7
 10
135.0987396240234
 20
106.9996948242188
 11
135.0987396240234
 21
95
  0
LINE
  8
0
  6
CONTINUOUS
 62
     7
 10
266.0987548828125
 20
250.0000305175781
 11
266.0987548828125
 21
181.6766967773437
  0
LINE
  8
0
  6
CONTINUOUS
 62
     7
 10
220.0987396240234
 20
62.5
 11
262.0987548828125
 21
62.5
  0
LINE
  8
0
  6
CONTINUOUS
 62
     7
 10
220.0987396240234
 20
252.5
 11
262.0987548828125
 21
252.5
  0
LINE
  8
0
  6
CONTINUOUS
 62
     7
 10
220.0989074707031
 20
252.4998626708984
 11
216.0989074707031
 21
248.4998626708984
  0
LINE
  8
0
  6
CONTINUOUS
 62
     7
 10
216.0987243652344
 20
66.50008392333984
 11
220.0987243652344
 21
62.50008010864258
  0
LINE
  8
0
  6
CONTINUOUS
 62
     7
 10
262.0988464355469
 20
62.49993133544922
 11
266.0988464355469
 21
66.49993133544922
  0
LINE
  8
0
  6
CONTINUOUS
 62
     7
 10
266.0986938476562
 20
248.5000305175781
 11
262.0986938476563
 21
252.5000305175781
  0
LINE
  8
0
  6
CONTINUOUS
 62
     7
 10
220.0987091064453
 20
244.7189636230469
 11
262.0988159179687
 21
244.7189636230469
  0
LINE
  8
0
  6
CONTINUOUS
 62
     7
 10
220.0987091064453
 20
233.7187805175781
 11
262.0988159179687
 21
233.7187805175781
  0
LINE
  8
0
  6
CONTINUOUS
 62
     7
 10
220.0987091064453
 20
225.8566284179688
 11
262.0988159179687
 21
225.8566284179688
  0
LINE
  8
0
  6
CONTINUOUS
 62
     7
 10
220.0987091064453
 20
218.5436401367188
 11
262.0988159179687
 21
218.5436401367188
  0
LINE
  8
0
  6
CONTINUOUS
 62
     7
 10
220.0987091064453
 20
209.2644958496094
 11
262.0988159179687
 21
209.2644958496094
  0
LINE
  8
0
  6
CONTINUOUS
 62
     7
 10
220.0987091064453
 20
200.6044311523438
 11
262.0988159179687
 21
200.6044311523438
  0
LINE
  8
0
  6
CONTINUOUS
 62
     7
 10
220.0987091064453
 20
190.0186462402344
 11
262.0988159179687
 21
190.0186462402344
  0
LINE
  8
0
  6
CONTINUOUS
 62
     7
 10
220.0987091064453
 20
180.4557495117187
 11
262.0988159179687
 21
180.4557495117187
  0
LINE
  8
0
  6
CONTINUOUS
 62
     7
 10
220.0987091064453
 20
168.5000610351563
 11
262.0988159179687
 21
168.5000610351563
  0
LINE
  8
0
  6
CONTINUOUS
 62
     7
 10
220.0987091064453
 20
70.28070068359375
 11
262.0988159179687
 21
70.28070068359375
  0
LINE
  8
0
  6
CONTINUOUS
 62
     7
 10
266.0987548828125
 20
66
 11
266.0987548828125
 21
171.7474822998047
  0
LINE
  8
0
  6
CONTINUOUS
 62
     7
 10
267.0986022949219
 20
-234.9998931884766
 11
266.0985412597656
 21
-233.9998321533203
  0
LINE
  8
0
  6
CONTINUOUS
 62
     7
 10
266.0987548828125
 20
250
 11
284.0987548828125
 21
250
  0
LINE
  8
0
  6
CONTINUOUS
 62
     7
 10
284.0987548828125
 20
250
 11
284.0987548828125
 21
181.6767578125
  0
LINE
  8
0
  6
CONTINUOUS
 62
     7
 10
346.0987548828125
 20
282.5
 11
346.0987548828125
 21
32.5
  0
LINE
  8
0
  6
CONTINUOUS
 62
     7
 10
266.0987548828125
 20
65
 11
284.0987548828125
 21
65
  0
LINE
  8
0
  6
CONTINUOUS
 62
     7
 10
328.0987548828125
 20
282.5
 11
328.0987548828125
 21
32.5
  0
LINE
  8
0
  6
CONTINUOUS
 62
     7
 10
328.0987548828125
 20
282.5
 11
346.0987548828125
 21
282.5
  0
LINE
  8
0
  6
CONTINUOUS
 62
     7
 10
328.0987548828125
 20
32.5
 11
346.0987548828125
 21
32.5
  0
LINE
  8
0
  6
CONTINUOUS
 62
     7
 10
289.0987548828125
 20
210
 11
323.0987548828125
 21
210
  0
LINE
  8
0
  6
CONTINUOUS
 62
     7
 10
289.0987548828125
 20
105
 11
323.0987548828125
 21
105
  0
LINE
  8
0
  6
CONTINUOUS
 62
     7
 10
284.0987548828125
 20
230
 11
328.0987548828125
 21
230
  0
LINE
  8
0
  6
CONTINUOUS
 62
     7
 10
284.0987548828125
 20
85
 11
328.0987548828125
 21
85
  0
LINE
  8
0
  6
CONTINUOUS
 62
     7
 10
284.0987548828125
 20
162.5
 11
328.0987548828125
 21
162.5
  0
LINE
  8
0
  6
CONTINUOUS
 62
     7
 10
284.0987548828125
 20
152.5
 11
328.0987548828125
 21
152.5
  0
LINE
  8
0
  6
CONTINUOUS
 62
     7
 10
284.0987548828125
 20
172.1427001953125
 11
284.0987548828125
 21
65
  0
LINE
  8
0
  6
CONTINUOUS
 62
     7
 10
266.0987548828125
 20
-50
 11
284.0987548828125
 21
-50
  0
LINE
  8
0
  6
CONTINUOUS
 62
     7
 10
284.0987548828125
 20
-50
 11
284.0987548828125
 21
-235
  0
LINE
  8
0
  6
CONTINUOUS
 62
     7
 10
346.0987548828125
 20
-17.5
 11
346.0987548828125
 21
-267.5
  0
LINE
  8
0
  6
CONTINUOUS
 62
     7
 10
266.0987548828125
 20
-235
 11
284.0987548828125
 21
-235
  0
LINE
  8
0
  6
CONTINUOUS
 62
     7
 10
328.0987548828125
 20
-17.5
 11
328.0987548828125
 21
-267.5
  0
LINE
  8
0
  6
CONTINUOUS
 62
     7
 10
328.0987548828125
 20
-17.5
 11
346.0987548828125
 21
-17.5
  0
LINE
  8
0
  6
CONTINUOUS
 62
     7
 10
328.0987548828125
 20
-267.5
 11
346.0987548828125
 21
-267.5
  0
LINE
  8
0
  6
CONTINUOUS
 62
     7
 10
289.0987548828125
 20
-90
 11
323.0987548828125
 21
-90
  0
LINE
  8
0
  6
CONTINUOUS
 62
     7
 10
289.0987548828125
 20
-195
 11
323.0987548828125
 21
-195
  0
LINE
  8
0
  6
CONTINUOUS
 62
     7
 10
284.0987548828125
 20
-70
 11
328.0987548828125
 21
-70
  0
LINE
  8
0
  6
CONTINUOUS
 62
     7
 10
284.0987548828125
 20
-215
 11
328.0987548828125
 21
-215
  0
LINE
  8
0
  6
CONTINUOUS
 62
     7
 10
284.0987548828125
 20
-137.5
 11
328.0987548828125
 21
-137.5
  0
LINE
  8
0
  6
CONTINUOUS
 62
     7
 10
284.0987548828125
 20
-147.5
 11
328.0987548828125
 21
-147.5
  0
LINE
  8
0
  6
CONTINUOUS
 62
     7
 10
275.0987548828125
 20
-12.9805908203125
 11
275.0987548828125
 21
-53.633544921875
  0
LINE
  8
0
  6
CONTINUOUS
 62
     7
 10
255.3426361083984
 20
-32.8936767578125
 11
294.8502197265625
 21
-32.8936767578125
  0
LINE
  8
0
  6
CONTINUOUS
 62
     7
 10
267.0986328125
 20
-49.89361190795898
 11
267.6888427734375
 21
-46.54632568359375
  0
LINE
  8
0
  6
CONTINUOUS
 62
     7
 10
282.5083923339844
 20
-46.5463981628418
 11
283.0986022949219
 21
-49.8936882019043
  0
LINE
  8
0
  6
CONTINUOUS
 62
     7
 10
269.6585693359375
 20
-44.8936767578125
 11
280.5389404296875
 21
-44.8936767578125
  0
LINE
  8
0
  6
CONTINUOUS
 62
     7
 10
268.9682312011719
 20
-45.01658630371094
 11
274.7582702636719
 21
-42.88795471191406
  0
LINE
  8
0
  6
CONTINUOUS
 62
     7
 10
275.4388427734375
 20
-42.88782119750977
 11
281.2289123535156
 21
-45.01645660400391
  0
LINE
  8
0
  6
CONTINUOUS
 62
     3
 10
-97.90126037597656
 20
-253.6026306152344
 11
-97.90126037597656
 21
-289.4757080078125
  0
LINE
  8
0
  6
CONTINUOUS
 62
     7
 10
-203.9637145996094
 20
-51.40520477294922
 11
-206.2806243896484
 21
-49.78288650512695
  0
LINE
  8
0
  6
CONTINUOUS
 62
     7
 10
-204.3110504150391
 20
-49.43559646606445
 11
-201.994140625
 21
-51.05791854858398
  0
LINE
  8
0
  6
CONTINUOUS
 62
     7
 10
-210.7227630615234
 20
-50.56619262695312
 11
-199.0047760009766
 21
-48.49999618530273
  0
LINE
  8
0
  6
CONTINUOUS
 62
     7
 10
-212.6486511230469
 20
-20.29063987731934
 11
-207.7604522705078
 21
-48.01300430297852
  0
LINE
  8
0
  6
CONTINUOUS
 62
     7
 10
-206.4443664550781
 20
-19.19665908813477
 11
-201.5561676025391
 21
-46.91902160644531
  0
LINE
  8
0
  6
CONTINUOUS
 62
     7
 10
-212.1894989013672
 20
-46.5867919921875
 11
-212.1894989013672
 21
-50.65729904174805
  0
LINE
  8
0
  6
CONTINUOUS
 62
     7
 10
-208.4631042480469
 20
-44.02822494506836
 11
-211.6538391113281
 21
-45.7010612487793
  0
LINE
  8
0
  6
CONTINUOUS
 62
     7
 10
-202.2587890625
 20
-42.93431091308594
 11
-198.6883087158203
 21
-43.41497421264648
  0
LINE
  8
0
  6
CONTINUOUS
 62
     7
 10
-197.8820495605469
 20
-44.06405639648437
 11
-196.4898681640625
 21
-47.88903045654297
  0
LINE
  8
0
  6
CONTINUOUS
 62
     7
 10
-203.4394683837891
 20
-54.37839889526367
 11
-210.8759613037109
 21
-12.20395660400391
  0
ARC
  8
0
  6
CONTINUOUS
 62
     7
 10
284.0650939941406
 20
-233.5
 40
27.00000000000002
 50
211.9999640073086
 51
270.0000179860893
  0
ARC
  8
0
  6
CONTINUOUS
 62
     7
 10
199.0987396240234
 20
-140.5
 40
7.999999999999991
 50
103.3424218782613
 51
179.9999640278213
  0
ARC
  8
0
  6
CONTINUOUS
 62
     7
 10
196.0987396240234
 20
-127.8508911132812
 40
5.000000000000002
 50
283.3423007560891
 51
0
  0
ARC
  8
0
  6
CONTINUOUS
 62
     7
 10
152.5170745849609
 20
-255.5
 40
5.000000000000019
 50
270.0000179860893
 51
354.9999890463962
  0
ARC
  8
0
  6
CONTINUOUS
 62
     7
 10
186.0987396240234
 20
-255.5
 40
5.000000000000019
 50
270.0000179860893
 51
0
  0
ARC
  8
0
  6
CONTINUOUS
 62
     7
 10
158.1172332763672
 20
-191.4869995117188
 40
4.999999999999993
 50
355.0000172209265
 51
89.99998201391064
  0
ARC
  8
0
  6
CONTINUOUS
 62
     7
 10
196.0987396240234
 20
-72.94921875
 40
5.000000000000004
 50
272.9999190318291
 51
0
  0
ARC
  8
0
  6
CONTINUOUS
 62
     7
 10
-187.9012603759766
 20
-142.5
 40
94.99999999999999
 50
356.9830815379433
 51
3.017020914894262
  0
ARC
  8
0
  6
CONTINUOUS
 62
     7
 10
-187.9012603759766
 20
-142.5
 40
95
 50
9.983048887120244
 51
16.01707022634129
  0
ARC
  8
0
  6
CONTINUOUS
 62
     7
 10
-187.9012603759766
 20
-142.5
 40
95
 50
23.35063067780564
 51
96.64934875583648
  0
ARC
  8
0
  6
CONTINUOUS
 62
     7
 10
-187.9012603759766
 20
-142.5
 40
95
 50
103.982957018625
 51
110.0169373767111
  0
ARC
  8
0
  6
CONTINUOUS
 62
     7
 10
-187.9012603759766
 20
-142.5
 40
94.99999999999999
 50
116.9830268206396
 51
123.0169388768339
  0
ARC
  8
0
  6
CONTINUOUS
 62
     7
 10
-187.9012603759766
 20
-142.5
 40
95
 50
129.9829258679248
 51
136.0171111316859
  0
ARC
  8
0
  6
CONTINUOUS
 62
     7
 10
-187.9012603759766
 20
-142.5
 40
95
 50
143.3506306020153
 51
156.6490225764084
  0
ARC
  8
0
  6
CONTINUOUS
 62
     7
 10
-187.9012603759766
 20
-142.5
 40
95
 50
163.9828698958179
 51
170.0171781029841
  0
ARC
  8
0
  6
CONTINUOUS
 62
     7
 10
-187.9012603759766
 20
-142.5
 40
94.99999999999999
 50
176.9830284902917
 51
183.0170088483777
  0
CIRCLE
  8
0
  6
CONTINUOUS
 62
     7
 10
-187.9012603759766
 20
-142.5
 40
62.5
  0
CIRCLE
  8
0
  6
CONTINUOUS
 62
     7
 10
-187.9012603759766
 20
-142.5
 40
47.5
  0
ARC
  8
0
  6
CONTINUOUS
 62
     7
 10
-100.2369232177734
 20
-137.5
 40
5.000000000000003
 50
7.999983716329893
 51
89.99998201391064
  0
ARC
  8
0
  6
CONTINUOUS
 62
     7
 10
-116.6413116455078
 20
-255.5
 40
5.000000000000002
 50
194.9999510122271
 51
270.0000179860893
  0
ARC
  8
0
  6
CONTINUOUS
 62
     7
 10
-259.1611938476562
 20
-255.5
 40
5
 50
269.9999633445757
 51
345.000030318438
  0
ARC
  8
0
  6
CONTINUOUS
 62
     7
 10
-275.5656127929688
 20
-137.5
 40
4.99999999999999
 50
89.99998201391097
 51
171.9999820190389
  0
ARC
  8
0
  6
CONTINUOUS
 62
     7
 10
-187.9012603759766
 20
-142.5
 40
92.5
 50
4.360748362859799
 51
175.6392160918483
  0
ARC
  8
0
  6
CONTINUOUS
 62
     3
 10
-187.9012603759766
 20
-142.5
 40
80.99999999999999
 50
324.6929080291282
 51
335.3070493200847
  0
ARC
  8
0
  6
CONTINUOUS
 62
     3
 10
-187.9012603759766
 20
-142.5
 40
81
 50
24.69293360444239
 51
35.30705440483138
  0
ARC
  8
0
  6
CONTINUOUS
 62
     3
 10
-187.9012603759766
 20
-142.5
 40
81.00000000000001
 50
84.69292502881075
 51
95.3070526593889
  0
ARC
  8
0
  6
CONTINUOUS
 62
     3
 10
-187.9012603759766
 20
-142.5
 40
80.99999999999999
 50
144.6929130380845
 51
155.307054329041
  0
ARC
  8
0
  6
CONTINUOUS
 62
     3
 10
-187.9012603759766
 20
-142.5
 40
81.00000000000001
 50
204.6929183502023
 51
215.3070596411588
  0
ARC
  8
0
  6
CONTINUOUS
 62
     3
 10
-187.9012603759766
 20
-142.5
 40
81.00000000000001
 50
264.6929131896653
 51
275.3070544806217
  0
ARC
  8
0
  6
CONTINUOUS
 62
     7
 10
-93.75120544433594
 20
-255.5
 40
5.000000000000019
 50
270.0000179860893
 51
8.000021282370115
  0
ARC
  8
0
  6
CONTINUOUS
 62
     7
 10
-107.5241851806641
 20
-157.5
 40
5.000000000000003
 50
7.999983716329893
 51
89.99998201391064
  0
ARC
  8
0
  6
CONTINUOUS
 62
     7
 10
-282.0513305664062
 20
-255.5
 40
4.999999999999998
 50
171.9999410379039
 51
269.9999460417322
  0
ARC
  8
0
  6
CONTINUOUS
 62
     7
 10
-268.2783203125
 20
-157.5
 40
4.99999999999999
 50
89.99998201391097
 51
171.9999820190389
  0
ARC
  8
0
  6
CONTINUOUS
 62
     7
 10
-187.9012603759766
 20
-142.5
 40
18.99999999999999
 50
105.2575386196411
 51
74.74246957703868
  0
ARC
  8
0
  6
CONTINUOUS
 62
     7
 10
-134.9012603759766
 20
-281.5
 40
2
 50
0
 51
89.99998201391097
  0
ARC
  8
0
  6
CONTINUOUS
 62
     7
 10
-240.9012603759766
 20
-281.5
 40
1.999999999999985
 50
89.99998201391097
 51
179.9999640278219
  0
ARC
  8
0
  6
CONTINUOUS
 62
     7
 10
-122.0890045166016
 20
-127.5
 40
4.999999999999991
 50
192.8395894985086
 51
269.9999974955218
  0
ARC
  8
0
  6
CONTINUOUS
 62
     7
 10
-122.0890045166016
 20
-157.5
 40
5.000000000000004
 50
90.00000250447815
 51
167.1604105014914
  0
ARC
  8
0
  6
CONTINUOUS
 62
     7
 10
-253.7135162353516
 20
-157.5
 40
5.000000000000007
 50
12.83958853104956
 51
90.00000250447815
  0
ARC
  8
0
  6
CONTINUOUS
 62
     7
 10
-253.7135162353516
 20
-127.5
 40
5.000000000000004
 50
269.9999974955218
 51
347.1604114689504
  0
ARC
  8
0
  6
CONTINUOUS
 62
     7
 10
-240.2884063720703
 20
-185.065673828125
 40
5.000000000000003
 50
344.9999961674923
 51
39.0945957901839
  0
ARC
  8
0
  6
CONTINUOUS
 62
     7
 10
-221.7543487548828
 20
-200.8970947265625
 40
5.000000000000006
 50
59.89891486993582
 51
164.9999943462594
  0
ARC
  8
0
  6
CONTINUOUS
 62
     7
 10
-154.0482330322266
 20
-200.8970947265625
 40
5.000000000000003
 50
15.00000383250771
 51
120.1010218371287
  0
ARC
  8
0
  6
CONTINUOUS
 62
     7
 10
-135.5141754150391
 20
-185.0657348632813
 40
5.000000000000005
 50
140.9053272565025
 51
195.0000020112749
  0
ARC
  8
0
  6
DASHED
 62
     3
 10
-187.9012603759766
 20
-23.20001220703125
 40
1.200000047683714
 50
89.99998201391004
 51
100.9419177435147
  0
ARC
  8
0
  6
DASHED
 62
     3
 10
-187.9012603759766
 20
-23.20001220703125
 40
1.200000047683716
 50
79.05804628430651
 51
89.99998201391004
  0
CIRCLE
  8
0
  6
CONTINUOUS
 62
     7
 10
297.0987548828125
 20
247.5
 40
7.5
  0
ARC
  8
0
  6
CONTINUOUS
 62
     7
 10
196.0987396240234
 20
227.05078125
 40
5.000000000000004
 50
272.9999190318291
 51
0
  0
ARC
  8
0
  6
CONTINUOUS
 62
     7
 10
309.0987548828125
 20
55.5
 40
8.000000000000004
 50
270.0000179860895
 51
0
  0
ARC
  8
0
  6
CONTINUOUS
 62
     7
 10
155.0987396240234
 20
55.5
 40
8.000000000000011
 50
179.9999776881997
 51
270.0000280040019
  0
ARC
  8
0
  6
CONTINUOUS
 62
     7
 10
155.0987396240234
 20
259.5
 40
8.000000000000004
 50
89.9999273723972
 51
179.9999640278211
  0
ARC
  8
0
  6
CONTINUOUS
 62
     7
 10
309.0987548828125
 20
259.5
 40
8
 50
359.9999453584866
 51
89.9999273723972
  0
ARC
  8
0
  6
CONTINUOUS
 62
     7
 10
155.0987396240234
 20
220.5
 40
8.000000000000011
 50
179.9999776881997
 51
183.583286172085
  0
ARC
  8
0
  6
CONTINUOUS
 62
     7
 10
155.0987396240234
 20
94.5
 40
8.000000000000011
 50
176.4167101854492
 51
179.9999640278213
  0
CIRCLE
  8
0
  6
CONTINUOUS
 62
     7
 10
167.0987396240234
 20
67.5
 40
7.5
  0
CIRCLE
  8
0
  6
CONTINUOUS
 62
     7
 10
167.0987396240234
 20
247.5
 40
7.5
  0
ARC
  8
0
  6
CONTINUOUS
 62
     7
 10
120.0987396240234
 20
157.5
 40
4.99999999999999
 50
270.0000179860893
 51
89.99998201391064
  0
ARC
  8
0
  6
CONTINUOUS
 62
     7
 10
196.0987396240234
 20
87.94921875
 40
5
 50
0
 51
87.00008096817092
  0
ARC
  8
0
  6
CONTINUOUS
 62
     7
 10
266.0988159179687
 20
253.7435302734375
 40
2.999999999999981
 50
25.00241801347214
 51
102.7764587432561
  0
ARC
  8
0
  6
CONTINUOUS
 62
     7
 10
266.0988159179687
 20
61.2564697265625
 40
3.000000000000008
 50
257.2235412567439
 51
339.5486241154195
  0
CIRCLE
  8
0
  6
CONTINUOUS
 62
     7
 10
297.0987548828125
 20
67.5
 40
7.5
  0
ARC
  8
0
  6
CONTINUOUS
 62
     7
 10
323.0987548828125
 20
100
 40
5
 50
0
 51
90.00000250447847
  0
ARC
  8
0
  6
CONTINUOUS
 62
     7
 10
323.0987548828125
 20
215
 40
5.000000000000004
 50
269.9999974955215
 51
0
  0
ARC
  8
0
  6
CONTINUOUS
 62
     7
 10
289.0987548828125
 20
215
 40
5
 50
179.999991348578
 51
270.0000006832456
  0
ARC
  8
0
  6
CONTINUOUS
 62
     7
 10
289.0987548828125
 20
100
 40
5.000000000000004
 50
90.00000250447847
 51
180.0000050089563
  0
ARC
  8
0
  6
CONTINUOUS
 62
     7
 10
323.0987548828125
 20
-200
 40
5
 50
0
 51
90.00000250447847
  0
ARC
  8
0
  6
CONTINUOUS
 62
     7
 10
323.0987548828125
 20
-85
 40
5.000000000000004
 50
269.9999974955215
 51
0
  0
ARC
  8
0
  6
CONTINUOUS
 62
     7
 10
289.0987548828125
 20
-85
 40
5
 50
179.999991348578
 51
270.0000006832456
  0
ARC
  8
0
  6
CONTINUOUS
 62
     7
 10
289.0987548828125
 20
-200
 40
5.000000000000004
 50
90.00000250447847
 51
180.0000050089563
  0
ARC
  8
0
  6
CONTINUOUS
 62
     7
 10
275.0987548828125
 20
-32.8936767578125
 40
16.29999923706054
 50
306.086414050692
 51
233.9135431469399
  0
CIRCLE
  8
0
  6
CONTINUOUS
 62
     7
 10
275.0987548828125
 20
-32.8936767578125
 40
10
  0
ARC
  8
0
  6
CONTINUOUS
 62
     7
 10
269.6585693359375
 20
-46.8936767578125
 40
1.999999999999999
 50
89.99998201391097
 51
170.000020667789
  0
ARC
  8
0
  6
CONTINUOUS
 62
     7
 10
280.5389404296875
 20
-46.8936767578125
 40
1.999999999999976
 50
10.00000397796126
 51
89.99998201391097
  0
ARC
  8
0
  6
CONTINUOUS
 62
     7
 10
263.1419677734375
 20
-49.2987060546875
 40
4.000000000000023
 50
351.4459282863103
 51
53.91357911911892
  0
ARC
  8
0
  6
CONTINUOUS
 62
     7
 10
287.0555419921875
 20
-49.2987060546875
 40
4.000000000000011
 50
126.0864395502162
 51
188.554038302832
  0
ARC
  8
0
  6
CONTINUOUS
 62
     7
 10
-187.9012603759766
 20
-142.5
 40
125
 50
325.7363628588202
 51
98.55599606264552
  0
ARC
  8
0
  6
CONTINUOUS
 62
     7
 10
-198.8217315673828
 20
-44.406005859375
 40
0.9999999999999987
 50
20.0000130785643
 51
82.33288293470682
  0
ARC
  8
0
  6
CONTINUOUS
 62
     7
 10
-209.5465240478516
 20
-19.74365234375
 40
3.150000095367426
 50
9.999999709092926
 51
189.9999620293669
  0
ARC
  8
0
  6
CONTINUOUS
 62
     7
 10
-200.5713653564453
 20
-46.745361328125
 40
0.999999999999986
 50
189.999979332211
 51
280.0000159876346
  0
ARC
  8
0
  6
CONTINUOUS
 62
     7
 10
-208.7452545166016
 20
-48.1866455078125
 40
0.9999999999999978
 50
279.9999613461212
 51
9.999999709092924
  0
ARC
  8
0
  6
CONTINUOUS
 62
     7
 10
-211.1894683837891
 20
-46.5867919921875
 40
0.9999999999999956
 50
117.667083926394
 51
179.9999503674428
  0
ARC
  8
0
  6
CONTINUOUS
 62
     7
 10
-187.9012603759766
 20
-142.5
 40
125
 50
101.4439981192129
 51
214.2637309425953
  0
POLYLINE
  8
0
  6
CONTINUOUS
 62
     7
 66
     1
 10
0
 20
0
  0
VERTEX
  8
0
  6
CONTINUOUS
 62
     7
 10
267.3606416824474
 20
171.9583637129985
 42
0.04188691999831154
  0
VERTEX
  8
0
  6
CONTINUOUS
 62
     7
 10
267.8007725832472
 20
170.7303844402992
 42
0.04165559636297
  0
VERTEX
  8
0
  6
CONTINUOUS
 62
     7
 10
268.4390171410989
 20
169.5924553077192
 42
0.04136485841426774
  0
VERTEX
  8
0
  6
CONTINUOUS
 62
     7
 10
269.2564716058372
 20
168.5755945573833
 42
0.04106105922613675
  0
VERTEX
  8
0
  6
CONTINUOUS
 62
     7
 10
270.2297798968774
 20
167.7064504863346
 42
0.04077367481035254
  0
VERTEX
  8
0
  6
CONTINUOUS
 62
     7
 10
271.3318519835147
 20
167.0072624907351
 42
0.04052906794769071
  0
VERTEX
  8
0
  6
CONTINUOUS
 62
     7
 10
272.5327124467104
 20
166.4955070129774
 42
0.04034774979668063
  0
VERTEX
  8
0
  6
CONTINUOUS
 62
     7
 10
273.8002902478511
 20
166.1836904889402
 42
0.0402356985425545
  0
VERTEX
  8
0
  6
CONTINUOUS
 62
     7
 10
275.1009176338389
 20
166.0792239244678
 42
0.04022884956918078
  0
VERTEX
  8
0
  6
CONTINUOUS
 62
     7
 10
276.4012635074578
 20
166.1843512723062
 42
0.04031599865615433
  0
VERTEX
  8
0
  6
CONTINUOUS
 62
     7
 10
277.6676953513644
 20
166.4964838661883
 42
0.04051172969271709
  0
VERTEX
  8
0
  6
CONTINUOUS
 62
     7
 10
278.8678513731974
 20
167.0084315531415
 42
0.04075994656515059
  0
VERTEX
  8
0
  6
CONTINUOUS
 62
     7
 10
279.9693407782672
 20
167.7076904947337
 42
0.04105999637889506
  0
VERTEX
  8
0
  6
CONTINUOUS
 62
     7
 10
280.9423904478872
 20
168.5770507697545
 42
0.04137753781253108
  0
VERTEX
  8
0
  6
CONTINUOUS
 62
     7
 10
281.7598011679266
 20
169.5944377549724
 42
0.04167518698815145
  0
VERTEX
  8
0
  6
CONTINUOUS
 62
     7
 10
282.3979459871963
 20
170.7331047908889
 42
0.04191607587234755
  0
VERTEX
  8
0
  6
CONTINUOUS
 62
     7
 10
282.8378356527697
 20
171.9621153909912
 42
0
  0
SEQEND
  8
0
  0
POLYLINE
  8
0
  6
CONTINUOUS
 62
     7
 66
     1
 10
0
 20
0
  0
VERTEX
  8
0
  6
CONTINUOUS
 62
     7
 10
263.5604095458985
 20
172.7122802734375
 42
-0.01902127742781185
  0
VERTEX
  8
0
  6
CONTINUOUS
 62
     7
 10
262.8185144547135
 20
172.9164895327035
 42
-0.0104804286766336
  0
VERTEX
  8
0
  6
CONTINUOUS
 62
     7
 10
262.0898541546998
 20
173.1642150632347
 42
-0.005820267893551052
  0
VERTEX
  8
0
  6
CONTINUOUS
 62
     7
 10
261.3682453394886
 20
173.4328444457482
 42
-0.0297162441014808
  0
VERTEX
  8
0
  6
CONTINUOUS
 62
     7
 10
260.6673913427108
 20
173.7499475181881
 42
-0.05880793834990682
  0
VERTEX
  8
0
  6
CONTINUOUS
 62
     7
 10
260.0342878589167
 20
174.1842879636437
 42
-0.05380353320154633
  0
VERTEX
  8
0
  6
CONTINUOUS
 62
     7
 10
259.5229235773091
 20
174.7575576448239
 42
-0.04811757053520116
  0
VERTEX
  8
0
  6
CONTINUOUS
 62
     7
 10
259.1299816321149
 20
175.4188639123132
 42
-0.05488022536655204
  0
VERTEX
  8
0
  6
CONTINUOUS
 62
     7
 10
258.884438046391
 20
176.1465081444491
 42
-0.05416974907919835
  0
VERTEX
  8
0
  6
CONTINUOUS
 62
     7
 10
258.8011322021484
 20
176.90966796875
 42
-0.05420046575543899
  0
VERTEX
  8
0
  6
CONTINUOUS
 62
     7
 10
258.8845330401713
 20
177.6732593629053
 42
-0.05489311719459972
  0
VERTEX
  8
0
  6
CONTINUOUS
 62
     7
 10
259.1302345808891
 20
178.4010152379159
 42
-0.04804079532566589
  0
VERTEX
  8
0
  6
CONTINUOUS
 62
     7
 10
259.5225621352318
 20
179.0612807876907
 42
-0.05381817564888433
  0
VERTEX
  8
0
  6
CONTINUOUS
 62
     7
 10
260.0341233946774
 20
179.6349019783266
 42
-0.05878438890446391
  0
VERTEX
  8
0
  6
CONTINUOUS
 62
     7
 10
260.6672254537256
 20
180.0693415982858
 42
-0.02971468707345844
  0
VERTEX
  8
0
  6
CONTINUOUS
 62
     7
 10
261.3677237124199
 20
180.3864022391362
 42
-0.005845294529769129
  0
VERTEX
  8
0
  6
CONTINUOUS
 62
     7
 10
262.0891014129282
 20
180.6550093807732
 42
-0.01048951448779799
  0
VERTEX
  8
0
  6
CONTINUOUS
 62
     7
 10
262.8180659001944
 20
180.9028465462796
 42
-0.01900922735213396
  0
VERTEX
  8
0
  6
CONTINUOUS
 62
     7
 10
263.5599212646484
 20
181.1070556640625
 42
0
  0
SEQEND
  8
0
  0
POLYLINE
  8
0
  6
CONTINUOUS
 62
     7
 66
     1
 10
0
 20
0
  0
VERTEX
  8
0
  6
CONTINUOUS
 62
     7
 10
286.6505482676496
 20
181.1029246001046
 42
0.02482962367353025
  0
VERTEX
  8
0
  6
CONTINUOUS
 62
     7
 10
285.242144916961
 20
181.4650378602846
 42
0.01364821428346924
  0
VERTEX
  8
0
  6
CONTINUOUS
 62
     7
 10
283.810287655724
 20
181.7223438910064
 42
0.009382640374526505
  0
VERTEX
  8
0
  6
CONTINUOUS
 62
     7
 10
282.3679893450782
 20
181.914682199177
 42
0.007275298498355253
  0
VERTEX
  8
0
  6
CONTINUOUS
 62
     7
 10
280.9195825880925
 20
182.0593978504199
 42
0.00609558929791626
  0
VERTEX
  8
0
  6
CONTINUOUS
 62
     7
 10
279.4675758543073
 20
182.1655845534233
 42
0.005403367898800354
  0
VERTEX
  8
0
  6
CONTINUOUS
 62
     7
 10
278.0134947149874
 20
182.2384879848909
 42
0.005011263968881405
  0
VERTEX
  8
0
  6
CONTINUOUS
 62
     7
 10
276.5580958539798
 20
182.2811828540835
 42
0.004832105010564308
  0
VERTEX
  8
0
  6
CONTINUOUS
 62
     7
 10
275.1021588191987
 20
182.295288008232
 42
0.004831359794065512
  0
VERTEX
  8
0
  6
CONTINUOUS
 62
     7
 10
273.6463270794488
 20
182.2813175548943
 42
0.005006465702590323
  0
VERTEX
  8
0
  6
CONTINUOUS
 62
     7
 10
272.1919187986282
 20
182.2388013711965
 42
0.005400851720777226
  0
VERTEX
  8
0
  6
CONTINUOUS
 62
     7
 10
270.7377501430463
 20
182.1660648527925
 42
0.006091088302581383
  0
VERTEX
  8
0
  6
CONTINUOUS
 62
     7
 10
269.2856644219017
 20
182.0600640736001
 42
0.007269759850310115
  0
VERTEX
  8
0
  6
CONTINUOUS
 62
     7
 10
267.8367617751937
 20
181.9155201733261
 42
0.009378629605928675
  0
VERTEX
  8
0
  6
CONTINUOUS
 62
     7
 10
266.393034760206
 20
181.7232415192995
 42
0.01364203032277116
  0
VERTEX
  8
0
  6
CONTINUOUS
 62
     7
 10
264.9595088243394
 20
181.4659166801287
 42
0.02480801657028733
  0
VERTEX
  8
0
  6
CONTINUOUS
 62
     7
 10
263.5496005620362
 20
181.1037767992994
 42
0
  0
SEQEND
  8
0
  0
POLYLINE
  8
0
  6
CONTINUOUS
 62
     7
 66
     1
 10
0
 20
0
  0
VERTEX
  8
0
  6
CONTINUOUS
 62
     7
 10
286.6370697021485
 20
172.7122802734375
 42
0.01902139214773899
  0
VERTEX
  8
0
  6
CONTINUOUS
 62
     7
 10
287.3789647963929
 20
172.9164895132322
 42
0.01048037918429788
  0
VERTEX
  8
0
  6
CONTINUOUS
 62
     7
 10
288.1076250706362
 20
173.1642151210108
 42
0.005820317247057504
  0
VERTEX
  8
0
  6
CONTINUOUS
 62
     7
 10
288.8292339251322
 20
173.4328444013335
 42
0.02971626802189242
  0
VERTEX
  8
0
  6
CONTINUOUS
 62
     7
 10
289.5300878810716
 20
173.7499475620386
 42
0.05880781466695274
  0
VERTEX
  8
0
  6
CONTINUOUS
 62
     7
 10
290.1631914012302
 20
174.1842879488579
 42
0.05380350638853629
  0
VERTEX
  8
0
  6
CONTINUOUS
 62
     7
 10
290.6745556625596
 20
174.7575576494611
 42
0.04811762315564101
  0
VERTEX
  8
0
  6
CONTINUOUS
 62
     7
 10
291.0674975943529
 20
175.418863920985
 42
0.0548803083221318
  0
VERTEX
  8
0
  6
CONTINUOUS
 62
     7
 10
291.3130411835901
 20
176.1465081319212
 42
0.05416978384151624
  0
VERTEX
  8
0
  6
CONTINUOUS
 62
     7
 10
291.3963470458984
 20
176.90966796875
 42
0.05420043167744593
  0
VERTEX
  8
0
  6
CONTINUOUS
 62
     7
 10
291.3129462231011
 20
177.6732593635388
 42
0.0548930320978398
  0
VERTEX
  8
0
  6
CONTINUOUS
 62
     7
 10
291.0672446938636
 20
178.401015235741
 42
0.04804074265060748
  0
VERTEX
  8
0
  6
CONTINUOUS
 62
     7
 10
290.6749171308335
 20
179.0612807785388
 42
0.05381820211932075
  0
VERTEX
  8
0
  6
CONTINUOUS
 62
     7
 10
290.1633558561859
 20
179.6349019502376
 42
0.05878451272076256
  0
VERTEX
  8
0
  6
CONTINUOUS
 62
     7
 10
289.5302538455302
 20
180.0693416276274
 42
0.02971466440151976
  0
VERTEX
  8
0
  6
CONTINUOUS
 62
     7
 10
288.8297555410927
 20
180.386402186056
 42
0.005845245646305974
  0
VERTEX
  8
0
  6
CONTINUOUS
 62
     7
 10
288.1083778772658
 20
180.655009431544
 42
0.01048956385251634
  0
VERTEX
  8
0
  6
CONTINUOUS
 62
     7
 10
287.3794133589124
 20
180.9028465223585
 42
0.01900911295313165
  0
VERTEX
  8
0
  6
CONTINUOUS
 62
     7
 10
286.6375579833985
 20
181.1070556640625
 42
0
  0
SEQEND
  8
0
  0
POLYLINE
  8
0
  6
CONTINUOUS
 62
     7
 66
     1
 10
0
 20
0
  0
VERTEX
  8
0
  6
CONTINUOUS
 62
     7
 10
261.9485931396484
 20
173.8076171875
 42
0.1945653528070213
  0
VERTEX
  8
0
  6
CONTINUOUS
 62
     7
 10
264.8907700054235
 20
172.368116426723
 42
0.02554500399364996
  0
VERTEX
  8
0
  6
CONTINUOUS
 62
     7
 10
268.2694102713385
 20
171.8562539679081
 42
0.01446898894457979
  0
VERTEX
  8
0
  6
CONTINUOUS
 62
     7
 10
271.6788495357859
 20
171.6027423182277
 42
0.01163094393798625
  0
VERTEX
  8
0
  6
CONTINUOUS
 62
     7
 10
275.0987396240234
 20
171.524169921875
 42
0.01162461648080808
  0
VERTEX
  8
0
  6
CONTINUOUS
 62
     7
 10
278.5168849496313
 20
171.6026600046549
 42
0.01447181515336143
  0
VERTEX
  8
0
  6
CONTINUOUS
 62
     7
 10
281.9274294473474
 20
171.856185536458
 42
0.0255595695136938
  0
VERTEX
  8
0
  6
CONTINUOUS
 62
     7
 10
285.3077994544113
 20
172.368348893487
 42
0.195279839244677
  0
VERTEX
  8
0
  6
CONTINUOUS
 62
     7
 10
288.2488800556942
 20
173.8098080936706
 42
0.1938930530117994
  0
VERTEX
  8
0
  6
CONTINUOUS
 62
     7
 10
285.3045596784235
 20
175.2475774446729
 42
0.02553074122140834
  0
VERTEX
  8
0
  6
CONTINUOUS
 62
     7
 10
281.9258800392093
 20
175.7592113479935
 42
0.01446570066525765
  0
VERTEX
  8
0
  6
CONTINUOUS
 62
     7
 10
278.5164297497986
 20
176.0125949106408
 42
0.01162288066857954
  0
VERTEX
  8
0
  6
CONTINUOUS
 62
     7
 10
275.0987396240234
 20
176.091064453125
 42
0.01162461648079936
  0
VERTEX
  8
0
  6
CONTINUOUS
 62
     7
 10
271.6805942984157
 20
176.0125743703451
 42
0.01447181515336254
  0
VERTEX
  8
0
  6
CONTINUOUS
 62
     7
 10
268.2700498006994
 20
175.759048838542
 42
0.02555956951370535
  0
VERTEX
  8
0
  6
CONTINUOUS
 62
     7
 10
264.8896797936356
 20
175.246885481513
 42
0.195279839244676
  0
VERTEX
  8
0
  6
CONTINUOUS
 62
     7
 10
261.9485991923527
 20
173.8054262813293
 42
0
  0
SEQEND
  8
0
  0
TEXT
  8
0
  6
CONTINUOUS
 62
     7
 10
-275.3298301696777
 20
148.5
 40
18
 41
0.8444757469838271
  1
ＥＲＫ－Ｃ－２２００
  0
ENDSEC
  0
EOF
