  0
SECTION
  2
HEADER
  0
ENDSEC
  0
SECTION
  2
TABLES
  0
TABLE
  2
LTYPE
 70
    22
  0
LTYPE
  2
CONTINUOUS
 70
    64
  3
Solid line
 72
    65
 73
     0
 40
0.000000
  0
LTYPE
  2
DASHED
 70
    64
  3
__ __ __ __ __ __ __ __ __ __ __ __ __ __ __
 72
    65
 73
     2
 40
3.500000
 49
2.000000
 49
-1.500000
  0
LTYPE
  2
CENTER
 70
    64
  3
____ _ ____ _ ____ _ ____ _ ____ _ ____ _ ____
 72
    65
 73
     4
 40
17.500000
 49
13.000000
 49
-1.500000
 49
1.500000
 49
-1.500000
  0
LTYPE
  2
PHANTOM
 70
    64
  3
_____ _ _ _____ _ _ _____ _ _ _____ _ _ ____  
 72
    65
 73
     6
 40
15.500000
 49
8.000000
 49
-1.500000
 49
1.500000
 49
-1.500000
 49
1.500000
 49
-1.500000
  0
LTYPE
  2
DOT
 70
    64
  3
. . . . . . . . . . . . . . . . . . . . . . . .
 72
    65
 73
     2
 40
0.25
 49
0.0
 49
-0.25
  0
ENDTAB
  0
TABLE
  2
LAYER
 70
     1
  0
LAYER
  2
0
 70
     0
 62
     7
  6
CONTINUOUS
  0
ENDTAB
  0
TABLE
  2
STYLE
 70
     1
  0
STYLE
  2
STANDARD
 70
     0
 40
0.000000
 41
1.000000
 50
0.000000
 71
     0
 42
0.200000
  3
txt
  4
BIGFONT
  0
ENDTAB
  0
TABLE
  2
VIEW
 70
     0
  0
ENDTAB
  0
ENDSEC
  0
SECTION
  2
BLOCKS
  0
ENDSEC
  0
SECTION
  2
ENTITIES
  0
LINE
  8
0
  6
CONTINUOUS
 62
     7
 10
125.0987548828125
 20
91.5
 11
92.09872436523437
 21
91.5
  0
LINE
  8
0
  6
CONTINUOUS
 62
     7
 10
-155.9012908935547
 20
-109.4999465942383
 11
-161.2536163330078
 21
-109.4999465942383
  0
LINE
  8
0
  6
CONTINUOUS
 62
     7
 10
158.5987091064453
 20
212.4999847412109
 11
155.0987091064453
 21
208.3390960693359
  0
LINE
  8
0
  6
CONTINUOUS
 62
     3
 10
255.0987243652344
 20
137.5
 11
32.0987548828125
 21
137.5
  0
LINE
  8
0
  6
CONTINUOUS
 62
     7
 10
-217.8933410644531
 20
-41.21640396118164
 11
-216.2724609375
 21
-32.02394104003906
  0
LINE
  8
0
  6
CONTINUOUS
 62
     7
 10
195.0987243652344
 20
210
 11
195.0987243652344
 21
158.3510894775391
  0
LINE
  8
0
  6
CONTINUOUS
 62
     7
 10
125.0987548828125
 20
85.5
 11
108.0987548828125
 21
85.5
  0
LINE
  8
0
  6
CONTINUOUS
 62
     7
 10
158.5987548828125
 20
212.5
 11
191.5987548828125
 21
212.5
  0
LINE
  8
0
  6
CONTINUOUS
 62
     7
 10
-164.8281707763672
 20
-60.95011138916016
 11
-155.3829345703125
 21
-57.5123291015625
  0
LINE
  8
0
  6
CONTINUOUS
 62
     7
 10
-180.1885375976563
 20
-137.5000915527344
 11
-162.0020446777344
 21
-169.0000305175781
  0
LINE
  8
0
  6
CONTINUOUS
 62
     7
 10
-187.1167449951172
 20
-141.5000610351562
 11
-167.7755279541016
 21
-175.0000305175781
  0
LINE
  8
0
  6
CONTINUOUS
 62
     7
 10
-228.6860504150391
 20
-141.4999542236328
 11
-248.0272979736328
 21
-175
  0
LINE
  8
0
  6
CONTINUOUS
 62
     7
 10
-235.6142272949219
 20
-137.4999084472656
 11
-253.8008270263672
 21
-169.0000305175781
  0
LINE
  8
0
  6
CONTINUOUS
 62
     7
 10
-147.0124664306641
 20
-72.01071929931641
 11
-154.4014129638672
 21
-78.21077728271484
  0
LINE
  8
0
  6
CONTINUOUS
 62
     7
 10
32.0987548828125
 20
-97.5
 11
255.0987243652344
 21
-97.5
  0
LINE
  8
0
  6
CONTINUOUS
 62
     7
 10
125.0987548828125
 20
183.5
 11
92.09872436523437
 21
183.5
  0
LINE
  8
0
  6
CONTINUOUS
 62
     7
 10
191.5987396240234
 20
62.49999618530273
 11
195.0987548828125
 21
66.660888671875
  0
LINE
  8
0
  6
CONTINUOUS
 62
     7
 10
158.5987548828125
 20
-22.5
 11
191.5987548828125
 21
-22.5
  0
LINE
  8
0
  6
CONTINUOUS
 62
     7
 10
158.5987396240234
 20
-22.49997901916504
 11
155.0987243652344
 21
-26.66087341308594
  0
LINE
  8
0
  6
CONTINUOUS
 62
     7
 10
191.5987091064453
 20
-22.49996185302734
 11
195.0987243652344
 21
-26.66085815429687
  0
LINE
  8
0
  6
CONTINUOUS
 62
     7
 10
195.0987243652344
 20
-25
 11
195.0987243652344
 21
-161.2102661132812
  0
LINE
  8
0
  6
CONTINUOUS
 62
     7
 10
158.5987548828125
 20
-68.06532287597656
 11
191.5987548828125
 21
-68.06532287597656
  0
LINE
  8
0
  6
CONTINUOUS
 62
     7
 10
158.5987548828125
 20
-76.75528717041016
 11
191.5987548828125
 21
-76.75528717041016
  0
LINE
  8
0
  6
CONTINUOUS
 62
     7
 10
158.5987548828125
 20
-84.55023956298828
 11
191.5987548828125
 21
-84.55023956298828
  0
LINE
  8
0
  6
CONTINUOUS
 62
     7
 10
161.3913269042969
 20
-93.50006103515625
 11
191.5987548828125
 21
-93.50006103515625
  0
LINE
  8
0
  6
CONTINUOUS
 62
     7
 10
165.9761352539062
 20
-101.5000915527344
 11
191.5987548828125
 21
-101.5000915527344
  0
LINE
  8
0
  6
CONTINUOUS
 62
     7
 10
170.3412780761719
 20
-110.4499130249023
 11
191.5987548828125
 21
-110.4499130249023
  0
LINE
  8
0
  6
CONTINUOUS
 62
     7
 10
174.1430969238281
 20
-118.2448654174805
 11
191.5987548828125
 21
-118.2448654174805
  0
LINE
  8
0
  6
CONTINUOUS
 62
     7
 10
178.3814697265625
 20
-126.9347915649414
 11
191.5987548828125
 21
-126.9347915649414
  0
LINE
  8
0
  6
CONTINUOUS
 62
     7
 10
185.9844665527344
 20
-142.5232543945312
 11
191.5987548828125
 21
-142.5232543945312
  0
LINE
  8
0
  6
CONTINUOUS
 62
     7
 10
189.409423828125
 20
-149.5454406738281
 11
191.5987548828125
 21
-149.5454406738281
  0
LINE
  8
0
  6
CONTINUOUS
 62
     7
 10
87.09872436523437
 20
-63.49999618530273
 11
87.09872436523437
 21
-131.5
  0
LINE
  8
0
  6
CONTINUOUS
 62
     7
 10
237.0987243652344
 20
-171.5
 11
237.0987243652344
 21
-187.5
  0
LINE
  8
0
  6
CONTINUOUS
 62
     7
 10
102.0987243652344
 20
-187.5
 11
237.0987243652344
 21
-187.5
  0
LINE
  8
0
  6
CONTINUOUS
 62
     7
 10
102.0987243652344
 20
-171.5
 11
127.0987243652344
 21
-171.5
  0
LINE
  8
0
  6
CONTINUOUS
 62
     7
 10
102.0987243652344
 20
-171.5
 11
102.0987243652344
 21
-187.5
  0
LINE
  8
0
  6
CONTINUOUS
 62
     7
 10
92.09872436523437
 20
-51.50000381469727
 11
92.09872436523437
 21
-143.5
  0
LINE
  8
0
  6
CONTINUOUS
 62
     7
 10
92.09872436523437
 20
-51.50000381469727
 11
108.0987548828125
 21
-51.50000381469727
  0
LINE
  8
0
  6
CONTINUOUS
 62
     7
 10
92.09872436523437
 20
-143.5
 11
104.7656555175781
 21
-143.5
  0
LINE
  8
0
  6
CONTINUOUS
 62
     7
 10
125.0987243652344
 20
-53.06664657592773
 11
125.0987243652344
 21
-80.5
  0
LINE
  8
0
  6
CONTINUOUS
 62
     7
 10
125.0987243652344
 20
-150
 11
132.0987243652344
 21
-150
  0
LINE
  8
0
  6
CONTINUOUS
 62
     7
 10
87.09872436523437
 20
-63.49997329711914
 11
92.09869384765625
 21
-60.61323928833008
  0
LINE
  8
0
  6
CONTINUOUS
 62
     7
 10
87.09873962402344
 20
-131.5000152587891
 11
92.09873962402344
 21
-134.3867645263672
  0
LINE
  8
0
  6
CONTINUOUS
 62
     7
 10
155.0987243652344
 20
-25
 11
155.0987243652344
 21
-91.50000762939453
  0
LINE
  8
0
  6
CONTINUOUS
 62
     7
 10
143.0987243652344
 20
-25
 11
155.0987243652344
 21
-25
  0
LINE
  8
0
  6
CONTINUOUS
 62
     7
 10
143.0987243652344
 20
-81.22164916992188
 11
146.0987548828125
 21
-81.22164916992188
  0
LINE
  8
0
  6
CONTINUOUS
 62
     7
 10
143.0987243652344
 20
-25
 11
143.0987243652344
 21
-81.22164916992188
  0
LINE
  8
0
  6
CONTINUOUS
 62
     7
 10
105.0987243652344
 20
-146.186279296875
 11
105.0987243652344
 21
-171.5
  0
LINE
  8
0
  6
CONTINUOUS
 62
     7
 10
132.0987243652344
 20
-99.5
 11
132.0987243652344
 21
-166.5
  0
LINE
  8
0
  6
CONTINUOUS
 62
     7
 10
140.0987243652344
 20
-91.50000762939453
 11
156.0997924804688
 21
-91.50000762939453
  0
LINE
  8
0
  6
CONTINUOUS
 62
     7
 10
197.3781280517578
 20
-165.8837127685547
 11
163.2901611328125
 21
-95.99301910400391
  0
LINE
  8
0
  6
CONTINUOUS
 62
     7
 10
125.0987243652344
 20
-114.4999923706055
 11
125.0987243652344
 21
-150
  0
LINE
  8
0
  6
CONTINUOUS
 62
     7
 10
103.0989303588867
 20
-56.70048522949219
 11
143.0987396240234
 21
-35.33908462524414
  0
LINE
  8
0
  6
CONTINUOUS
 62
     3
 10
117.0987243652344
 20
-165.4804840087891
 11
117.0987243652344
 21
-193.5260620117188
  0
LINE
  8
0
  6
CONTINUOUS
 62
     3
 10
222.0987243652344
 20
-164.1123809814453
 11
222.0987243652344
 21
-193.5260620117188
  0
LINE
  8
0
  6
CONTINUOUS
 62
     7
 10
42.0987548828125
 20
-80.5
 11
42.0987548828125
 21
-111.5000076293945
  0
LINE
  8
0
  6
CONTINUOUS
 62
     7
 10
42.09872436523437
 20
-83.49999237060547
 11
82.09872436523437
 21
-83.49999237060547
  0
LINE
  8
0
  6
CONTINUOUS
 62
     7
 10
42.09872436523437
 20
-111.5000076293945
 11
82.09872436523437
 21
-111.5000076293945
  0
LINE
  8
0
  6
CONTINUOUS
 62
     7
 10
82.09872436523437
 20
-80
 11
82.09872436523437
 21
-115
  0
LINE
  8
0
  6
CONTINUOUS
 62
     7
 10
74.09872436523438
 20
-80.5
 11
74.09872436523438
 21
-83.49999237060547
  0
LINE
  8
0
  6
CONTINUOUS
 62
     7
 10
42.09872436523437
 20
-80.5
 11
74.09872436523438
 21
-80.5
  0
LINE
  8
0
  6
CONTINUOUS
 62
     7
 10
82.09872436523437
 20
-80
 11
87.09872436523437
 21
-80
  0
LINE
  8
0
  6
CONTINUOUS
 62
     7
 10
82.09872436523437
 20
-115
 11
87.09872436523437
 21
-115
  0
LINE
  8
0
  6
DASHED
 62
     7
 10
111.0987243652344
 20
-171.5
 11
111.0987243652344
 21
-187.5
  0
LINE
  8
0
  6
DASHED
 62
     7
 10
123.0987548828125
 20
-171.5
 11
123.0987548828125
 21
-187.5
  0
LINE
  8
0
  6
DASHED
 62
     7
 10
216.0987548828125
 20
-171.5
 11
216.0987548828125
 21
-187.5
  0
LINE
  8
0
  6
DASHED
 62
     7
 10
228.0987243652344
 20
-171.5
 11
228.0987243652344
 21
-187.5
  0
LINE
  8
0
  6
CONTINUOUS
 62
     7
 10
108.0987548828125
 20
-45.49999618530273
 11
124.0721130371094
 21
-45.49999618530273
  0
LINE
  8
0
  6
CONTINUOUS
 62
     7
 10
108.0987548828125
 20
-45.49999618530273
 11
108.0987548828125
 21
-51.50000381469727
  0
LINE
  8
0
  6
CONTINUOUS
 62
     7
 10
146.0987548828125
 20
-81.22164916992188
 11
146.0987548828125
 21
-91.50000762939453
  0
LINE
  8
0
  6
CONTINUOUS
 62
     7
 10
206.3660583496094
 20
-171.5
 11
237.0987243652344
 21
-171.5
  0
LINE
  8
0
  6
CONTINUOUS
 62
     7
 10
103.0987548828125
 20
-58.70048522949219
 11
122.4302673339844
 21
-58.70048522949219
  0
LINE
  8
0
  6
CONTINUOUS
 62
     7
 10
125.0987243652344
 20
-53.06664657592773
 11
140.5753479003906
 21
-53.06664657592773
  0
LINE
  8
0
  6
CONTINUOUS
 62
     7
 10
87.09872436523437
 20
171.5
 11
87.09872436523437
 21
103.5
  0
LINE
  8
0
  6
CONTINUOUS
 62
     7
 10
92.09872436523437
 20
183.5
 11
92.09872436523437
 21
91.5
  0
LINE
  8
0
  6
CONTINUOUS
 62
     7
 10
87.09871673583984
 20
171.5
 11
92.09873962402344
 21
174.3867645263672
  0
LINE
  8
0
  6
CONTINUOUS
 62
     7
 10
87.09873199462891
 20
103.4999923706055
 11
92.09872436523437
 21
100.6132431030273
  0
LINE
  8
0
  6
CONTINUOUS
 62
     7
 10
155.0987548828125
 20
216.4425964355469
 11
155.0987548828125
 21
58.55740356445313
  0
LINE
  8
0
  6
CONTINUOUS
 62
     7
 10
146.0987548828125
 20
216.4425964355469
 11
146.0987548828125
 21
201.4256286621094
  0
LINE
  8
0
  6
CONTINUOUS
 62
     7
 10
158.5987548828125
 20
206.4825134277344
 11
191.5987548828125
 21
206.4825134277344
  0
LINE
  8
0
  6
CONTINUOUS
 62
     7
 10
158.5987548828125
 20
197.4824829101562
 11
191.5987548828125
 21
197.4824829101562
  0
LINE
  8
0
  6
CONTINUOUS
 62
     7
 10
158.5987548828125
 20
209.5739135742187
 11
191.5987548828125
 21
209.5739135742187
  0
LINE
  8
0
  6
CONTINUOUS
 62
     7
 10
158.5987091064453
 20
62.5
 11
155.0987396240234
 21
66.66085052490234
  0
LINE
  8
0
  6
CONTINUOUS
 62
     7
 10
158.5987548828125
 20
163.2219543457031
 11
191.5987548828125
 21
163.2219543457031
  0
LINE
  8
0
  6
CONTINUOUS
 62
     7
 10
158.5987548828125
 20
171.4825744628906
 11
191.5987548828125
 21
171.4825744628906
  0
LINE
  8
0
  6
CONTINUOUS
 62
     7
 10
158.5987548828125
 20
155.5715026855469
 11
187.5102844238281
 21
155.5715026855469
  0
LINE
  8
0
  6
CONTINUOUS
 62
     7
 10
158.5987548828125
 20
185.6517028808594
 11
191.5987548828125
 21
185.6517028808594
  0
LINE
  8
0
  6
CONTINUOUS
 62
     7
 10
158.5987548828125
 20
146.5000610351563
 11
191.5987548828125
 21
146.5000610351563
  0
LINE
  8
0
  6
CONTINUOUS
 62
     7
 10
158.5987548828125
 20
178.4107971191406
 11
191.5987548828125
 21
178.4107971191406
  0
LINE
  8
0
  6
CONTINUOUS
 62
     7
 10
158.5987548828125
 20
65.42604064941406
 11
191.5987548828125
 21
65.42604064941406
  0
LINE
  8
0
  6
CONTINUOUS
 62
     7
 10
158.5987548828125
 20
68.51739501953125
 11
191.5987548828125
 21
68.51739501953125
  0
LINE
  8
0
  6
CONTINUOUS
 62
     7
 10
158.5987548828125
 20
62.5
 11
191.5987548828125
 21
62.5
  0
LINE
  8
0
  6
CONTINUOUS
 62
     7
 10
158.5987548828125
 20
191.5025634765625
 11
191.5987548828125
 21
191.5025634765625
  0
LINE
  8
0
  6
CONTINUOUS
 62
     7
 10
143.0987548828125
 20
201.4256286621094
 11
143.0987548828125
 21
73.57437133789063
  0
LINE
  8
0
  6
CONTINUOUS
 62
     7
 10
143.0987548828125
 20
190
 11
125.0987548828125
 21
190
  0
LINE
  8
0
  6
CONTINUOUS
 62
     7
 10
143.0987548828125
 20
85
 11
125.0987548828125
 21
85
  0
LINE
  8
0
  6
CONTINUOUS
 62
     7
 10
143.0987548828125
 20
201.4256286621094
 11
146.0987548828125
 21
201.4256286621094
  0
LINE
  8
0
  6
CONTINUOUS
 62
     7
 10
103.0987014770508
 20
162.2105255126953
 11
143.0987548828125
 21
174.5431060791016
  0
LINE
  8
0
  6
CONTINUOUS
 62
     7
 10
103.098747253418
 20
112.7894973754883
 11
143.0987548828125
 21
100.4569320678711
  0
LINE
  8
0
  6
CONTINUOUS
 62
     7
 10
125.0987548828125
 20
190
 11
125.0987548828125
 21
172.4267272949219
  0
LINE
  8
0
  6
CONTINUOUS
 62
     7
 10
125.0987548828125
 20
102.2796630859375
 11
125.0987548828125
 21
85
  0
LINE
  8
0
  6
CONTINUOUS
 62
     7
 10
125.0987548828125
 20
161.9990844726562
 11
125.0987548828125
 21
154.5
  0
LINE
  8
0
  6
CONTINUOUS
 62
     7
 10
125.0987548828125
 20
120.5
 11
125.0987548828125
 21
113.0013427734375
  0
LINE
  8
0
  6
CONTINUOUS
 62
     7
 10
108.0987548828125
 20
91.5
 11
108.0987548828125
 21
85.5
  0
LINE
  8
0
  6
CONTINUOUS
 62
     7
 10
76.09872436523437
 20
133.5
 11
42.09872436523437
 21
133.5
  0
LINE
  8
0
  6
CONTINUOUS
 62
     7
 10
76.09872436523437
 20
141.5
 11
42.09872436523437
 21
141.5
  0
LINE
  8
0
  6
CONTINUOUS
 62
     7
 10
132.0987854003906
 20
85
 11
132.0987854003906
 21
53
  0
LINE
  8
0
  6
CONTINUOUS
 62
     7
 10
161.4903106689453
 20
216.46826171875
 11
196.9211883544922
 21
218.7905120849609
  0
LINE
  8
0
  6
CONTINUOUS
 62
     7
 10
74.09872436523438
 20
141.5
 11
74.09872436523438
 21
133.5
  0
LINE
  8
0
  6
CONTINUOUS
 62
     7
 10
237.0987548828125
 20
57.5
 11
237.0987548828125
 21
55
  0
LINE
  8
0
  6
CONTINUOUS
 62
     7
 10
107.0987854003906
 20
90.15750122070312
 11
108.0987548828125
 21
90.15750122070312
  0
LINE
  8
0
  6
CONTINUOUS
 62
     7
 10
146.0987548828125
 20
73.57437133789063
 11
146.0987548828125
 21
58.55740356445313
  0
LINE
  8
0
  6
CONTINUOUS
 62
     7
 10
107.0987854003906
 20
184.8424987792969
 11
108.0987548828125
 21
184.8424987792969
  0
LINE
  8
0
  6
CONTINUOUS
 62
     7
 10
42.0987548828125
 20
151.5
 11
42.0987548828125
 21
123.5
  0
LINE
  8
0
  6
CONTINUOUS
 62
     7
 10
132.0987854003906
 20
190
 11
132.0987854003906
 21
222
  0
LINE
  8
0
  6
CONTINUOUS
 62
     7
 10
125.0987548828125
 20
161.9990844726562
 11
140.7240600585938
 21
161.9990844726562
  0
LINE
  8
0
  6
CONTINUOUS
 62
     7
 10
125.0987548828125
 20
113.0013427734375
 11
140.4266052246094
 21
113.0013427734375
  0
LINE
  8
0
  6
CONTINUOUS
 62
     7
 10
146.0987548828125
 20
58.55740356445313
 11
161.0987548828125
 21
58.55740356445313
  0
LINE
  8
0
  6
CONTINUOUS
 62
     7
 10
146.0987548828125
 20
216.4425964355469
 11
161.0987548828125
 21
216.4425964355469
  0
LINE
  8
0
  6
CONTINUOUS
 62
     7
 10
117.0987854003906
 20
76.78343200683594
 11
117.0987854003906
 21
54.21014404296875
  0
LINE
  8
0
  6
CONTINUOUS
 62
     7
 10
126.7079162597656
 20
65
 11
106.8707275390625
 21
65
  0
LINE
  8
0
  6
CONTINUOUS
 62
     7
 10
191.5987701416016
 20
212.5000152587891
 11
195.0987854003906
 21
208.339111328125
  0
LINE
  8
0
  6
CONTINUOUS
 62
     7
 10
125.0987548828125
 20
189.5
 11
108.0987548828125
 21
189.5
  0
LINE
  8
0
  6
CONTINUOUS
 62
     7
 10
161.4903717041016
 20
58.53173828125
 11
196.9211578369141
 21
56.20949172973633
  0
LINE
  8
0
  6
CONTINUOUS
 62
     7
 10
212.4896240234375
 20
65
 11
232.3267211914063
 21
65
  0
LINE
  8
0
  6
CONTINUOUS
 62
     7
 10
-260.4197082519531
 20
-57.51263046264648
 11
-251.3698883056641
 21
-60.80649948120117
  0
LINE
  8
0
  6
CONTINUOUS
 62
     7
 10
-155.9012908935547
 20
-85.5
 11
-155.9012908935547
 21
-109.4999923706055
  0
LINE
  8
0
  6
CONTINUOUS
 62
     7
 10
-155.9012908935547
 20
-85.5
 11
-161.2536315917969
 21
-85.5
  0
LINE
  8
0
  6
CONTINUOUS
 62
     3
 10
-269.9670715332031
 20
-61.66638565063477
 11
-255.5995178222656
 21
-69.96150207519531
  0
LINE
  8
0
  6
CONTINUOUS
 62
     3
 10
-146.4706115722656
 20
-132.9673004150391
 11
-159.09521484375
 21
-125.6784820556641
  0
LINE
  8
0
  6
CONTINUOUS
 62
     3
 10
-268.5126953125
 20
-132.49365234375
 11
-256.5298461914063
 21
-125.5753707885742
  0
LINE
  8
0
  6
CONTINUOUS
 62
     7
 10
-155.3829193115234
 20
-137.4875335693359
 11
-164.9836273193359
 21
-133.9931640625
  0
LINE
  8
0
  6
CONTINUOUS
 62
     7
 10
-199.5306091308594
 20
-32.02401733398437
 11
-197.8673858642578
 21
-41.45668792724609
  0
LINE
  8
0
  6
CONTINUOUS
 62
     7
 10
-251.4278564453125
 20
-134.2144012451172
 11
-260.4197692871094
 21
-137.4871826171875
  0
LINE
  8
0
  6
CONTINUOUS
 62
     7
 10
-260.9972534179687
 20
-78.55107879638672
 11
-268.790771484375
 21
-72.01154327392578
  0
LINE
  8
0
  6
CONTINUOUS
 62
     7
 10
-268.7909240722656
 20
-122.9882659912109
 11
-261.0860595703125
 21
-116.5231018066406
  0
LINE
  8
0
  6
CONTINUOUS
 62
     7
 10
-197.8884429931641
 20
-153.6610717773437
 11
-199.5308990478516
 21
-162.9758453369141
  0
LINE
  8
0
  6
CONTINUOUS
 62
     7
 10
-216.2727203369141
 20
-162.9761352539062
 11
-217.8995513916016
 21
-153.7498626708984
  0
LINE
  8
0
  6
CONTINUOUS
 62
     7
 10
-248.8119812011719
 20
-34.64055252075195
 11
-248.6637725830078
 21
-35.07477188110352
  0
LINE
  8
0
  6
CONTINUOUS
 62
     7
 10
-154.9662475585938
 20
-116.3144683837891
 11
-147.0121307373047
 21
-122.9887771606445
  0
LINE
  8
0
  6
CONTINUOUS
 62
     7
 10
-160.4012603759766
 20
-187.5
 11
-120.4012603759766
 21
-187.5
  0
LINE
  8
0
  6
CONTINUOUS
 62
     7
 10
-160.4012603759766
 20
-171.5
 11
-120.4012603759766
 21
-171.5
  0
LINE
  8
0
  6
CONTINUOUS
 62
     7
 10
-160.4012603759766
 20
-171.5
 11
-160.4012603759766
 21
-187.5
  0
LINE
  8
0
  6
CONTINUOUS
 62
     7
 10
-255.4012603759766
 20
-171.5
 11
-255.4012603759766
 21
-187.5
  0
LINE
  8
0
  6
CONTINUOUS
 62
     7
 10
-250.4012603759766
 20
-179.4999847412109
 11
-227.9012603759766
 21
-179.4999847412109
  0
LINE
  8
0
  6
CONTINUOUS
 62
     7
 10
-255.4012603759766
 20
-184.4999847412109
 11
-160.4012603759766
 21
-184.4999847412109
  0
LINE
  8
0
  6
CONTINUOUS
 62
     7
 10
-260.0572509765625
 20
-107.5
 11
-284.4467468261719
 21
-107.5
  0
LINE
  8
0
  6
CONTINUOUS
 62
     7
 10
-155.7452697753906
 20
-107.5
 11
-131.3557586669922
 21
-107.5
  0
LINE
  8
0
  6
CONTINUOUS
 62
     7
 10
-155.7452697753906
 20
-91.50000762939453
 11
-125.8642730712891
 21
-91.50000762939453
  0
LINE
  8
0
  6
CONTINUOUS
 62
     7
 10
-289.938232421875
 20
-91.50000762939453
 11
-260.0572509765625
 21
-91.50000762939453
  0
LINE
  8
0
  6
CONTINUOUS
 62
     7
 10
-295.4012451171875
 20
-171.5
 11
-255.4012603759766
 21
-171.5
  0
LINE
  8
0
  6
CONTINUOUS
 62
     7
 10
-295.4012451171875
 20
-187.5
 11
-255.4012603759766
 21
-187.5
  0
LINE
  8
0
  6
CONTINUOUS
 62
     7
 10
-120.4012603759766
 20
-171.5
 11
-120.4012603759766
 21
-187.5
  0
LINE
  8
0
  6
CONTINUOUS
 62
     7
 10
-295.4012451171875
 20
-171.5
 11
-295.4012451171875
 21
-187.5
  0
LINE
  8
0
  6
CONTINUOUS
 62
     3
 10
-146.6539306640625
 20
-62.13816833496094
 11
-158.7805480957031
 21
-69.13946533203125
  0
LINE
  8
0
  6
CONTINUOUS
 62
     7
 10
-216.9013824462891
 20
-23.04208183288574
 11
-217.3791198730469
 21
-25.51482009887695
  0
LINE
  8
0
  6
CONTINUOUS
 62
     7
 10
-225.9727172851563
 20
-24.70985984802246
 11
-224.9228820800781
 21
-26.6716194152832
  0
LINE
  8
0
  6
CONTINUOUS
 62
     7
 10
222.0987854003906
 20
76.78343200683594
 11
222.0987854003906
 21
54.21014404296875
  0
LINE
  8
0
  6
CONTINUOUS
 62
     7
 10
103.0987548828125
 20
158.7463989257812
 11
123.1739807128906
 21
158.7463989257812
  0
LINE
  8
0
  6
CONTINUOUS
 62
     7
 10
103.0987548828125
 20
116.2536010742188
 11
123.1739807128906
 21
116.2536010742188
  0
LINE
  8
0
  6
CONTINUOUS
 62
     7
 10
143.0987548828125
 20
73.57437133789063
 11
146.0987548828125
 21
73.57437133789063
  0
LINE
  8
0
  6
CONTINUOUS
 62
     7
 10
117.0987854003906
 20
198.216552734375
 11
117.0987854003906
 21
220.7898559570313
  0
LINE
  8
0
  6
CONTINUOUS
 62
     7
 10
126.7079162597656
 20
210
 11
106.8707275390625
 21
210
  0
LINE
  8
0
  6
CONTINUOUS
 62
     7
 10
222.0987854003906
 20
198.216552734375
 11
222.0987854003906
 21
220.7898559570313
  0
LINE
  8
0
  6
CONTINUOUS
 62
     7
 10
108.0987548828125
 20
189.5
 11
108.0987548828125
 21
183.5
  0
LINE
  8
0
  6
CONTINUOUS
 62
     7
 10
212.4896240234375
 20
210
 11
232.3267211914063
 21
210
  0
LINE
  8
0
  6
CONTINUOUS
 62
     7
 10
42.09872436523437
 20
151.5
 11
82.09872436523437
 21
151.5
  0
LINE
  8
0
  6
CONTINUOUS
 62
     7
 10
42.09872436523437
 20
123.5
 11
82.09872436523437
 21
123.5
  0
LINE
  8
0
  6
CONTINUOUS
 62
     7
 10
82.09872436523437
 20
155
 11
82.09872436523437
 21
120
  0
LINE
  8
0
  6
CONTINUOUS
 62
     7
 10
87.09872436523437
 20
155
 11
82.09872436523437
 21
155
  0
LINE
  8
0
  6
CONTINUOUS
 62
     7
 10
-233.6232452392578
 20
-27.04900741577148
 11
-233.4428253173828
 21
-28.81080436706543
  0
LINE
  8
0
  6
CONTINUOUS
 62
     7
 10
-241.8838195800781
 20
-30.64056205749512
 11
-241.0966186523437
 21
-31.54125022888184
  0
LINE
  8
0
  6
CONTINUOUS
 62
     3
 10
-207.9012603759766
 20
-11.93920707702637
 11
-207.9012603759766
 21
-194.4999847412109
  0
LINE
  8
0
  6
CONTINUOUS
 62
     7
 10
-219.9012451171875
 20
-45.49999618530273
 11
-219.9012451171875
 21
-50.85239028930664
  0
LINE
  8
0
  6
CONTINUOUS
 62
     7
 10
-219.9012451171875
 20
-45.49999618530273
 11
-195.9012756347656
 21
-45.49999618530273
  0
LINE
  8
0
  6
CONTINUOUS
 62
     7
 10
-195.9012756347656
 20
-45.49999618530273
 11
-195.9012756347656
 21
-50.85239028930664
  0
LINE
  8
0
  6
CONTINUOUS
 62
     7
 10
-259.9012451171875
 20
-109.4999923706055
 11
-254.5488891601562
 21
-109.4999923706055
  0
LINE
  8
0
  6
CONTINUOUS
 62
     7
 10
-259.9012145996094
 20
-109.4999694824219
 11
-259.9012145996094
 21
-85.49996185302734
  0
LINE
  8
0
  6
CONTINUOUS
 62
     7
 10
-259.9012451171875
 20
-85.5
 11
-254.5488891601562
 21
-85.5
  0
LINE
  8
0
  6
CONTINUOUS
 62
     7
 10
-195.9012145996094
 20
-149.4999694824219
 11
-195.9012145996094
 21
-144.1476287841797
  0
LINE
  8
0
  6
CONTINUOUS
 62
     7
 10
-195.9012908935547
 20
-149.4999542236328
 11
-219.9012908935547
 21
-149.4999542236328
  0
LINE
  8
0
  6
CONTINUOUS
 62
     7
 10
-219.9012145996094
 20
-149.4999694824219
 11
-219.9012145996094
 21
-144.1476440429688
  0
LINE
  8
0
  6
CONTINUOUS
 62
     7
 10
-292.8438720703125
 20
-91.50000762939453
 11
-295.4015808105469
 21
-171.5
  0
LINE
  8
0
  6
CONTINUOUS
 62
     7
 10
-287.4451904296875
 20
-110.4041213989258
 11
-289.2335510253906
 21
-166.3402557373047
  0
LINE
  8
0
  6
CONTINUOUS
 62
     7
 10
-128.3572998046875
 20
-110.4041595458984
 11
-126.5689392089844
 21
-166.3402557373047
  0
LINE
  8
0
  6
CONTINUOUS
 62
     7
 10
-122.9586639404297
 20
-91.5
 11
-120.4009552001953
 21
-171.5
  0
LINE
  8
0
  6
CONTINUOUS
 62
     7
 10
-203.9012451171875
 20
-80.5
 11
-203.9012451171875
 21
-87.5
  0
LINE
  8
0
  6
CONTINUOUS
 62
     7
 10
-211.9012603759766
 20
-80.5
 11
-211.9012603759766
 21
-87.5
  0
LINE
  8
0
  6
CONTINUOUS
 62
     3
 10
-302.73876953125
 20
-97.5
 11
-112.7668380737305
 21
-97.5
  0
LINE
  8
0
  6
CONTINUOUS
 62
     7
 10
-211.9012603759766
 20
-87.5
 11
-203.9012451171875
 21
-87.5
  0
LINE
  8
0
  6
CONTINUOUS
 62
     7
 10
-211.9012603759766
 20
-80.5
 11
-203.9012451171875
 21
-80.5
  0
LINE
  8
0
  6
CONTINUOUS
 62
     3
 10
-280.4012451171875
 20
-166.1644897460938
 11
-280.4012451171875
 21
-192.842041015625
  0
LINE
  8
0
  6
CONTINUOUS
 62
     3
 10
-135.4012603759766
 20
-166.1644897460938
 11
-135.4012603759766
 21
-192.842041015625
  0
LINE
  8
0
  6
DASHED
 62
     7
 10
-141.4012603759766
 20
-171.5
 11
-141.4012603759766
 21
-187.5
  0
LINE
  8
0
  6
DASHED
 62
     7
 10
-129.4012603759766
 20
-171.5
 11
-129.4012603759766
 21
-187.5
  0
LINE
  8
0
  6
DASHED
 62
     7
 10
-274.4012756347656
 20
-171.5
 11
-274.4012756347656
 21
-187.5
  0
LINE
  8
0
  6
DASHED
 62
     7
 10
-286.4012451171875
 20
-171.5
 11
-286.4012451171875
 21
-187.5
  0
LINE
  8
0
  6
CONTINUOUS
 62
     7
 10
-172.7091674804688
 20
-36.54516983032227
 11
-184.9231262207031
 21
-57.70037460327148
  0
LINE
  8
0
  6
CONTINUOUS
 62
     7
 10
-243.0472259521484
 20
-36.62578582763672
 11
-230.8796997070312
 21
-57.70055770874023
  0
LINE
  8
0
  6
CONTINUOUS
 62
     7
 10
-187.9012603759766
 20
-179.4999847412109
 11
-165.4012603759766
 21
-179.4999847412109
  0
LINE
  8
0
  6
CONTINUOUS
 62
     7
 10
87.09872436523437
 20
120
 11
82.09872436523437
 21
120
  0
LINE
  8
0
  6
CONTINUOUS
 62
     7
 10
102.0987243652344
 20
85.15750122070312
 11
102.0987243652344
 21
55
  0
LINE
  8
0
  6
CONTINUOUS
 62
     7
 10
237.0987548828125
 20
220
 11
237.0987548828125
 21
217.5
  0
LINE
  8
0
  6
CONTINUOUS
 62
     7
 10
102.0987243652344
 20
220
 11
102.0987243652344
 21
189.8424987792969
  0
LINE
  8
0
  6
CONTINUOUS
 62
     7
 10
232.0987548828125
 20
225
 11
107.0987854003906
 21
225
  0
LINE
  8
0
  6
CONTINUOUS
 62
     7
 10
232.0987548828125
 20
50
 11
107.0987854003906
 21
50
  0
LINE
  8
0
  6
CONTINUOUS
 62
     7
 10
210.0987243652344
 20
-170
 11
210.0987243652344
 21
-25
  0
LINE
  8
0
  6
CONTINUOUS
 62
     7
 10
245.0987243652344
 20
-17.5
 11
245.0987243652344
 21
-177.5
  0
LINE
  8
0
  6
CONTINUOUS
 62
     7
 10
233.0987243652344
 20
-17.5
 11
245.0987243652344
 21
-17.5
  0
LINE
  8
0
  6
CONTINUOUS
 62
     7
 10
233.0987243652344
 20
-17.5
 11
233.0987243652344
 21
-171.5
  0
LINE
  8
0
  6
CONTINUOUS
 62
     7
 10
215.0987243652344
 20
-59.5
 11
228.0987243652344
 21
-59.5
  0
LINE
  8
0
  6
CONTINUOUS
 62
     7
 10
237.0987243652344
 20
-177.5
 11
245.0987243652344
 21
-177.5
  0
LINE
  8
0
  6
CONTINUOUS
 62
     7
 10
215.0987243652344
 20
-135.5
 11
228.0987243652344
 21
-135.5
  0
LINE
  8
0
  6
CONTINUOUS
 62
     7
 10
210.0987243652344
 20
-153.5
 11
233.0987243652344
 21
-153.5
  0
LINE
  8
0
  6
CONTINUOUS
 62
     7
 10
210.0987243652344
 20
-41.5
 11
233.0987243652344
 21
-41.5
  0
LINE
  8
0
  6
CONTINUOUS
 62
     7
 10
201.0982360839844
 20
-170
 11
210.0987243652344
 21
-170
  0
LINE
  8
0
  6
CONTINUOUS
 62
     7
 10
210.0987243652344
 20
-102.5
 11
233.0987243652344
 21
-102.5
  0
LINE
  8
0
  6
CONTINUOUS
 62
     7
 10
210.0987243652344
 20
-92.5
 11
233.0987243652344
 21
-92.5
  0
LINE
  8
0
  6
CONTINUOUS
 62
     7
 10
201.0987243652344
 20
-24.58992767333984
 11
201.5088043212891
 21
-25.00001907348633
  0
LINE
  8
0
  6
CONTINUOUS
 62
     7
 10
203.0987701416016
 20
-24.58984184265137
 11
203.5088500976563
 21
-24.99993324279785
  0
LINE
  8
0
  6
CONTINUOUS
 62
     7
 10
195.0987243652344
 20
-25
 11
210.0987243652344
 21
-25
  0
LINE
  8
0
  6
CONTINUOUS
 62
     7
 10
203.0987243652344
 20
-27.7459716796875
 11
203.0987243652344
 21
11.244140625
  0
LINE
  8
0
  6
CONTINUOUS
 62
     7
 10
183.6779479980469
 20
-7.58984375
 11
222.0548553466797
 21
-7.58984375
  0
LINE
  8
0
  6
CONTINUOUS
 62
     7
 10
195.0987091064453
 20
-24.58988952636719
 11
195.6889495849609
 21
-21.24248123168945
  0
LINE
  8
0
  6
CONTINUOUS
 62
     7
 10
197.6585540771484
 20
-19.58984375
 11
208.5388946533203
 21
-19.58984375
  0
LINE
  8
0
  6
CONTINUOUS
 62
     7
 10
196.9684143066406
 20
-19.71283340454102
 11
202.7584838867187
 21
-17.58419990539551
  0
LINE
  8
0
  6
CONTINUOUS
 62
     7
 10
203.4389495849609
 20
-17.58421897888184
 11
209.2290191650391
 21
-19.71285438537598
  0
LINE
  8
0
  6
CONTINUOUS
 62
     7
 10
195.0974273681641
 20
-24.58984375
 11
211.0987243652344
 21
-24.58984375
  0
LINE
  8
0
  6
CONTINUOUS
 62
     7
 10
195.3987274169922
 20
-24.58984375
 11
195.3987274169922
 21
-25
  0
LINE
  8
0
  6
CONTINUOUS
 62
     7
 10
210.7987213134766
 20
-24.58984375
 11
210.7987213134766
 21
-26.58984375
  0
LINE
  8
0
  6
CONTINUOUS
 62
     7
 10
210.0987243652344
 20
-26.58984375
 11
210.7987213134766
 21
-26.58984375
  0
LINE
  8
0
  6
CONTINUOUS
 62
     7
 10
210.5084991455078
 20
-21.24249458312988
 11
211.0987091064453
 21
-24.58978271484375
  0
LINE
  8
0
  6
CONTINUOUS
 62
     7
 10
195.0987243652344
 20
210
 11
210.0987243652344
 21
210
  0
LINE
  8
0
  6
CONTINUOUS
 62
     7
 10
210.0987243652344
 20
142.5
 11
233.0987243652344
 21
142.5
  0
LINE
  8
0
  6
CONTINUOUS
 62
     7
 10
210.0987243652344
 20
132.5
 11
233.0987243652344
 21
132.5
  0
LINE
  8
0
  6
CONTINUOUS
 62
     7
 10
195.0987243652344
 20
65
 11
210.0987243652344
 21
65
  0
LINE
  8
0
  6
CONTINUOUS
 62
     7
 10
210.0987243652344
 20
193.5
 11
233.0987243652344
 21
193.5
  0
LINE
  8
0
  6
CONTINUOUS
 62
     7
 10
210.0987243652344
 20
81.5
 11
233.0987243652344
 21
81.5
  0
LINE
  8
0
  6
CONTINUOUS
 62
     7
 10
215.0987243652344
 20
99.5
 11
228.0987243652344
 21
99.5
  0
LINE
  8
0
  6
CONTINUOUS
 62
     7
 10
233.0987243652344
 20
57.5
 11
245.0987243652344
 21
57.5
  0
LINE
  8
0
  6
CONTINUOUS
 62
     7
 10
215.0987243652344
 20
175.5
 11
228.0987243652344
 21
175.5
  0
LINE
  8
0
  6
CONTINUOUS
 62
     7
 10
233.0987243652344
 20
217.5
 11
233.0987243652344
 21
57.5
  0
LINE
  8
0
  6
CONTINUOUS
 62
     7
 10
233.0987243652344
 20
217.5
 11
245.0987243652344
 21
217.5
  0
LINE
  8
0
  6
CONTINUOUS
 62
     7
 10
245.0987243652344
 20
217.5
 11
245.0987243652344
 21
57.5
  0
LINE
  8
0
  6
CONTINUOUS
 62
     7
 10
210.0987243652344
 20
65
 11
210.0987243652344
 21
146.670654296875
  0
LINE
  8
0
  6
CONTINUOUS
 62
     7
 10
210.0987243652344
 20
158.471923828125
 11
210.0987243652344
 21
210
  0
LINE
  8
0
  6
CONTINUOUS
 62
     7
 10
195.0987243652344
 20
148.5222015380859
 11
195.0987243652344
 21
65
  0
LINE
  8
0
  6
CONTINUOUS
 62
     7
 10
-218.4331512451172
 20
-37.77090454101563
 11
-227.4030151367188
 21
13.09972858428955
  0
LINE
  8
0
  6
CONTINUOUS
 62
     7
 10
-214.4090881347656
 20
-18.76008415222168
 11
-212.9850769042969
 21
-22.67250061035156
  0
LINE
  8
0
  6
CONTINUOUS
 62
     7
 10
-218.7857360839844
 20
-17.63042068481445
 11
-215.2153472900391
 21
-18.11107063293457
  0
LINE
  8
0
  6
CONTINUOUS
 62
     7
 10
-222.9714508056641
 20
6.107019424438477
 11
-218.0832824707031
 21
-21.61518859863281
  0
LINE
  8
0
  6
CONTINUOUS
 62
     7
 10
-228.7165069580078
 20
-21.282958984375
 11
-228.7165069580078
 21
-25.44637107849121
  0
LINE
  8
0
  6
CONTINUOUS
 62
     7
 10
-224.9900970458984
 20
-18.72440910339355
 11
-228.1808624267578
 21
-20.39726257324219
  0
LINE
  8
0
  6
CONTINUOUS
 62
     7
 10
-229.1757354736328
 20
5.013038158416748
 11
-224.2875518798828
 21
-22.70920372009277
  0
LINE
  8
0
  6
CONTINUOUS
 62
     7
 10
-225.8126525878906
 20
-25.00897216796875
 11
-216.9805145263672
 21
-23.45162773132324
  0
LINE
  8
0
  6
CONTINUOUS
 62
     7
 10
-220.4907531738281
 20
-26.1014575958252
 11
-222.8077087402344
 21
-24.47910308837891
  0
LINE
  8
0
  6
CONTINUOUS
 62
     7
 10
-220.8380432128906
 20
-24.13188362121582
 11
-218.5211791992188
 21
-25.75416946411133
  0
ARC
  8
0
  6
CONTINUOUS
 62
     7
 10
140.0987243652344
 20
-99.5
 40
7.999999999999997
 50
89.99997518372139
 51
179.9999776881997
  0
ARC
  8
0
  6
CONTINUOUS
 62
     7
 10
156.0997924804688
 20
-99.5
 40
8.000000000000011
 50
26.00002519836045
 51
89.99997518372139
  0
ARC
  8
0
  6
CONTINUOUS
 62
     7
 10
206.3660583496094
 20
-161.5
 40
9.999999999999993
 50
205.9999706705326
 51
270.0000179860893
  0
ARC
  8
0
  6
CONTINUOUS
 62
     7
 10
94.0987548828125
 20
-146.186279296875
 40
11
 50
2.504478324558303E-06
 51
53.93402529039915
  0
CIRCLE
  8
0
  6
CONTINUOUS
 62
     7
 10
120.0987243652344
 20
-97.5
 40
11.99999904632568
  0
ARC
  8
0
  6
CONTINUOUS
 62
     7
 10
127.0987243652344
 20
-166.5
 40
5.000000000000004
 50
269.9999974955218
 51
2.504478146909864E-06
  0
ARC
  8
0
  6
CONTINUOUS
 62
     7
 10
120.0987243652344
 20
-114.4999923706055
 40
5.000000000000004
 50
2.504478309754264E-06
 51
90.00000250447815
  0
ARC
  8
0
  6
CONTINUOUS
 62
     7
 10
120.0987243652344
 20
-80.5
 40
5.000000000000004
 50
269.9999974955218
 51
2.504478309754264E-06
  0
ARC
  8
0
  6
CONTINUOUS
 62
     7
 10
76.09872436523437
 20
137.5
 40
3.999999999999998
 50
270.0000179860892
 51
89.99997518372139
  0
ARC
  8
0
  6
CONTINUOUS
 62
     7
 10
197.1174011230469
 20
215.7969360351563
 40
2.999999761581417
 50
37.63148389260262
 51
93.74998126449051
  0
CIRCLE
  8
0
  6
CONTINUOUS
 62
     7
 10
120.0987548828125
 20
137.5
 40
11.99999904632568
  0
ARC
  8
0
  6
CONTINUOUS
 62
     7
 10
107.0987854003906
 20
189.8424987792969
 40
4.999999999999996
 50
179.9999776881996
 51
270.0000280040019
  0
ARC
  8
0
  6
CONTINUOUS
 62
     7
 10
120.0987548828125
 20
120.5
 40
5.000000000000004
 50
2.504478309754264E-06
 51
90.00000250447815
  0
ARC
  8
0
  6
CONTINUOUS
 62
     7
 10
197.1174011230469
 20
59.20306396484375
 40
2.999999761581424
 50
266.2500187355095
 51
333.500725539352
  0
ARC
  8
0
  6
CONTINUOUS
 62
     7
 10
135.0987548828125
 20
53
 40
2.999999761581427
 50
179.999991348578
 51
270.0000006832452
  0
ARC
  8
0
  6
CONTINUOUS
 62
     7
 10
232.0987548828125
 20
55
 40
4.999999999999997
 50
270.0000179860893
 51
2.504478228332064E-06
  0
ARC
  8
0
  6
CONTINUOUS
 62
     7
 10
232.0987548828125
 20
220
 40
5.000000000000004
 50
2.504478146909864E-06
 51
89.99997518372147
  0
ARC
  8
0
  6
CONTINUOUS
 62
     7
 10
135.0987548828125
 20
222
 40
2.999999761581432
 50
90.0000093346673
 51
180.0000050089563
  0
ARC
  8
0
  6
CONTINUOUS
 62
     7
 10
107.0987854003906
 20
85.15750122070312
 40
5
 50
89.99997518372147
 51
179.9999776881996
  0
CIRCLE
  8
0
  6
CONTINUOUS
 62
     7
 10
117.0987854003906
 20
65
 40
5.999999523162842
  0
CIRCLE
  8
0
  6
CONTINUOUS
 62
     7
 10
222.0987854003906
 20
65
 40
5.999999523162842
  0
CIRCLE
  8
0
  6
CONTINUOUS
 62
     7
 10
117.0987854003906
 20
210
 40
5.999999523162842
  0
CIRCLE
  8
0
  6
CONTINUOUS
 62
     7
 10
222.0987854003906
 20
210
 40
5.999999523162842
  0
ARC
  8
0
  6
CONTINUOUS
 62
     7
 10
120.0987548828125
 20
154.5
 40
5.000000000000004
 50
269.9999974955218
 51
2.504478146909864E-06
  0
ARC
  8
0
  6
CONTINUOUS
 62
     7
 10
107.0987854003906
 20
220
 40
4.999999999999986
 50
89.99997518372147
 51
179.9999776881996
  0
ARC
  8
0
  6
CONTINUOUS
 62
     7
 10
107.0987854003906
 20
55
 40
4.999999999999996
 50
179.9999776881996
 51
270.0000280040019
  0
ARC
  8
0
  6
CONTINUOUS
 62
     7
 10
-207.9012603759766
 20
-97.5
 40
75
 50
116.9428106668065
 51
123.057277974072
  0
ARC
  8
0
  6
CONTINUOUS
 62
     7
 10
-207.9012603759766
 20
-97.5
 40
75
 50
103.9428023364945
 51
110.05726964376
  0
ARC
  8
0
  6
CONTINUOUS
 62
     7
 10
-207.9012603759766
 20
-97.5
 40
75
 50
53.39618887439567
 51
96.8921278298846
  0
ARC
  8
0
  6
CONTINUOUS
 62
     7
 10
-207.9012603759766
 20
-112.5
 40
87.5
 50
13.88654212514391
 51
166.11349276589
  0
CIRCLE
  8
0
  6
CONTINUOUS
 62
     7
 10
-207.9012603759766
 20
-97.5
 40
46
  0
CIRCLE
  8
0
  6
CONTINUOUS
 62
     7
 10
-207.9012603759766
 20
-97.5
 40
34
  0
ARC
  8
0
  6
CONTINUOUS
 62
     7
 10
-250.4012603759766
 20
-174.4999847412109
 40
5.00000000000001
 50
179.9999776881996
 51
270.0000280040019
  0
ARC
  8
0
  6
CONTINUOUS
 62
     7
 10
-165.4012603759766
 20
-174.4999847412109
 40
4.99999999999999
 50
270.0000179860893
 51
2.504478146909864E-06
  0
ARC
  8
0
  6
CONTINUOUS
 62
     3
 10
-207.9012603759766
 20
-97.5
 40
64
 50
24.37233647763304
 51
36.78548300162649
  0
ARC
  8
0
  6
CONTINUOUS
 62
     7
 10
-152.4756774902344
 20
-65.50006103515625
 40
8.500000000000011
 50
309.9999963318935
 51
109.9999848471911
  0
ARC
  8
0
  6
CONTINUOUS
 62
     7
 10
-207.9012603759766
 20
-33.49999618530273
 40
8.500000000000009
 50
10.00000739305573
 51
170.0000343281674
  0
ARC
  8
0
  6
CONTINUOUS
 62
     3
 10
-207.9012603759766
 20
-97.5
 40
64
 50
84.07926668283095
 51
96.67983189010226
  0
ARC
  8
0
  6
CONTINUOUS
 62
     7
 10
-263.3268432617187
 20
-65.5
 40
8.500000000000007
 50
69.99999284100842
 51
230.0000086770627
  0
ARC
  8
0
  6
CONTINUOUS
 62
     3
 10
-207.9012603759766
 20
-97.5
 40
63.99999999999999
 50
143.5305924262668
 51
156.4710141862596
  0
ARC
  8
0
  6
CONTINUOUS
 62
     7
 10
-263.3268432617187
 20
-129.4999694824219
 40
8.499999999999993
 50
130.0000013408498
 51
289.9999966863367
  0
ARC
  8
0
  6
CONTINUOUS
 62
     3
 10
-207.9012603759766
 20
-97.5
 40
63.99999999999998
 50
203.6770643149463
 51
216.3600152639863
  0
ARC
  8
0
  6
CONTINUOUS
 62
     7
 10
-207.9012756347656
 20
-161.4999542236328
 40
8.499999999999989
 50
190.0000066529677
 51
350.0000045597753
  0
ARC
  8
0
  6
CONTINUOUS
 62
     3
 10
-207.9012603759766
 20
-97.5
 40
64
 50
263.6029379415363
 51
276.8628076490106
  0
ARC
  8
0
  6
CONTINUOUS
 62
     7
 10
-152.4756927490234
 20
-129.5
 40
8.499999999999988
 50
250.0000014924306
 51
50.0000002530119
  0
ARC
  8
0
  6
CONTINUOUS
 62
     3
 10
-207.9012603759766
 20
-97.5
 40
64
 50
323.3233321571356
 51
336.1494797296722
  0
ARC
  8
0
  6
CONTINUOUS
 62
     7
 10
-284.236083984375
 20
-166.5
 40
5.000000000000015
 50
178.1688312924759
 51
270.0000006832456
  0
ARC
  8
0
  6
CONTINUOUS
 62
     7
 10
-131.5664215087891
 20
-166.5
 40
5
 50
269.999963344576
 51
1.83113529666641
  0
ARC
  8
0
  6
CONTINUOUS
 62
     7
 10
-207.9012603759766
 20
-97.5
 40
14
 50
106.601576414327
 51
73.39842495216361
  0
ARC
  8
0
  6
CONTINUOUS
 62
     7
 10
-284.4467468261719
 20
-110.5000076293945
 40
2.999999761581418
 50
89.999975183722
 51
178.1688586132327
  0
ARC
  8
0
  6
CONTINUOUS
 62
     7
 10
-131.3557586669922
 20
-110.5000076293945
 40
2.999999761581422
 50
1.831162617422923
 51
89.99997518372145
  0
ARC
  8
0
  6
CONTINUOUS
 62
     7
 10
-289.938232421875
 20
-94.5
 40
2.999999761581418
 50
89.999975183722
 51
178.1688586132327
  0
ARC
  8
0
  6
CONTINUOUS
 62
     7
 10
-125.8642730712891
 20
-94.5
 40
2.999999761581422
 50
1.831162617422923
 51
89.99997518372145
  0
ARC
  8
0
  6
CONTINUOUS
 62
     7
 10
-207.9012603759766
 20
-97.5
 40
52.50000000000001
 50
13.21299668052143
 51
57.81675219202504
  0
ARC
  8
0
  6
CONTINUOUS
 62
     7
 10
-207.9012603759766
 20
-97.5
 40
52.50000000000001
 50
62.18321016614414
 51
76.78701521546685
  0
ARC
  8
0
  6
CONTINUOUS
 62
     7
 10
-207.9012603759766
 20
-97.5
 40
52.49999999999999
 50
103.213010284057
 51
117.8168016730014
  0
ARC
  8
0
  6
CONTINUOUS
 62
     7
 10
-207.9012603759766
 20
-97.5
 40
52.5
 50
122.1832596471205
 51
166.78705870108
  0
ARC
  8
0
  6
CONTINUOUS
 62
     7
 10
-207.9012603759766
 20
-97.5
 40
52.49999999999999
 50
193.2129686196766
 51
232.7540265551477
  0
ARC
  8
0
  6
CONTINUOUS
 62
     7
 10
-207.9012603759766
 20
-97.5
 40
52.50000000000001
 50
247.2456389171637
 51
256.787071678213
  0
ARC
  8
0
  6
CONTINUOUS
 62
     7
 10
-207.9012603759766
 20
-97.5
 40
52.49999999999999
 50
283.2130121052899
 51
292.7541238474482
  0
ARC
  8
0
  6
CONTINUOUS
 62
     7
 10
-207.9012603759766
 20
-97.5
 40
52.50000000000001
 50
307.2456747377617
 51
346.7870835742013
  0
ARC
  8
0
  6
CONTINUOUS
 62
     7
 10
-170.3735656738281
 20
-176.5
 40
2.999999761581424
 50
269.9999974955219
 51
30.00000424992071
  0
ARC
  8
0
  6
CONTINUOUS
 62
     7
 10
-245.4291839599609
 20
-176.5
 40
2.999999761581416
 50
149.9999973439413
 51
270.0000006832452
  0
ARC
  8
0
  6
CONTINUOUS
 62
     7
 10
-157.6719207763672
 20
-166.5
 40
5
 50
210.0000026560587
 51
269.9999974955218
  0
ARC
  8
0
  6
CONTINUOUS
 62
     7
 10
-258.1309204101563
 20
-166.5
 40
5.000000000000004
 50
269.9999974955215
 51
330.0000025802687
  0
ARC
  8
0
  6
CONTINUOUS
 62
     7
 10
-174.310791015625
 20
-141.6806640625
 40
2.999999761581439
 50
127.2456729165289
 51
209.999999013593
  0
ARC
  8
0
  6
CONTINUOUS
 62
     7
 10
-186.4351196289062
 20
-148.6805877685547
 40
2.999999761581439
 50
30.00000424992071
 51
112.7541220262156
  0
ARC
  8
0
  6
CONTINUOUS
 62
     7
 10
-229.3676147460937
 20
-148.6805114746094
 40
2.99999976158142
 50
67.24563709593119
 51
150.0000110043195
  0
ARC
  8
0
  6
CONTINUOUS
 62
     7
 10
-241.4919738769531
 20
-141.6804656982422
 40
2.999999761581415
 50
330.0000025802685
 51
52.75402814900946
  0
ARC
  8
0
  6
CONTINUOUS
 62
     7
 10
-189.7147827148437
 20
-143.0000305175781
 40
2.999999761581439
 50
30.00000424992071
 51
111.7866940321749
  0
ARC
  8
0
  6
CONTINUOUS
 62
     7
 10
-177.5904541015625
 20
-136.0000610351563
 40
2.999999761581422
 50
128.2130735898129
 51
209.999999013593
  0
ARC
  8
0
  6
CONTINUOUS
 62
     7
 10
-192.9012451171875
 20
-144.1476287841797
 40
2.999999761581425
 50
107.8257512192685
 51
180.0000050089563
  0
ARC
  8
0
  6
CONTINUOUS
 62
     7
 10
-222.9011993408203
 20
-144.1476440429688
 40
2.999999761581424
 50
2.504478128822037E-06
 51
72.17436990290399
  0
ARC
  8
0
  6
CONTINUOUS
 62
     7
 10
-226.0879211425781
 20
-142.9999389648437
 40
2.999999761581417
 50
68.21303776921464
 51
150.0000110043195
  0
ARC
  8
0
  6
CONTINUOUS
 62
     7
 10
-238.2122955322266
 20
-135.9998779296875
 40
2.999999761581415
 50
330.0000025802685
 51
51.78658649459035
  0
ARC
  8
0
  6
CONTINUOUS
 62
     7
 10
-161.2536163330078
 20
-112.4999313354492
 40
2.999999761581418
 50
90.0000093346673
 51
162.174372407382
  0
ARC
  8
0
  6
CONTINUOUS
 62
     7
 10
-161.2536315917969
 20
-82.5
 40
2.99999976158143
 50
197.8257232152664
 51
269.9999974955219
  0
ARC
  8
0
  6
CONTINUOUS
 62
     7
 10
-192.9012603759766
 20
-50.85239028930664
 40
2.999999761581427
 50
179.999991348578
 51
252.1742997797795
  0
ARC
  8
0
  6
CONTINUOUS
 62
     7
 10
-222.9012603759766
 20
-50.85239028930664
 40
2.999999761581416
 50
287.8257052291768
 51
2.504478264525714E-06
  0
ARC
  8
0
  6
CONTINUOUS
 62
     7
 10
-254.5488891601562
 20
-82.5
 40
2.999999761581424
 50
269.9999974955219
 51
342.1743144644595
  0
ARC
  8
0
  6
CONTINUOUS
 62
     7
 10
-254.5488891601562
 20
-112.5
 40
2.999999761581417
 50
17.82570261101339
 51
90.00000250447813
  0
ARC
  8
0
  6
CONTINUOUS
 62
     7
 10
228.0987243652344
 20
-140.5
 40
5
 50
0
 51
90.00000250447815
  0
ARC
  8
0
  6
CONTINUOUS
 62
     7
 10
228.0987243652344
 20
-54.5
 40
4.999999999999997
 50
269.9999974955218
 51
0
  0
ARC
  8
0
  6
CONTINUOUS
 62
     7
 10
215.0987243652344
 20
-54.5
 40
5
 50
179.999991348578
 51
270.0000006832453
  0
ARC
  8
0
  6
CONTINUOUS
 62
     7
 10
215.0987243652344
 20
-140.5
 40
5.000000000000004
 50
90.00000250447815
 51
180.0000050089563
  0
ARC
  8
0
  6
CONTINUOUS
 62
     7
 10
208.5388946533203
 20
-21.58984375
 40
2.000000000000004
 50
10.00000397796112
 51
89.99998201391097
  0
ARC
  8
0
  6
CONTINUOUS
 62
     7
 10
191.1419372558594
 20
-23.994873046875
 40
3.999999999999995
 50
351.4459282863103
 51
53.91357911911859
  0
ARC
  8
0
  6
CONTINUOUS
 62
     7
 10
215.0555267333984
 20
-23.994873046875
 40
3.999999999999997
 50
126.0864395502159
 51
188.5540383028319
  0
ARC
  8
0
  6
CONTINUOUS
 62
     7
 10
203.0987243652344
 20
-7.58984375
 40
16.29999923706054
 50
306.086414050692
 51
233.91354314694
  0
CIRCLE
  8
0
  6
CONTINUOUS
 62
     7
 10
203.0987243652344
 20
-7.58984375
 40
10
  0
ARC
  8
0
  6
CONTINUOUS
 62
     7
 10
197.6585540771484
 20
-21.58984375
 40
1.999999999999999
 50
89.99998201391097
 51
170.000020667789
  0
ARC
  8
0
  6
CONTINUOUS
 62
     7
 10
215.0987243652344
 20
94.5
 40
5.000000000000004
 50
90.00000250447815
 51
180.0000050089563
  0
ARC
  8
0
  6
CONTINUOUS
 62
     7
 10
215.0987243652344
 20
180.5
 40
5
 50
179.999991348578
 51
270.0000006832453
  0
ARC
  8
0
  6
CONTINUOUS
 62
     7
 10
228.0987243652344
 20
180.5
 40
5.000000000000004
 50
269.9999974955218
 51
0
  0
ARC
  8
0
  6
CONTINUOUS
 62
     7
 10
228.0987243652344
 20
94.5
 40
5
 50
0
 51
90.00000250447815
  0
ARC
  8
0
  6
CONTINUOUS
 62
     7
 10
-207.9012603759766
 20
-97.5
 40
80
 50
25.44772927188404
 51
96.09494230090654
  0
ARC
  8
0
  6
CONTINUOUS
 62
     7
 10
-215.3487701416016
 20
-19.1021728515625
 40
0.9999999999999987
 50
20.0000130785643
 51
82.33288293470684
  0
ARC
  8
0
  6
CONTINUOUS
 62
     7
 10
-226.0735626220703
 20
5.5601806640625
 40
3.150000095367426
 50
9.999999709092942
 51
189.9999620293669
  0
ARC
  8
0
  6
CONTINUOUS
 62
     7
 10
-217.0984039306641
 20
-21.4415283203125
 40
0.999999999999986
 50
189.999979332211
 51
280.0000159876346
  0
ARC
  8
0
  6
CONTINUOUS
 62
     7
 10
-225.2722930908203
 20
-22.8828125
 40
0.9999999999999978
 50
279.9999613461212
 51
9.999999709092924
  0
ARC
  8
0
  6
CONTINUOUS
 62
     7
 10
-227.7165069580078
 20
-21.282958984375
 40
0.9999999999999956
 50
117.667083926394
 51
179.999950367443
  0
ARC
  8
0
  6
CONTINUOUS
 62
     7
 10
-207.9012603759766
 20
-97.5
 40
79.99999999999999
 50
103.904976748871
 51
154.5522637842412
  0
POLYLINE
  8
0
  6
CONTINUOUS
 62
     7
 66
     1
 10
0
 20
0
  0
VERTEX
  8
0
  6
CONTINUOUS
 62
     7
 10
189.9486999511719
 20
150.33447265625
 42
0.194569282453114
  0
VERTEX
  8
0
  6
CONTINUOUS
 62
     7
 10
192.8908764788579
 20
148.8950595530791
 42
0.02554323253016946
  0
VERTEX
  8
0
  6
CONTINUOUS
 62
     7
 10
196.2694961816192
 20
148.3832785855967
 42
0.01446695002795052
  0
VERTEX
  8
0
  6
CONTINUOUS
 62
     7
 10
199.6789067504978
 20
148.1298207900949
 42
0.01162823533404347
  0
VERTEX
  8
0
  6
CONTINUOUS
 62
     7
 10
203.0987243652344
 20
148.05126953125
 42
0.01162207999221654
  0
VERTEX
  8
0
  6
CONTINUOUS
 62
     7
 10
206.5168375986336
 20
148.129740488721
 42
0.01446991748458353
  0
VERTEX
  8
0
  6
CONTINUOUS
 62
     7
 10
209.9273533750937
 20
148.3832153189775
 42
0.02555833756705844
  0
VERTEX
  8
0
  6
CONTINUOUS
 62
     7
 10
213.3077018762034
 20
148.8953043240618
 42
0.1953013108079725
  0
VERTEX
  8
0
  6
CONTINUOUS
 62
     7
 10
216.2487119191083
 20
150.3367154478915
 42
0.1938789351878163
  0
VERTEX
  8
0
  6
CONTINUOUS
 62
     7
 10
213.3044188407141
 20
151.7745383771196
 42
0.02553305454208809
  0
VERTEX
  8
0
  6
CONTINUOUS
 62
     7
 10
209.9257838948922
 20
152.2862471581364
 42
0.01446795752225663
  0
VERTEX
  8
0
  6
CONTINUOUS
 62
     7
 10
206.5163700953809
 20
152.5396779138494
 42
0.01162537149202031
  0
VERTEX
  8
0
  6
CONTINUOUS
 62
     7
 10
203.0987243652344
 20
152.6181640625
 42
0.01162712554392476
  0
VERTEX
  8
0
  6
CONTINUOUS
 62
     7
 10
199.6806122313164
 20
152.5396569512729
 42
0.0144740094095016
  0
VERTEX
  8
0
  6
CONTINUOUS
 62
     7
 10
196.2701041445137
 20
152.28608432365
 42
0.0255616837585939
  0
VERTEX
  8
0
  6
CONTINUOUS
 62
     7
 10
192.8897785868148
 20
151.7738477589191
 42
0.1952050264606695
  0
VERTEX
  8
0
  6
CONTINUOUS
 62
     7
 10
189.948704535527
 20
150.3325659017653
 42
0
  0
SEQEND
  8
0
  0
POLYLINE
  8
0
  6
CONTINUOUS
 62
     7
 66
     1
 10
0
 20
0
  0
VERTEX
  8
0
  6
CONTINUOUS
 62
     7
 10
214.6504167144233
 20
157.6299021216336
 42
0.02483033891503238
  0
VERTEX
  8
0
  6
CONTINUOUS
 62
     7
 10
213.2420274951862
 20
157.9920179210777
 42
0.0136485411258356
  0
VERTEX
  8
0
  6
CONTINUOUS
 62
     7
 10
211.8101836090405
 20
158.2493247203978
 42
0.009382830365713706
  0
VERTEX
  8
0
  6
CONTINUOUS
 62
     7
 10
210.3678984421068
 20
158.4416629494113
 42
0.007275419706871939
  0
VERTEX
  8
0
  6
CONTINUOUS
 62
     7
 10
208.9195047307823
 20
158.5863780683934
 42
0.00609566717693687
  0
VERTEX
  8
0
  6
CONTINUOUS
 62
     7
 10
207.4675109006317
 20
158.6925640214939
 42
0.005403411756167843
  0
VERTEX
  8
0
  6
CONTINUOUS
 62
     7
 10
206.0134426653538
 20
158.7654666465735
 42
0.005011276167607739
  0
VERTEX
  8
0
  6
CONTINUOUS
 62
     7
 10
204.558056734412
 20
158.8081608136853
 42
0.004832082136179244
  0
VERTEX
  8
0
  6
CONTINUOUS
 62
     7
 10
203.1021327426989
 20
158.8222655477838
 42
0.004831334188102061
  0
VERTEX
  8
0
  6
CONTINUOUS
 62
     7
 10
201.646313919461
 20
158.8082951012244
 42
0.005006470056519921
  0
VERTEX
  8
0
  6
CONTINUOUS
 62
     7
 10
200.191918375183
 20
158.7657792326407
 42
0.005400882552911618
  0
VERTEX
  8
0
  6
CONTINUOUS
 62
     7
 10
198.7377624494694
 20
158.693043190852
 42
0.006091146285451294
  0
VERTEX
  8
0
  6
CONTINUOUS
 62
     7
 10
197.2856896377392
 20
158.5870429357708
 42
0.007269852988955917
  0
VERTEX
  8
0
  6
CONTINUOUS
 62
     7
 10
195.8367999215821
 20
158.4424994681177
 42
0.009378776901544457
  0
VERTEX
  8
0
  6
CONTINUOUS
 62
     7
 10
194.3930859034071
 20
158.2502209881302
 42
0.01364228252148058
  0
VERTEX
  8
0
  6
CONTINUOUS
 62
     7
 10
192.9595731507006
 20
157.9928957955457
 42
0.02480855593620956
  0
VERTEX
  8
0
  6
CONTINUOUS
 62
     7
 10
191.5496786252335
 20
157.6307544293864
 42
0
  0
SEQEND
  8
0
  0
POLYLINE
  8
0
  6
CONTINUOUS
 62
     7
 66
     1
 10
0
 20
0
  0
VERTEX
  8
0
  6
CONTINUOUS
 62
     7
 10
191.560302734375
 20
149.2392578125
 42
-0.01901918745875458
  0
VERTEX
  8
0
  6
CONTINUOUS
 62
     7
 10
190.8184083414599
 20
149.4434633333382
 42
-0.01048097705267818
  0
VERTEX
  8
0
  6
CONTINUOUS
 62
     7
 10
190.0897476257155
 20
149.6911824421169
 42
-0.005845321793709048
  0
VERTEX
  8
0
  6
CONTINUOUS
 62
     7
 10
189.3681463023894
 20
149.9598276724281
 42
-0.02972403344422234
  0
VERTEX
  8
0
  6
CONTINUOUS
 62
     7
 10
188.6673280247899
 20
150.2770049034654
 42
-0.05876742985133818
  0
VERTEX
  8
0
  6
CONTINUOUS
 62
     7
 10
188.0342367493797
 20
150.7113841238641
 42
-0.05384032392356809
  0
VERTEX
  8
0
  6
CONTINUOUS
 62
     7
 10
187.5227571502595
 20
151.2845385382681
 42
-0.04813922686571111
  0
VERTEX
  8
0
  6
CONTINUOUS
 62
     7
 10
187.1298879380768
 20
151.9458817017866
 42
-0.05484953165163985
  0
VERTEX
  8
0
  6
CONTINUOUS
 62
     7
 10
186.8843524823748
 20
152.6735323769536
 42
-0.05416192064386436
  0
VERTEX
  8
0
  6
CONTINUOUS
 62
     7
 10
186.8010559082031
 20
153.436767578125
 42
-0.054214912513276
  0
VERTEX
  8
0
  6
CONTINUOUS
 62
     7
 10
186.884480569765
 20
154.2003404479477
 42
-0.05486362129026535
  0
VERTEX
  8
0
  6
CONTINUOUS
 62
     7
 10
187.1302104311023
 20
154.9281020067904
 42
-0.04805889788446301
  0
VERTEX
  8
0
  6
CONTINUOUS
 62
     7
 10
187.5224922808248
 20
155.5883890748415
 42
-0.05381766463330935
  0
VERTEX
  8
0
  6
CONTINUOUS
 62
     7
 10
188.0340699355119
 20
156.1619955782815
 42
-0.05879202130777858
  0
VERTEX
  8
0
  6
CONTINUOUS
 62
     7
 10
188.6671764990703
 20
156.5964246361914
 42
-0.02971145702960178
  0
VERTEX
  8
0
  6
CONTINUOUS
 62
     7
 10
189.3676852970702
 20
156.9134734733483
 42
-0.005848077796738684
  0
VERTEX
  8
0
  6
CONTINUOUS
 62
     7
 10
190.089065145372
 20
157.1820737222709
 42
-0.01049682231858352
  0
VERTEX
  8
0
  6
CONTINUOUS
 62
     7
 10
190.8180252172733
 20
157.4298721110905
 42
-0.01899579569782056
  0
VERTEX
  8
0
  6
CONTINUOUS
 62
     7
 10
191.559814453125
 20
157.634033203125
 42
0
  0
SEQEND
  8
0
  0
POLYLINE
  8
0
  6
CONTINUOUS
 62
     7
 66
     1
 10
0
 20
0
  0
VERTEX
  8
0
  6
CONTINUOUS
 62
     7
 10
214.6371154785156
 20
149.2392578125
 42
0.01901728022363521
  0
VERTEX
  8
0
  6
CONTINUOUS
 62
     7
 10
215.3790125272414
 20
149.4434606263632
 42
0.0104814642224024
  0
VERTEX
  8
0
  6
CONTINUOUS
 62
     7
 10
216.1076768901442
 20
149.6911747206761
 42
0.005848017668095444
  0
VERTEX
  8
0
  6
CONTINUOUS
 62
     7
 10
216.8292803782879
 20
149.9598205280716
 42
0.02972556577508378
  0
VERTEX
  8
0
  6
CONTINUOUS
 62
     7
 10
217.5300977209961
 20
150.2770040619344
 42
0.05876385890720288
  0
VERTEX
  8
0
  6
CONTINUOUS
 62
     7
 10
218.1631852766971
 20
150.711386668956
 42
0.0538400596415003
  0
VERTEX
  8
0
  6
CONTINUOUS
 62
     7
 10
218.6746835823319
 20
151.2845277386038
 42
0.04813933897796547
  0
VERTEX
  8
0
  6
CONTINUOUS
 62
     7
 10
219.0675558661015
 20
151.945871172412
 42
0.05486388540021579
  0
VERTEX
  8
0
  6
CONTINUOUS
 62
     7
 10
219.3130662371049
 20
152.6735306670242
 42
0.05415427882668887
  0
VERTEX
  8
0
  6
CONTINUOUS
 62
     7
 10
219.3963928222656
 20
153.436767578125
 42
0.05420694667385045
  0
VERTEX
  8
0
  6
CONTINUOUS
 62
     7
 10
219.3129387251542
 20
154.2003397453309
 42
0.05487790612310854
  0
VERTEX
  8
0
  6
CONTINUOUS
 62
     7
 10
219.0672343135261
 20
154.9281106208923
 42
0.04805889587811434
  0
VERTEX
  8
0
  6
CONTINUOUS
 62
     7
 10
218.6749501315593
 20
155.5883976007618
 42
0.05381747357135385
  0
VERTEX
  8
0
  6
CONTINUOUS
 62
     7
 10
218.1633534798316
 20
156.1619917493688
 42
0.05878894917001497
  0
VERTEX
  8
0
  6
CONTINUOUS
 62
     7
 10
217.5302481287252
 20
156.5964261936697
 42
0.02971283688995265
  0
VERTEX
  8
0
  6
CONTINUOUS
 62
     7
 10
216.8297420962499
 20
156.9134802361241
 42
0.005850687651779888
  0
VERTEX
  8
0
  6
CONTINUOUS
 62
     7
 10
216.1083609637052
 20
157.1820810027394
 42
0.01049742747457263
  0
VERTEX
  8
0
  6
CONTINUOUS
 62
     7
 10
215.3793951141293
 20
157.4298749440761
 42
0.01899365772256592
  0
VERTEX
  8
0
  6
CONTINUOUS
 62
     7
 10
214.6376037597656
 20
157.634033203125
 42
0
  0
SEQEND
  8
0
  0
POLYLINE
  8
0
  6
CONTINUOUS
 62
     7
 66
     1
 10
0
 20
0
  0
VERTEX
  8
0
  6
CONTINUOUS
 62
     7
 10
195.3606264239249
 20
148.4854546521817
 42
0.04188613022365417
  0
VERTEX
  8
0
  6
CONTINUOUS
 62
     7
 10
195.8007560467411
 20
147.2574652059012
 42
0.04165468219605301
  0
VERTEX
  8
0
  6
CONTINUOUS
 62
     7
 10
196.4389970296825
 20
146.1195237150533
 42
0.04136408119848463
  0
VERTEX
  8
0
  6
CONTINUOUS
 62
     7
 10
197.2564465284579
 20
145.1026473613256
 42
0.04106062826738574
  0
VERTEX
  8
0
  6
CONTINUOUS
 62
     7
 10
198.2297503601876
 20
144.2334846759148
 42
0.04077373210740744
  0
VERTEX
  8
0
  6
CONTINUOUS
 62
     7
 10
199.3318205349496
 20
143.5342767350566
 42
0.04052967900160082
  0
VERTEX
  8
0
  6
CONTINUOUS
 62
     7
 10
200.5326829822558
 20
143.0225028720043
 42
0.04034890219006827
  0
VERTEX
  8
0
  6
CONTINUOUS
 62
     7
 10
201.8002667383383
 20
142.7106730164315
 42
0.04023730416246826
  0
VERTEX
  8
0
  6
CONTINUOUS
 62
     7
 10
203.1009026121632
 20
142.6062014636047
 42
0.04023045196246706
  0
VERTEX
  8
0
  6
CONTINUOUS
 62
     7
 10
204.4012569077266
 20
142.7113338927849
 42
0.04031713967842477
  0
VERTEX
  8
0
  6
CONTINUOUS
 62
     7
 10
205.6676943980322
 20
143.0234797942068
 42
0.04051233780470564
  0
VERTEX
  8
0
  6
CONTINUOUS
 62
     7
 10
206.867852345852
 20
143.5354458574178
 42
0.04075999998138723
  0
VERTEX
  8
0
  6
CONTINUOUS
 62
     7
 10
207.9693397547586
 20
144.2347246872528
 42
0.0410595626282621
  0
VERTEX
  8
0
  6
CONTINUOUS
 62
     7
 10
208.9423849213414
 20
145.1041035175157
 42
0.04137676030972524
  0
VERTEX
  8
0
  6
CONTINUOUS
 62
     7
 10
209.7597906964469
 20
146.1215061033442
 42
0.04167427534090137
  0
VERTEX
  8
0
  6
CONTINUOUS
 62
     7
 10
210.3979319968729
 20
147.2601855736797
 42
0.0419152862811809
  0
VERTEX
  8
0
  6
CONTINUOUS
 62
     7
 10
210.8378203909742
 20
148.489206351124
 42
0
  0
SEQEND
  8
0
  0
TEXT
  8
0
  6
CONTINUOUS
 62
     7
 10
-286.3298306465149
 20
128.5
 40
18
 41
0.8449533945834478
  1
ＥＲＫ－Ｂ－２００
  0
ENDSEC
  0
EOF
