  0
SECTION
  2
HEADER
  0
ENDSEC
  0
SECTION
  2
TABLES
  0
TABLE
  2
LTYPE
 70
    22
  0
LTYPE
  2
CONTINUOUS
 70
    64
  3
Solid line
 72
    65
 73
     0
 40
0.000000
  0
LTYPE
  2
DASHED
 70
    64
  3
__ __ __ __ __ __ __ __ __ __ __ __ __ __ __
 72
    65
 73
     2
 40
3.500000
 49
2.000000
 49
-1.500000
  0
LTYPE
  2
CENTER
 70
    64
  3
____ _ ____ _ ____ _ ____ _ ____ _ ____ _ ____
 72
    65
 73
     4
 40
17.500000
 49
13.000000
 49
-1.500000
 49
1.500000
 49
-1.500000
  0
LTYPE
  2
PHANTOM
 70
    64
  3
_____ _ _ _____ _ _ _____ _ _ _____ _ _ ____  
 72
    65
 73
     6
 40
15.500000
 49
8.000000
 49
-1.500000
 49
1.500000
 49
-1.500000
 49
1.500000
 49
-1.500000
  0
LTYPE
  2
DOT
 70
    64
  3
. . . . . . . . . . . . . . . . . . . . . . . .
 72
    65
 73
     2
 40
0.25
 49
0.0
 49
-0.25
  0
ENDTAB
  0
TABLE
  2
LAYER
 70
     1
  0
LAYER
  2
0
 70
     0
 62
     7
  6
CONTINUOUS
  0
ENDTAB
  0
TABLE
  2
STYLE
 70
     1
  0
STYLE
  2
STANDARD
 70
     0
 40
0.000000
 41
1.000000
 50
0.000000
 71
     0
 42
0.200000
  3
txt
  4
BIGFONT
  0
ENDTAB
  0
TABLE
  2
VIEW
 70
     0
  0
ENDTAB
  0
ENDSEC
  0
SECTION
  2
BLOCKS
  0
ENDSEC
  0
SECTION
  2
ENTITIES
  0
LINE
  8
0
  6
CONTINUOUS
 62
     3
 10
-317.9012451171875
 20
-112.5
 11
-97.90126037597656
 21
-112.5
  0
LINE
  8
0
  6
CONTINUOUS
 62
     7
 10
102.0987396240234
 20
-227.5
 11
237.0987396240234
 21
-227.5
  0
LINE
  8
0
  6
CONTINUOUS
 62
     7
 10
102.0987396240234
 20
-211.5
 11
102.0987396240234
 21
-227.5
  0
LINE
  8
0
  6
CONTINUOUS
 62
     7
 10
87.09873962402344
 20
-75
 11
87.09873962402344
 21
-150
  0
LINE
  8
0
  6
CONTINUOUS
 62
     7
 10
237.0987396240234
 20
-211.5
 11
237.0987396240234
 21
-227.5
  0
LINE
  8
0
  6
CONTINUOUS
 62
     7
 10
102.0987396240234
 20
-211.5
 11
128.0987396240234
 21
-211.5
  0
LINE
  8
0
  6
CONTINUOUS
 62
     7
 10
89.09873962402344
 20
-162.5
 11
107.0987396240234
 21
-162.5
  0
LINE
  8
0
  6
CONTINUOUS
 62
     7
 10
89.09873962402344
 20
-62.49998474121094
 11
107.0987396240234
 21
-62.49998474121094
  0
LINE
  8
0
  6
CONTINUOUS
 62
     7
 10
155.0987396240234
 20
-39.99998474121094
 11
155.0987396240234
 21
-144.8160400390625
  0
LINE
  8
0
  6
CONTINUOUS
 62
     7
 10
143.0987396240234
 20
-39.99998474121094
 11
155.0987396240234
 21
-39.99998474121094
  0
LINE
  8
0
  6
CONTINUOUS
 62
     7
 10
143.0987396240234
 20
-39.99998474121094
 11
143.0987396240234
 21
-97.16903686523438
  0
LINE
  8
0
  6
CONTINUOUS
 62
     7
 10
89.09873962402344
 20
-62.49998474121094
 11
89.09873962402344
 21
-73.84521484375
  0
LINE
  8
0
  6
CONTINUOUS
 62
     7
 10
87.09872436523437
 20
-74.99993896484375
 11
89.09873199462891
 21
-73.84523773193359
  0
LINE
  8
0
  6
CONTINUOUS
 62
     7
 10
87.0987548828125
 20
-150.0000152587891
 11
89.09873962402344
 21
-151.1547088623047
  0
LINE
  8
0
  6
CONTINUOUS
 62
     7
 10
107.4979782104492
 20
-206.9357757568359
 11
112.0364837646484
 21
-155.0604705810547
  0
LINE
  8
0
  6
CONTINUOUS
 62
     7
 10
155.0987243652344
 20
-144.8160705566406
 11
184.9385070800781
 21
-196.5000610351563
  0
LINE
  8
0
  6
CONTINUOUS
 62
     7
 10
133.0987396240234
 20
-109.8181457519531
 11
133.0987396240234
 21
-206.5
  0
LINE
  8
0
  6
CONTINUOUS
 62
     3
 10
117.0987396240234
 20
-206.5
 11
117.0987396240234
 21
-231.1658935546875
  0
LINE
  8
0
  6
CONTINUOUS
 62
     3
 10
222.0987396240234
 20
-206.5
 11
222.0987396240234
 21
-231.9737854003906
  0
LINE
  8
0
  6
CONTINUOUS
 62
     7
 10
42.09873962402344
 20
-95.5
 11
74.09873962402344
 21
-95.5
  0
LINE
  8
0
  6
CONTINUOUS
 62
     7
 10
74.09873962402344
 20
-95.5
 11
74.09873962402344
 21
-98.5
  0
LINE
  8
0
  6
CONTINUOUS
 62
     7
 10
42.09873962402344
 20
-95.5
 11
42.09873962402344
 21
-126.5
  0
LINE
  8
0
  6
CONTINUOUS
 62
     7
 10
42.09873962402344
 20
-98.5
 11
82.09873962402344
 21
-98.5
  0
LINE
  8
0
  6
CONTINUOUS
 62
     7
 10
42.09873962402344
 20
-126.5
 11
82.09873962402344
 21
-126.5
  0
LINE
  8
0
  6
CONTINUOUS
 62
     7
 10
82.09873962402344
 20
-95
 11
82.09873962402344
 21
-130
  0
LINE
  8
0
  6
CONTINUOUS
 62
     7
 10
82.09873962402344
 20
-130
 11
87.09873962402344
 21
-130
  0
LINE
  8
0
  6
CONTINUOUS
 62
     7
 10
82.09873962402344
 20
-95
 11
87.09873962402344
 21
-95
  0
LINE
  8
0
  6
DASHED
 62
     7
 10
123.0987396240234
 20
-211.5
 11
123.0987396240234
 21
-227.5
  0
LINE
  8
0
  6
DASHED
 62
     7
 10
111.0987396240234
 20
-211.5
 11
111.0987396240234
 21
-227.5
  0
LINE
  8
0
  6
DASHED
 62
     7
 10
216.0987396240234
 20
-211.5
 11
216.0987396240234
 21
-227.5
  0
LINE
  8
0
  6
DASHED
 62
     7
 10
228.0987396240234
 20
-211.5
 11
228.0987396240234
 21
-227.5
  0
LINE
  8
0
  6
CONTINUOUS
 62
     7
 10
107.0984954833984
 20
-62.49999237060547
 11
138.3603973388672
 21
-60.86162567138672
  0
LINE
  8
0
  6
CONTINUOUS
 62
     7
 10
107.0984954833984
 20
-162.5000457763672
 11
111.3661117553711
 21
-162.7237091064453
  0
LINE
  8
0
  6
CONTINUOUS
 62
     7
 10
210.9192352294922
 20
-211.5
 11
237.0987396240234
 21
-211.5
  0
LINE
  8
0
  6
CONTINUOUS
 62
     7
 10
89.09873962402344
 20
-151.1547241210937
 11
89.09873962402344
 21
-162.5
  0
LINE
  8
0
  6
CONTINUOUS
 62
     7
 10
179.7422943115234
 20
-187.5
 11
191.5987396240234
 21
-187.5
  0
LINE
  8
0
  6
CONTINUOUS
 62
     7
 10
158.5987396240234
 20
-37.5
 11
191.5987396240234
 21
-37.5
  0
LINE
  8
0
  6
CONTINUOUS
 62
     7
 10
158.5987548828125
 20
-37.50001525878906
 11
155.0987548828125
 21
-41.66090393066406
  0
LINE
  8
0
  6
CONTINUOUS
 62
     7
 10
191.5987396240234
 20
-37.50000381469727
 11
195.0987396240234
 21
-41.6609001159668
  0
LINE
  8
0
  6
CONTINUOUS
 62
     7
 10
195.0987396240234
 20
-40
 11
195.0987396240234
 21
-185
  0
LINE
  8
0
  6
CONTINUOUS
 62
     7
 10
191.5987396240234
 20
-187.5
 11
195.0987548828125
 21
-183.339111328125
  0
LINE
  8
0
  6
CONTINUOUS
 62
     7
 10
158.5987396240234
 20
-83.0653076171875
 11
191.5987396240234
 21
-83.0653076171875
  0
LINE
  8
0
  6
CONTINUOUS
 62
     7
 10
158.5987396240234
 20
-91.75527954101562
 11
191.5987396240234
 21
-91.75527954101562
  0
LINE
  8
0
  6
CONTINUOUS
 62
     7
 10
158.5987396240234
 20
-99.55023193359375
 11
191.5987396240234
 21
-99.55023193359375
  0
LINE
  8
0
  6
CONTINUOUS
 62
     7
 10
158.5987396240234
 20
-108.5000610351563
 11
191.5987396240234
 21
-108.5000610351563
  0
LINE
  8
0
  6
CONTINUOUS
 62
     7
 10
158.5987396240234
 20
-116.5000915527344
 11
191.5987396240234
 21
-116.5000915527344
  0
LINE
  8
0
  6
CONTINUOUS
 62
     7
 10
158.5987396240234
 20
-125.4499206542969
 11
191.5987396240234
 21
-125.4499206542969
  0
LINE
  8
0
  6
CONTINUOUS
 62
     7
 10
158.5987396240234
 20
-133.244873046875
 11
191.5987396240234
 21
-133.244873046875
  0
LINE
  8
0
  6
CONTINUOUS
 62
     7
 10
158.5987396240234
 20
-141.9347839355469
 11
191.5987396240234
 21
-141.9347839355469
  0
LINE
  8
0
  6
CONTINUOUS
 62
     7
 10
162.4352264404297
 20
-157.5232543945312
 11
191.5987396240234
 21
-157.5232543945312
  0
LINE
  8
0
  6
CONTINUOUS
 62
     7
 10
166.4894866943359
 20
-164.5454406738281
 11
191.5987396240234
 21
-164.5454406738281
  0
LINE
  8
0
  6
CONTINUOUS
 62
     7
 10
169.6395111083984
 20
-170.0014343261719
 11
191.5987396240234
 21
-170.0014343261719
  0
LINE
  8
0
  6
CONTINUOUS
 62
     7
 10
172.7329559326172
 20
-175.3594360351563
 11
191.5987396240234
 21
-175.3594360351563
  0
LINE
  8
0
  6
CONTINUOUS
 62
     7
 10
175.0423736572266
 20
-179.3594360351563
 11
191.5987396240234
 21
-179.3594360351563
  0
LINE
  8
0
  6
CONTINUOUS
 62
     7
 10
177.1161041259766
 20
-182.9512939453125
 11
191.5987396240234
 21
-182.9512939453125
  0
LINE
  8
0
  6
CONTINUOUS
 62
     3
 10
275.0988159179688
 20
137.5
 11
32.09873962402344
 21
137.5
  0
LINE
  8
0
  6
CONTINUOUS
 62
     7
 10
107.0987319946289
 20
187.4999847412109
 11
138.3604278564453
 21
189.1383361816406
  0
LINE
  8
0
  6
CONTINUOUS
 62
     7
 10
107.0985107421875
 20
87.49990844726563
 11
138.3604125976563
 21
85.86154174804687
  0
LINE
  8
0
  6
CONTINUOUS
 62
     7
 10
87.09873962402344
 20
175
 11
87.09873962402344
 21
100
  0
LINE
  8
0
  6
CONTINUOUS
 62
     7
 10
237.0987396240234
 20
219.9999694824219
 11
237.0987396240234
 21
193.5
  0
LINE
  8
0
  6
CONTINUOUS
 62
     7
 10
232.0987396240234
 20
224.9999694824219
 11
107.0987396240234
 21
224.9999694824219
  0
LINE
  8
0
  6
CONTINUOUS
 62
     7
 10
232.0987396240234
 20
50
 11
107.0987396240234
 21
50
  0
LINE
  8
0
  6
CONTINUOUS
 62
     7
 10
102.0987396240234
 20
219.9999694824219
 11
102.0987396240234
 21
187.5
  0
LINE
  8
0
  6
CONTINUOUS
 62
     7
 10
107.0987396240234
 20
187.5
 11
89.09873962402344
 21
187.5
  0
LINE
  8
0
  6
CONTINUOUS
 62
     7
 10
107.0987396240234
 20
87.5
 11
89.09873962402344
 21
87.5
  0
LINE
  8
0
  6
CONTINUOUS
 62
     7
 10
89.09873962402344
 20
187.5
 11
89.09873962402344
 21
176.15478515625
  0
LINE
  8
0
  6
CONTINUOUS
 62
     7
 10
87.09873199462891
 20
175.0000915527344
 11
89.09874725341797
 21
176.1548004150391
  0
LINE
  8
0
  6
CONTINUOUS
 62
     7
 10
87.09874725341797
 20
99.99993896484375
 11
89.09873962402344
 21
98.84524536132812
  0
LINE
  8
0
  6
CONTINUOUS
 62
     7
 10
155.0987396240234
 20
215.3998718261719
 11
155.0987396240234
 21
59.60012817382813
  0
LINE
  8
0
  6
CONTINUOUS
 62
     7
 10
143.0987396240234
 20
209.2601623535156
 11
143.0987396240234
 21
65.73983764648438
  0
LINE
  8
0
  6
CONTINUOUS
 62
     7
 10
102.0987396240234
 20
87.5
 11
102.0987396240234
 21
55
  0
LINE
  8
0
  6
CONTINUOUS
 62
     7
 10
107.0987396240234
 20
81.48660278320312
 11
133.0987396240234
 21
81.48660278320312
  0
LINE
  8
0
  6
CONTINUOUS
 62
     7
 10
108.5441513061523
 20
87.50003051757812
 11
107.0987014770508
 21
81.48661804199219
  0
LINE
  8
0
  6
CONTINUOUS
 62
     7
 10
133.0987396240234
 20
86.13729858398438
 11
133.0987396240234
 21
50
  0
LINE
  8
0
  6
CONTINUOUS
 62
     7
 10
237.0987396240234
 20
81.5
 11
237.0987396240234
 21
55
  0
LINE
  8
0
  6
CONTINUOUS
 62
     7
 10
108.5441513061523
 20
187.5
 11
107.0987091064453
 21
193.5133514404297
  0
LINE
  8
0
  6
CONTINUOUS
 62
     7
 10
107.0987396240234
 20
193.5133972167969
 11
133.0987396240234
 21
193.5133972167969
  0
LINE
  8
0
  6
CONTINUOUS
 62
     7
 10
133.0987396240234
 20
188.8625793457031
 11
133.0987396240234
 21
224.9999694824219
  0
LINE
  8
0
  6
CONTINUOUS
 62
     7
 10
42.09873962402344
 20
151.5
 11
42.09873962402344
 21
123.5
  0
LINE
  8
0
  6
CONTINUOUS
 62
     7
 10
42.09873962402344
 20
151.5
 11
82.09873962402344
 21
151.5
  0
LINE
  8
0
  6
CONTINUOUS
 62
     7
 10
42.09873962402344
 20
123.5
 11
82.09873962402344
 21
123.5
  0
LINE
  8
0
  6
CONTINUOUS
 62
     7
 10
82.09873962402344
 20
155
 11
82.09873962402344
 21
120
  0
LINE
  8
0
  6
CONTINUOUS
 62
     7
 10
82.09873962402344
 20
120
 11
87.09873962402344
 21
120
  0
LINE
  8
0
  6
CONTINUOUS
 62
     7
 10
82.09873962402344
 20
155
 11
87.09873962402344
 21
155
  0
LINE
  8
0
  6
CONTINUOUS
 62
     7
 10
76.09873962402344
 20
141.5
 11
42.09873962402344
 21
141.5
  0
LINE
  8
0
  6
CONTINUOUS
 62
     7
 10
76.09873962402344
 20
133.5
 11
42.09873962402344
 21
133.5
  0
LINE
  8
0
  6
CONTINUOUS
 62
     7
 10
74.09873962402344
 20
141.5
 11
74.09873962402344
 21
133.5
  0
LINE
  8
0
  6
CONTINUOUS
 62
     3
 10
126.1317596435547
 20
65
 11
107.4657440185547
 21
65
  0
LINE
  8
0
  6
CONTINUOUS
 62
     3
 10
117.0987396240234
 20
73.50497436523437
 11
117.0987396240234
 21
55.26318359375
  0
LINE
  8
0
  6
CONTINUOUS
 62
     3
 10
117.0987396240234
 20
201.4950256347656
 11
117.0987396240234
 21
219.7367858886719
  0
LINE
  8
0
  6
CONTINUOUS
 62
     3
 10
126.1317596435547
 20
210
 11
107.4657440185547
 21
210
  0
LINE
  8
0
  6
CONTINUOUS
 62
     3
 10
222.0987396240234
 20
70.99996185302734
 11
222.0987396240234
 21
55.26318359375
  0
LINE
  8
0
  6
CONTINUOUS
 62
     3
 10
213.0657196044922
 20
65
 11
231.7317352294922
 21
65
  0
LINE
  8
0
  6
CONTINUOUS
 62
     3
 10
222.0987396240234
 20
203.9999694824219
 11
222.0987396240234
 21
219.7367858886719
  0
LINE
  8
0
  6
CONTINUOUS
 62
     3
 10
213.0657196044922
 20
210
 11
231.7317352294922
 21
210
  0
LINE
  8
0
  6
CONTINUOUS
 62
     7
 10
133.0987396240234
 20
209.2601623535156
 11
143.0987396240234
 21
209.2601623535156
  0
LINE
  8
0
  6
CONTINUOUS
 62
     7
 10
133.0987396240234
 20
65.73983764648438
 11
143.0987396240234
 21
65.73983764648438
  0
LINE
  8
0
  6
CONTINUOUS
 62
     7
 10
155.0987548828125
 20
215.3998870849609
 11
211.0987548828125
 21
224.9999847412109
  0
LINE
  8
0
  6
CONTINUOUS
 62
     7
 10
179.6115264892578
 20
212.5
 11
207.5918731689453
 21
217.2966766357422
  0
LINE
  8
0
  6
CONTINUOUS
 62
     7
 10
155.0987243652344
 20
59.60012817382813
 11
211.0987243652344
 21
50.00002670288086
  0
LINE
  8
0
  6
CONTINUOUS
 62
     7
 10
179.6115875244141
 20
62.49999618530273
 11
207.5918731689453
 21
57.70332717895508
  0
LINE
  8
0
  6
CONTINUOUS
 62
     7
 10
89.09873962402344
 20
98.84527587890625
 11
89.09873962402344
 21
87.5
  0
LINE
  8
0
  6
CONTINUOUS
 62
     7
 10
158.5987396240234
 20
212.5
 11
191.5987396240234
 21
212.5
  0
LINE
  8
0
  6
CONTINUOUS
 62
     7
 10
158.5987243652344
 20
212.5
 11
155.0987091064453
 21
208.3390960693359
  0
LINE
  8
0
  6
CONTINUOUS
 62
     7
 10
191.5987548828125
 20
212.5
 11
195.0987701416016
 21
208.3390960693359
  0
LINE
  8
0
  6
CONTINUOUS
 62
     7
 10
191.5987091064453
 20
62.50000381469727
 11
195.0987243652344
 21
66.66089630126953
  0
LINE
  8
0
  6
CONTINUOUS
 62
     7
 10
158.5987396240234
 20
62.5
 11
191.5987396240234
 21
62.5
  0
LINE
  8
0
  6
CONTINUOUS
 62
     7
 10
158.5987548828125
 20
62.49999237060547
 11
155.0987701416016
 21
66.66086578369141
  0
LINE
  8
0
  6
CONTINUOUS
 62
     7
 10
158.5987396240234
 20
209.5739135742187
 11
191.5987396240234
 21
209.5739135742187
  0
LINE
  8
0
  6
CONTINUOUS
 62
     7
 10
158.5987396240234
 20
206.4825134277344
 11
191.5987396240234
 21
206.4825134277344
  0
LINE
  8
0
  6
CONTINUOUS
 62
     7
 10
158.5987396240234
 20
197.4824829101562
 11
191.5987396240234
 21
197.4824829101562
  0
LINE
  8
0
  6
CONTINUOUS
 62
     7
 10
158.5987396240234
 20
191.5025634765625
 11
191.5987396240234
 21
191.5025634765625
  0
LINE
  8
0
  6
CONTINUOUS
 62
     7
 10
158.5987396240234
 20
178.4107971191406
 11
191.5987396240234
 21
178.4107971191406
  0
LINE
  8
0
  6
CONTINUOUS
 62
     7
 10
158.5987396240234
 20
185.6517028808594
 11
191.5987396240234
 21
185.6517028808594
  0
LINE
  8
0
  6
CONTINUOUS
 62
     7
 10
158.5987396240234
 20
171.4825744628906
 11
191.5987396240234
 21
171.4825744628906
  0
LINE
  8
0
  6
CONTINUOUS
 62
     7
 10
158.5987396240234
 20
163.2219543457031
 11
191.5987396240234
 21
163.2219543457031
  0
LINE
  8
0
  6
CONTINUOUS
 62
     7
 10
158.5987396240234
 20
155.5715026855469
 11
187.5104217529297
 21
155.5715026855469
  0
LINE
  8
0
  6
CONTINUOUS
 62
     7
 10
158.5987396240234
 20
146.5000610351563
 11
191.5987396240234
 21
146.5000610351563
  0
LINE
  8
0
  6
CONTINUOUS
 62
     7
 10
158.5987396240234
 20
68.51739501953125
 11
191.5987396240234
 21
68.51739501953125
  0
LINE
  8
0
  6
CONTINUOUS
 62
     7
 10
158.5987396240234
 20
65.42604064941406
 11
191.5987396240234
 21
65.42604064941406
  0
LINE
  8
0
  6
CONTINUOUS
 62
     7
 10
195.0988006591797
 20
65
 11
195.0988006591797
 21
148.5222015380859
  0
LINE
  8
0
  6
CONTINUOUS
 62
     3
 10
-207.9012603759766
 20
-2.5
 11
-207.9012603759766
 21
-234.5
  0
LINE
  8
0
  6
CONTINUOUS
 62
     3
 10
-146.7732543945312
 20
-77.20750427246094
 11
-159.2373352050781
 21
-84.40364074707031
  0
LINE
  8
0
  6
CONTINUOUS
 62
     7
 10
-295.4012451171875
 20
-211.5
 11
-295.4012451171875
 21
-227.5
  0
LINE
  8
0
  6
CONTINUOUS
 62
     7
 10
-120.4012603759766
 20
-211.5
 11
-120.4012603759766
 21
-227.5
  0
LINE
  8
0
  6
CONTINUOUS
 62
     7
 10
-295.4012451171875
 20
-227.5
 11
-255.4012603759766
 21
-227.5
  0
LINE
  8
0
  6
CONTINUOUS
 62
     7
 10
-295.4012451171875
 20
-211.5
 11
-255.4012603759766
 21
-211.5
  0
LINE
  8
0
  6
CONTINUOUS
 62
     7
 10
-255.4012603759766
 20
-211.5
 11
-255.4012603759766
 21
-227.5
  0
LINE
  8
0
  6
CONTINUOUS
 62
     7
 10
-160.4012603759766
 20
-211.5
 11
-160.4012603759766
 21
-227.5
  0
LINE
  8
0
  6
CONTINUOUS
 62
     7
 10
-160.4012603759766
 20
-211.5
 11
-120.4012603759766
 21
-211.5
  0
LINE
  8
0
  6
CONTINUOUS
 62
     7
 10
-160.4012603759766
 20
-227.5
 11
-120.4012603759766
 21
-227.5
  0
LINE
  8
0
  6
CONTINUOUS
 62
     7
 10
-252.4012603759766
 20
-224.5
 11
-163.4012603759766
 21
-224.5
  0
LINE
  8
0
  6
CONTINUOUS
 62
     7
 10
-179.0685577392578
 20
-160.2119903564453
 11
-160.4012298583984
 21
-211.5000305175781
  0
LINE
  8
0
  6
CONTINUOUS
 62
     7
 10
-173.2954406738281
 20
-152.68310546875
 11
-153.0852813720703
 21
-208.2100677490234
  0
LINE
  8
0
  6
CONTINUOUS
 62
     7
 10
-120.401252746582
 20
-211.5
 11
-135.5238342285156
 21
-106.4565505981445
  0
LINE
  8
0
  6
CONTINUOUS
 62
     7
 10
-155.0811920166016
 20
-102.1690368652344
 11
-140.4727935791016
 21
-102.1690368652344
  0
LINE
  8
0
  6
CONTINUOUS
 62
     7
 10
-128.2958679199219
 20
-205.7875213623047
 11
-139.6214599609375
 21
-127.1184768676758
  0
LINE
  8
0
  6
CONTINUOUS
 62
     7
 10
-155.0811920166016
 20
-122.8309631347656
 11
-144.5703887939453
 21
-122.8309631347656
  0
LINE
  8
0
  6
CONTINUOUS
 62
     7
 10
-236.7338562011719
 20
-160.2120056152344
 11
-255.4011688232422
 21
-211.5000457763672
  0
LINE
  8
0
  6
CONTINUOUS
 62
     7
 10
-242.5071563720703
 20
-152.6831207275391
 11
-262.7173156738281
 21
-208.2100677490234
  0
LINE
  8
0
  6
CONTINUOUS
 62
     7
 10
-287.5067138671875
 20
-205.7875061035156
 11
-276.1811218261719
 21
-127.1184997558594
  0
LINE
  8
0
  6
CONTINUOUS
 62
     7
 10
-295.4013061523438
 20
-211.5
 11
-280.2787170410156
 21
-106.4565734863281
  0
LINE
  8
0
  6
CONTINUOUS
 62
     7
 10
-260.7213134765625
 20
-122.8309631347656
 11
-271.2321166992188
 21
-122.8309631347656
  0
LINE
  8
0
  6
CONTINUOUS
 62
     7
 10
-260.7213134765625
 20
-102.1690368652344
 11
-275.3297119140625
 21
-102.1690368652344
  0
LINE
  8
0
  6
CONTINUOUS
 62
     3
 10
-269.0294189453125
 20
-77.20767211914062
 11
-256.5653686523438
 21
-84.40380859375
  0
LINE
  8
0
  6
CONTINUOUS
 62
     3
 10
-269.0294494628906
 20
-147.7921905517578
 11
-256.5653686523438
 21
-140.5960540771484
  0
LINE
  8
0
  6
CONTINUOUS
 62
     3
 10
-146.7731475830078
 20
-147.7923126220703
 11
-159.2372131347656
 21
-140.5961761474609
  0
LINE
  8
0
  6
CONTINUOUS
 62
     7
 10
-203.9012603759766
 20
-95.5
 11
-203.9012603759766
 21
-102.5
  0
LINE
  8
0
  6
CONTINUOUS
 62
     7
 10
-211.9012603759766
 20
-95.5
 11
-211.9012603759766
 21
-102.5
  0
LINE
  8
0
  6
CONTINUOUS
 62
     7
 10
-211.9012603759766
 20
-102.5
 11
-203.9012603759766
 21
-102.5
  0
LINE
  8
0
  6
CONTINUOUS
 62
     7
 10
-211.9012603759766
 20
-95.5
 11
-203.9012603759766
 21
-95.5
  0
LINE
  8
0
  6
CONTINUOUS
 62
     3
 10
-280.4012451171875
 20
-206.5
 11
-280.4012451171875
 21
-232.3277587890625
  0
LINE
  8
0
  6
CONTINUOUS
 62
     3
 10
-135.4012603759766
 20
-206.5
 11
-135.4012603759766
 21
-232.3277587890625
  0
LINE
  8
0
  6
DASHED
 62
     7
 10
-286.4012451171875
 20
-211.5
 11
-286.4012451171875
 21
-227.5
  0
LINE
  8
0
  6
DASHED
 62
     7
 10
-274.4012451171875
 20
-211.5
 11
-274.4012451171875
 21
-227.5
  0
LINE
  8
0
  6
DASHED
 62
     7
 10
-141.4012603759766
 20
-211.5
 11
-141.4012603759766
 21
-227.5
  0
LINE
  8
0
  6
DASHED
 62
     7
 10
-129.4012603759766
 20
-211.5
 11
-129.4012603759766
 21
-227.5
  0
LINE
  8
0
  6
CONTINUOUS
 62
     7
 10
-267.8837890625
 20
-67.47660827636719
 11
-265.3972473144531
 21
-68.33596801757812
  0
LINE
  8
0
  6
CONTINUOUS
 62
     7
 10
-276.8836975097656
 20
-83.06501007080078
 11
-274.8963012695313
 21
-84.78868103027344
  0
LINE
  8
0
  6
CONTINUOUS
 62
     7
 10
-279.9751892089844
 20
-91.75521087646484
 11
-277.394775390625
 21
-91.83841705322266
  0
LINE
  8
0
  6
CONTINUOUS
 62
     7
 10
-281.7748718261719
 20
-99.55018615722656
 11
-279.4354858398438
 21
-100.5992736816406
  0
LINE
  8
0
  6
CONTINUOUS
 62
     7
 10
-282.7944641113281
 20
-108.5000076293945
 11
-280.5079956054687
 21
-108.0492324829102
  0
LINE
  8
0
  6
CONTINUOUS
 62
     7
 10
-282.7944946289063
 20
-116.4999923706055
 11
-281.754150390625
 21
-116.7051010131836
  0
LINE
  8
0
  6
CONTINUOUS
 62
     7
 10
-261.9037780761719
 20
-60.45459747314453
 11
-260.54150390625
 21
-62.64769744873047
  0
LINE
  8
0
  6
CONTINUOUS
 62
     7
 10
-256.0529479980469
 20
-54.99855804443359
 11
-253.9601745605469
 21
-56.51049423217773
  0
LINE
  8
0
  6
CONTINUOUS
 62
     7
 10
-248.8119964599609
 20
-49.64055633544922
 11
-247.9779815673828
 21
-52.08387756347656
  0
LINE
  8
0
  6
CONTINUOUS
 62
     7
 10
-241.8838043212891
 20
-45.64054870605469
 11
-240.1847991943359
 21
-47.58449554443359
  0
LINE
  8
0
  6
CONTINUOUS
 62
     7
 10
-233.6232452392578
 20
-42.04901123046875
 11
-233.3602600097656
 21
-44.61708068847656
  0
LINE
  8
0
  6
CONTINUOUS
 62
     7
 10
-225.9727325439453
 20
-39.7098388671875
 11
-224.7546081542969
 21
-41.9860725402832
  0
LINE
  8
0
  6
CONTINUOUS
 62
     7
 10
-133.0080261230469
 20
-116.5000457763672
 11
-134.0483856201172
 21
-116.7051620483398
  0
LINE
  8
0
  6
CONTINUOUS
 62
     7
 10
-133.0080718994141
 20
-108.5000381469727
 11
-135.2945404052734
 21
-108.0492401123047
  0
LINE
  8
0
  6
CONTINUOUS
 62
     7
 10
-134.0278778076172
 20
-99.55028533935547
 11
-136.3834533691406
 21
-100.6066055297852
  0
LINE
  8
0
  6
CONTINUOUS
 62
     7
 10
-135.8273468017578
 20
-91.75524139404297
 11
-138.4077453613281
 21
-91.83843994140625
  0
LINE
  8
0
  6
CONTINUOUS
 62
     7
 10
-216.9013824462891
 20
-38.0421142578125
 11
-217.400390625
 21
-40.62499618530273
  0
LINE
  8
0
  6
CONTINUOUS
 62
     7
 10
-138.9187469482422
 20
-83.06538391113281
 11
-140.9061126708984
 21
-84.78900909423828
  0
LINE
  8
0
  6
CONTINUOUS
 62
     3
 10
32.09873962402344
 20
-112.5
 11
275.0988159179688
 21
-112.5
  0
LINE
  8
0
  6
CONTINUOUS
 62
     7
 10
195.0988006591797
 20
158.3510894775391
 11
195.0988006591797
 21
210
  0
LINE
  8
0
  6
CONTINUOUS
 62
     7
 10
-218.4331207275391
 20
-52.77096557617188
 11
-227.4029846191406
 21
-1.900329947471619
  0
LINE
  8
0
  6
CONTINUOUS
 62
     7
 10
-214.4090728759766
 20
-33.76016998291016
 11
-212.9595794677734
 21
-37.74262237548828
  0
LINE
  8
0
  6
CONTINUOUS
 62
     7
 10
-228.7165069580078
 20
-36.282958984375
 11
-228.7165069580078
 21
-40.52099609375
  0
LINE
  8
0
  6
CONTINUOUS
 62
     7
 10
-222.9714050292969
 20
-8.892912864685059
 11
-218.0832366943359
 21
-36.61515426635742
  0
LINE
  8
0
  6
CONTINUOUS
 62
     7
 10
-218.7858123779297
 20
-32.63042449951172
 11
-215.2153625488281
 21
-33.11108016967773
  0
LINE
  8
0
  6
CONTINUOUS
 62
     7
 10
-224.9901275634766
 20
-33.72445297241211
 11
-228.1808929443359
 21
-35.39730453491211
  0
LINE
  8
0
  6
CONTINUOUS
 62
     7
 10
-229.1756896972656
 20
-9.986894607543945
 11
-224.2875061035156
 21
-37.70913696289062
  0
LINE
  8
0
  6
CONTINUOUS
 62
     7
 10
-225.8126831054687
 20
-40.00891876220703
 11
-216.9804840087891
 21
-38.45156478881836
  0
LINE
  8
0
  6
CONTINUOUS
 62
     7
 10
-220.4908294677734
 20
-41.10148620605469
 11
-222.8076934814453
 21
-39.47920227050781
  0
LINE
  8
0
  6
CONTINUOUS
 62
     7
 10
-220.8380432128906
 20
-39.13181304931641
 11
-218.5210876464844
 21
-40.75416564941406
  0
LINE
  8
0
  6
CONTINUOUS
 62
     7
 10
210.0987396240234
 20
-117.5
 11
250.0987396240234
 21
-117.5
  0
LINE
  8
0
  6
CONTINUOUS
 62
     7
 10
210.0987396240234
 20
-107.5
 11
250.0987396240234
 21
-107.5
  0
LINE
  8
0
  6
CONTINUOUS
 62
     7
 10
210.0987396240234
 20
-56.5
 11
250.0987396240234
 21
-56.5
  0
LINE
  8
0
  6
CONTINUOUS
 62
     7
 10
210.0987396240234
 20
-168.5
 11
250.0987396240234
 21
-168.5
  0
LINE
  8
0
  6
CONTINUOUS
 62
     7
 10
215.0987396240234
 20
-153.5
 11
245.0987396240234
 21
-153.5
  0
LINE
  8
0
  6
CONTINUOUS
 62
     7
 10
215.0987396240234
 20
-71.5
 11
245.0987396240234
 21
-71.5
  0
LINE
  8
0
  6
CONTINUOUS
 62
     7
 10
195.0987396240234
 20
-40
 11
210.0987396240234
 21
-40
  0
LINE
  8
0
  6
CONTINUOUS
 62
     7
 10
195.0987396240234
 20
-185
 11
210.0987396240234
 21
-185
  0
LINE
  8
0
  6
CONTINUOUS
 62
     7
 10
210.0987396240234
 20
-40
 11
210.0987396240234
 21
-185
  0
LINE
  8
0
  6
CONTINUOUS
 62
     7
 10
250.0987396240234
 20
-12.5
 11
250.0987396240234
 21
-212.5
  0
LINE
  8
0
  6
CONTINUOUS
 62
     7
 10
250.0987396240234
 20
-12.5
 11
265.0987548828125
 21
-12.5
  0
LINE
  8
0
  6
CONTINUOUS
 62
     7
 10
250.0987396240234
 20
-212.5
 11
265.0987548828125
 21
-212.5
  0
LINE
  8
0
  6
CONTINUOUS
 62
     7
 10
265.0987548828125
 20
-12.5
 11
265.0987548828125
 21
-212.5
  0
LINE
  8
0
  6
CONTINUOUS
 62
     7
 10
203.0987548828125
 20
-39.58978271484375
 11
203.5089263916016
 21
-39.99996185302734
  0
LINE
  8
0
  6
CONTINUOUS
 62
     7
 10
201.098876953125
 20
-39.58969497680664
 11
201.5090484619141
 21
-39.99987411499023
  0
LINE
  8
0
  6
CONTINUOUS
 62
     7
 10
203.0987396240234
 20
-42.7459716796875
 11
203.0987396240234
 21
-3.755859375
  0
LINE
  8
0
  6
CONTINUOUS
 62
     7
 10
183.6780853271484
 20
-22.58984375
 11
222.0547943115234
 21
-22.58984375
  0
LINE
  8
0
  6
CONTINUOUS
 62
     7
 10
195.0985565185547
 20
-39.58999252319336
 11
195.6887817382813
 21
-36.24270629882813
  0
LINE
  8
0
  6
CONTINUOUS
 62
     7
 10
197.6585540771484
 20
-34.58984375
 11
208.5389251708984
 21
-34.58984375
  0
LINE
  8
0
  6
CONTINUOUS
 62
     7
 10
196.9683532714844
 20
-34.71273803710938
 11
202.7584075927734
 21
-32.58410263061523
  0
LINE
  8
0
  6
CONTINUOUS
 62
     7
 10
203.4389190673828
 20
-32.58405685424805
 11
209.2289733886719
 21
-34.71268844604492
  0
LINE
  8
0
  6
CONTINUOUS
 62
     7
 10
195.0975189208984
 20
-39.58984375
 11
211.0987396240234
 21
-39.58984375
  0
LINE
  8
0
  6
CONTINUOUS
 62
     7
 10
195.3987884521484
 20
-39.58984375
 11
195.3987884521484
 21
-40
  0
LINE
  8
0
  6
CONTINUOUS
 62
     7
 10
210.7986907958984
 20
-39.58984375
 11
210.7986907958984
 21
-41.58984375
  0
LINE
  8
0
  6
CONTINUOUS
 62
     7
 10
210.0987396240234
 20
-41.58984375
 11
210.7986907958984
 21
-41.58984375
  0
LINE
  8
0
  6
CONTINUOUS
 62
     7
 10
210.508544921875
 20
-36.24252319335938
 11
211.0987701416016
 21
-39.58980941772461
  0
LINE
  8
0
  6
CONTINUOUS
 62
     7
 10
210.0988006591797
 20
142.5
 11
250.0988006591797
 21
142.5
  0
LINE
  8
0
  6
CONTINUOUS
 62
     7
 10
210.0988006591797
 20
132.5
 11
250.0988006591797
 21
132.5
  0
LINE
  8
0
  6
CONTINUOUS
 62
     7
 10
210.0988006591797
 20
193.5
 11
250.0988006591797
 21
193.5
  0
LINE
  8
0
  6
CONTINUOUS
 62
     7
 10
210.0988006591797
 20
81.5
 11
250.0988006591797
 21
81.5
  0
LINE
  8
0
  6
CONTINUOUS
 62
     7
 10
215.0988006591797
 20
96.5
 11
245.0988006591797
 21
96.5
  0
LINE
  8
0
  6
CONTINUOUS
 62
     7
 10
215.0988006591797
 20
178.5
 11
245.0988006591797
 21
178.5
  0
LINE
  8
0
  6
CONTINUOUS
 62
     7
 10
250.0988006591797
 20
237.5
 11
250.0988006591797
 21
37.5
  0
LINE
  8
0
  6
CONTINUOUS
 62
     7
 10
250.0988006591797
 20
37.5
 11
265.0988159179687
 21
37.5
  0
LINE
  8
0
  6
CONTINUOUS
 62
     7
 10
265.0988159179687
 20
237.5
 11
265.0988159179687
 21
37.5
  0
LINE
  8
0
  6
CONTINUOUS
 62
     7
 10
195.0988006591797
 20
158.35107421875
 11
195.0988006591797
 21
210
  0
LINE
  8
0
  6
CONTINUOUS
 62
     7
 10
250.0988006591797
 20
237.5
 11
265.0988159179687
 21
237.5
  0
LINE
  8
0
  6
CONTINUOUS
 62
     7
 10
210.0988006591797
 20
158.471923828125
 11
210.0988006591797
 21
210
  0
LINE
  8
0
  6
CONTINUOUS
 62
     7
 10
195.0988006591797
 20
210
 11
210.0988006591797
 21
210
  0
LINE
  8
0
  6
CONTINUOUS
 62
     7
 10
195.0988006591797
 20
65
 11
210.0988006591797
 21
65
  0
LINE
  8
0
  6
CONTINUOUS
 62
     7
 10
210.0988006591797
 20
65
 11
210.0988006591797
 21
146.670654296875
  0
ARC
  8
0
  6
CONTINUOUS
 62
     7
 10
107.0555267333984
 20
-154.6246948242188
 40
4.999999999999996
 50
354.9999967303589
 51
90.00000250447815
  0
ARC
  8
0
  6
CONTINUOUS
 62
     7
 10
102.5170745849609
 20
-206.5
 40
4.99999999999999
 50
270.0000179860893
 51
355.0000172209265
  0
ARC
  8
0
  6
CONTINUOUS
 62
     7
 10
210.9192352294922
 20
-181.5
 40
30.00000000000001
 50
209.9999889956805
 51
270.0000179860893
  0
ARC
  8
0
  6
CONTINUOUS
 62
     7
 10
138.0987396240234
 20
-55.86845397949219
 40
4.999999999999999
 50
273.0000897865582
 51
0
  0
ARC
  8
0
  6
CONTINUOUS
 62
     7
 10
128.0987396240234
 20
-206.5
 40
4.99999999999999
 50
270.0000179860893
 51
0
  0
ARC
  8
0
  6
CONTINUOUS
 62
     7
 10
138.0987396240234
 20
-97.16903686523438
 40
5.000000000000002
 50
283.3423007560891
 51
0
  0
ARC
  8
0
  6
CONTINUOUS
 62
     7
 10
141.0987396240234
 20
-109.8181457519531
 40
8.000000000000004
 50
103.3424218782613
 51
179.9999640278213
  0
ARC
  8
0
  6
CONTINUOUS
 62
     7
 10
232.0987396240234
 20
55
 40
4.999999999999997
 50
270.0000179860893
 51
0
  0
ARC
  8
0
  6
CONTINUOUS
 62
     7
 10
232.0987396240234
 20
219.9999694824219
 40
5
 50
0
 51
89.99998201391064
  0
ARC
  8
0
  6
CONTINUOUS
 62
     7
 10
107.0987396240234
 20
55
 40
4.999999999999996
 50
179.9999776881996
 51
270.0000280040019
  0
ARC
  8
0
  6
CONTINUOUS
 62
     7
 10
107.0987396240234
 20
55
 40
4.999999999999996
 50
179.9999776881996
 51
270.0000280040019
  0
ARC
  8
0
  6
CONTINUOUS
 62
     7
 10
107.0987396240234
 20
219.9999694824219
 40
4.99999999999999
 50
89.99998201391064
 51
179.9999640278213
  0
ARC
  8
0
  6
CONTINUOUS
 62
     7
 10
76.09873962402344
 20
137.5
 40
3.999999999999998
 50
270.0000179860892
 51
89.99998201391055
  0
CIRCLE
  8
0
  6
CONTINUOUS
 62
     7
 10
117.0987396240234
 20
65
 40
6
  0
CIRCLE
  8
0
  6
CONTINUOUS
 62
     7
 10
117.0987396240234
 20
210
 40
6
  0
CIRCLE
  8
0
  6
CONTINUOUS
 62
     7
 10
222.0987396240234
 20
65
 40
6
  0
CIRCLE
  8
0
  6
CONTINUOUS
 62
     7
 10
222.0987396240234
 20
210
 40
6
  0
ARC
  8
0
  6
CONTINUOUS
 62
     7
 10
138.0987396240234
 20
194.1315002441406
 40
5.00000000000001
 50
273.000000994099
 51
0
  0
ARC
  8
0
  6
CONTINUOUS
 62
     7
 10
138.0987396240234
 20
80.868408203125
 40
5
 50
0
 51
86.99999900590097
  0
ARC
  8
0
  6
CONTINUOUS
 62
     7
 10
208.0987396240234
 20
214.3398132324219
 40
2.999999999999985
 50
35.46060730265705
 51
99.72767403362606
  0
ARC
  8
0
  6
CONTINUOUS
 62
     7
 10
208.0987396240234
 20
60.66018676757812
 40
2.999999999999999
 50
260.272325966374
 51
320.2007335931459
  0
ARC
  8
0
  6
CONTINUOUS
 62
     7
 10
-207.9012603759766
 20
-112.5
 40
72.5
 50
5.47796368605926
 51
174.5220566908227
  0
CIRCLE
  8
0
  6
CONTINUOUS
 62
     7
 10
-207.9012603759766
 20
-112.5
 40
50
  0
CIRCLE
  8
0
  6
CONTINUOUS
 62
     7
 10
-207.9012603759766
 20
-112.5
 40
37.5
  0
ARC
  8
0
  6
CONTINUOUS
 62
     7
 10
-252.4012603759766
 20
-227.5
 40
3.000000000000006
 50
89.99998201391043
 51
179.9999640278214
  0
ARC
  8
0
  6
CONTINUOUS
 62
     7
 10
-163.4012603759766
 20
-227.5
 40
3
 50
0
 51
89.99998201391043
  0
ARC
  8
0
  6
CONTINUOUS
 62
     7
 10
-148.3867950439453
 20
-206.5
 40
4.99999999999999
 50
199.99986805073
 51
270.0000179860893
  0
ARC
  8
0
  6
CONTINUOUS
 62
     7
 10
-168.5969390869141
 20
-150.9730224609375
 40
5.00000000000001
 50
135.6122858195792
 51
200.0000146724258
  0
ARC
  8
0
  6
CONTINUOUS
 62
     7
 10
-183.7670440673828
 20
-161.9220581054688
 40
5.000000000000004
 50
19.9998833049701
 51
116.0277702237
  0
ARC
  8
0
  6
CONTINUOUS
 62
     7
 10
-155.0811920166016
 20
-97.16903686523438
 40
5.000000000000008
 50
196.1852893615477
 51
270.0000179860893
  0
ARC
  8
0
  6
CONTINUOUS
 62
     7
 10
-140.4727935791016
 20
-107.1690368652344
 40
5.000000000000005
 50
8.192292815053371
 51
89.99998201391064
  0
ARC
  8
0
  6
CONTINUOUS
 62
     7
 10
-144.5703887939453
 20
-127.8309631347656
 40
5.000000000000005
 50
8.192292815053371
 51
89.99998201391064
  0
ARC
  8
0
  6
CONTINUOUS
 62
     7
 10
-155.0811920166016
 20
-127.8309631347656
 40
5.000000000000004
 50
89.99998201391064
 51
163.8147106384523
  0
ARC
  8
0
  6
CONTINUOUS
 62
     7
 10
-133.2448272705078
 20
-206.5
 40
4.99999999999999
 50
270.0000179860893
 51
8.192243296181793
  0
ARC
  8
0
  6
CONTINUOUS
 62
     7
 10
-232.0354766845703
 20
-161.9220581054688
 40
5.000000000000005
 50
63.97219380412146
 51
160.0000773077568
  0
ARC
  8
0
  6
CONTINUOUS
 62
     7
 10
-247.2055816650391
 20
-150.9730224609375
 40
5.000000000000009
 50
339.9999493553955
 51
44.38767820824182
  0
ARC
  8
0
  6
CONTINUOUS
 62
     7
 10
-267.4157104492188
 20
-206.5
 40
5
 50
269.9999633445757
 51
340.0001132799354
  0
ARC
  8
0
  6
CONTINUOUS
 62
     7
 10
-282.5576782226563
 20
-206.5
 40
5.000000000000016
 50
171.8077258542813
 51
269.9999460417322
  0
ARC
  8
0
  6
CONTINUOUS
 62
     7
 10
-271.2321166992188
 20
-127.8309631347656
 40
5.000000000000004
 50
89.99998201391097
 51
171.8076712127679
  0
ARC
  8
0
  6
CONTINUOUS
 62
     7
 10
-260.7213134765625
 20
-127.8309631347656
 40
4.999999999999992
 50
16.18525338936918
 51
89.99998201391097
  0
ARC
  8
0
  6
CONTINUOUS
 62
     7
 10
-260.7213134765625
 20
-97.16903686523438
 40
5
 50
269.9999633445757
 51
343.8146919691176
  0
ARC
  8
0
  6
CONTINUOUS
 62
     7
 10
-275.3297119140625
 20
-107.1690368652344
 40
5.000000000000004
 50
89.99998201391097
 51
171.8076712127679
  0
ARC
  8
0
  6
CONTINUOUS
 62
     3
 10
-207.9012603759766
 20
-112.5
 40
64
 50
23.4391260237869
 51
36.55076696589359
  0
ARC
  8
0
  6
CONTINUOUS
 62
     3
 10
-207.9012603759766
 20
-112.5
 40
64
 50
83.439127693439
 51
96.55076863554569
  0
ARC
  8
0
  6
CONTINUOUS
 62
     3
 10
-207.9012603759766
 20
-112.5
 40
63.99999999999999
 50
143.4391225329019
 51
156.5507634750086
  0
ARC
  8
0
  6
CONTINUOUS
 62
     3
 10
-207.9012603759766
 20
-112.5
 40
64
 50
203.4391415053981
 51
216.5507824475048
  0
ARC
  8
0
  6
CONTINUOUS
 62
     3
 10
-207.9012603759766
 20
-112.5
 40
64
 50
263.439136344861
 51
276.5507772869677
  0
ARC
  8
0
  6
CONTINUOUS
 62
     3
 10
-207.9012603759766
 20
-112.5
 40
64
 50
323.439131184324
 51
336.5507721264306
  0
ARC
  8
0
  6
CONTINUOUS
 62
     7
 10
-207.9012603759766
 20
-112.5
 40
13.99999999999999
 50
106.6015627539487
 51
73.39845227292034
  0
ARC
  8
0
  6
CONTINUOUS
 62
     7
 10
-207.9012603759766
 20
-112.5
 40
75.00000000000001
 50
143.107803716643
 51
156.8920270466992
  0
ARC
  8
0
  6
CONTINUOUS
 62
     7
 10
-207.9012603759766
 20
-112.5
 40
74.99999999999997
 50
163.9426674023632
 51
170.0571210492504
  0
ARC
  8
0
  6
CONTINUOUS
 62
     7
 10
-207.9012603759766
 20
-112.5
 40
75.00000000000001
 50
176.9426620722969
 51
183.0571293795624
  0
ARC
  8
0
  6
CONTINUOUS
 62
     7
 10
-207.9012603759766
 20
-112.5
 40
75
 50
129.9428189971185
 51
136.057286304384
  0
ARC
  8
0
  6
CONTINUOUS
 62
     7
 10
-207.9012603759766
 20
-112.5
 40
75
 50
116.9428106668065
 51
123.057277974072
  0
ARC
  8
0
  6
CONTINUOUS
 62
     7
 10
-207.9012603759766
 20
-112.5
 40
75
 50
103.9428023364945
 51
110.05726964376
  0
ARC
  8
0
  6
CONTINUOUS
 62
     7
 10
-207.9012603759766
 20
-112.5
 40
75
 50
356.9426980444755
 51
3.057165351741017
  0
ARC
  8
0
  6
CONTINUOUS
 62
     7
 10
-207.9012603759766
 20
-112.5
 40
74.99999999999999
 50
9.942706374787564
 51
16.05716002167467
  0
ARC
  8
0
  6
CONTINUOUS
 62
     7
 10
-207.9012603759766
 20
-112.5
 40
75.00000000000001
 50
23.10780037733876
 51
96.89213466007378
  0
ARC
  8
0
  6
CONTINUOUS
 62
     7
 10
-215.3487701416016
 20
-34.1021728515625
 40
0.9999999999999987
 50
20.0000130785643
 51
82.33288293470682
  0
ARC
  8
0
  6
CONTINUOUS
 62
     7
 10
-226.0735626220703
 20
-9.4398193359375
 40
3.150000095367426
 50
9.999999709092926
 51
189.9999620293669
  0
ARC
  8
0
  6
CONTINUOUS
 62
     7
 10
-217.0984039306641
 20
-36.4415283203125
 40
0.999999999999986
 50
189.999979332211
 51
280.0000159876346
  0
ARC
  8
0
  6
CONTINUOUS
 62
     7
 10
-225.2722930908203
 20
-37.8828125
 40
0.9999999999999978
 50
279.9999613461212
 51
9.999999709092924
  0
ARC
  8
0
  6
CONTINUOUS
 62
     7
 10
-227.7165069580078
 20
-36.282958984375
 40
0.9999999999999956
 50
117.667083926394
 51
179.9999503674428
  0
ARC
  8
0
  6
CONTINUOUS
 62
     7
 10
-207.9012603759766
 20
-112.5
 40
100
 50
324.6611544796768
 51
98.19489762160529
  0
ARC
  8
0
  6
CONTINUOUS
 62
     7
 10
-207.9012603759766
 20
-112.5
 40
100
 50
101.8051170508206
 51
215.3388163783337
  0
ARC
  8
0
  6
CONTINUOUS
 62
     7
 10
215.0987396240234
 20
-66.5
 40
5
 50
179.999991348578
 51
270.0000006832453
  0
ARC
  8
0
  6
CONTINUOUS
 62
     7
 10
245.0987396240234
 20
-66.5
 40
5.000000000000004
 50
269.9999974955218
 51
0
  0
ARC
  8
0
  6
CONTINUOUS
 62
     7
 10
215.0987396240234
 20
-158.5
 40
5.000000000000004
 50
90.00000250447815
 51
180.0000050089563
  0
ARC
  8
0
  6
CONTINUOUS
 62
     7
 10
245.0987396240234
 20
-158.5
 40
5
 50
0
 51
90.00000250447815
  0
ARC
  8
0
  6
CONTINUOUS
 62
     7
 10
215.0555267333984
 20
-38.994873046875
 40
3.999999999999994
 50
126.0864395502159
 51
188.5540383028319
  0
ARC
  8
0
  6
CONTINUOUS
 62
     7
 10
203.0987396240234
 20
-22.58984375
 40
16.29999923706054
 50
306.086414050692
 51
233.91354314694
  0
CIRCLE
  8
0
  6
CONTINUOUS
 62
     7
 10
203.0987396240234
 20
-22.58984375
 40
10
  0
ARC
  8
0
  6
CONTINUOUS
 62
     7
 10
197.6585540771484
 20
-36.58984375
 40
1.999999999999999
 50
89.99998201391097
 51
170.0000206677891
  0
ARC
  8
0
  6
CONTINUOUS
 62
     7
 10
208.5389251708984
 20
-36.58984375
 40
2.000000000000004
 50
10.00000397796112
 51
89.99998201391097
  0
ARC
  8
0
  6
CONTINUOUS
 62
     7
 10
191.1419525146484
 20
-38.994873046875
 40
3.999999999999995
 50
351.4459282863103
 51
53.91357911911859
  0
ARC
  8
0
  6
CONTINUOUS
 62
     7
 10
215.0988006591797
 20
183.5
 40
5
 50
179.999991348578
 51
270.0000006832453
  0
ARC
  8
0
  6
CONTINUOUS
 62
     7
 10
245.0988006591797
 20
183.5
 40
5.000000000000004
 50
269.9999974955218
 51
0
  0
ARC
  8
0
  6
CONTINUOUS
 62
     7
 10
215.0988006591797
 20
91.5
 40
5.000000000000004
 50
90.00000250447815
 51
180.0000050089563
  0
ARC
  8
0
  6
CONTINUOUS
 62
     7
 10
245.0988006591797
 20
91.5
 40
5
 50
0
 51
90.00000250447815
  0
POLYLINE
  8
0
  6
CONTINUOUS
 62
     7
 66
     1
 10
0
 20
0
  0
VERTEX
  8
0
  6
CONTINUOUS
 62
     7
 10
214.6371307373047
 20
149.2392578125
 42
0.01902146622956596
  0
VERTEX
  8
0
  6
CONTINUOUS
 62
     7
 10
215.379029488349
 20
149.4434681989675
 42
0.0104803666169585
  0
VERTEX
  8
0
  6
CONTINUOUS
 62
     7
 10
216.1076933170789
 20
149.6911952580453
 42
0.005839354613840477
  0
VERTEX
  8
0
  6
CONTINUOUS
 62
     7
 10
216.8292992442308
 20
149.9598396413656
 42
0.02971924920648281
  0
VERTEX
  8
0
  6
CONTINUOUS
 62
     7
 10
217.53013107898
 20
150.2770007641531
 42
0.05877631418426773
  0
VERTEX
  8
0
  6
CONTINUOUS
 62
     7
 10
218.1632425008715
 20
150.7113713541877
 42
0.053841396593356
  0
VERTEX
  8
0
  6
CONTINUOUS
 62
     7
 10
218.6747101165018
 20
151.284542871191
 42
0.0481213810369996
  0
VERTEX
  8
0
  6
CONTINUOUS
 62
     7
 10
219.0676276675514
 20
151.9458676937364
 42
0.05488166665015779
  0
VERTEX
  8
0
  6
CONTINUOUS
 62
     7
 10
219.3131143724318
 20
152.6735373054917
 42
0.05415929437780965
  0
VERTEX
  8
0
  6
CONTINUOUS
 62
     7
 10
219.3964080810547
 20
153.436767578125
 42
0.05421304940319276
  0
VERTEX
  8
0
  6
CONTINUOUS
 62
     7
 10
219.3129836669702
 20
154.2003476759139
 42
0.05489568489038194
  0
VERTEX
  8
0
  6
CONTINUOUS
 62
     7
 10
219.0673008239547
 20
154.9281253765758
 42
0.04804076410466812
  0
VERTEX
  8
0
  6
CONTINUOUS
 62
     7
 10
218.6749690495674
 20
155.5883929426248
 42
0.05381899032950474
  0
VERTEX
  8
0
  6
CONTINUOUS
 62
     7
 10
218.163402491971
 20
156.1620143657065
 42
0.058784043457123
  0
VERTEX
  8
0
  6
CONTINUOUS
 62
     7
 10
217.5302945389313
 20
156.5964521861251
 42
0.02971392343429479
  0
VERTEX
  8
0
  6
CONTINUOUS
 62
     7
 10
216.829791427317
 20
156.9135116820786
 42
0.005857536912092123
  0
VERTEX
  8
0
  6
CONTINUOUS
 62
     7
 10
216.1084065532158
 20
157.1821103102123
 42
0.01049959459113001
  0
VERTEX
  8
0
  6
CONTINUOUS
 62
     7
 10
215.3794210181948
 20
157.4298856757461
 42
0.0189855993614742
  0
VERTEX
  8
0
  6
CONTINUOUS
 62
     7
 10
214.6376190185547
 20
157.634033203125
 42
0
  0
SEQEND
  8
0
  0
POLYLINE
  8
0
  6
CONTINUOUS
 62
     7
 66
     1
 10
0
 20
0
  0
VERTEX
  8
0
  6
CONTINUOUS
 62
     7
 10
189.9486541748047
 20
150.33447265625
 42
0.1945672265755102
  0
VERTEX
  8
0
  6
CONTINUOUS
 62
     7
 10
192.8908405869944
 20
148.8950679230486
 42
0.02554288674069265
  0
VERTEX
  8
0
  6
CONTINUOUS
 62
     7
 10
196.2694639684277
 20
148.3832864520149
 42
0.01446680416667516
  0
VERTEX
  8
0
  6
CONTINUOUS
 62
     7
 10
199.6788779811152
 20
148.1298252778033
 42
0.0116285275822172
  0
VERTEX
  8
0
  6
CONTINUOUS
 62
     7
 10
203.0988006591797
 20
148.05126953125
 42
0.01162216241365702
  0
VERTEX
  8
0
  6
CONTINUOUS
 62
     7
 10
206.5169175138429
 20
148.1297409761288
 42
0.01447018319482189
  0
VERTEX
  8
0
  6
CONTINUOUS
 62
     7
 10
209.9274368042611
 20
148.3832187574091
 42
0.02555924876821722
  0
VERTEX
  8
0
  6
CONTINUOUS
 62
     7
 10
213.3077874250826
 20
148.8953180202047
 42
0.1953275025858066
  0
VERTEX
  8
0
  6
CONTINUOUS
 62
     7
 10
216.2486962262416
 20
150.3367909417884
 42
0.1938572497876961
  0
VERTEX
  8
0
  6
CONTINUOUS
 62
     7
 10
213.3043307051833
 20
151.7745618185166
 42
0.02553281135329686
  0
VERTEX
  8
0
  6
CONTINUOUS
 62
     7
 10
209.9256907263096
 20
152.2862623516734
 42
0.0144679573017957
  0
VERTEX
  8
0
  6
CONTINUOUS
 62
     7
 10
206.5162727182762
 20
152.539685713996
 42
0.01162480404299949
  0
VERTEX
  8
0
  6
CONTINUOUS
 62
     7
 10
203.0988006591797
 20
152.6181640625
 42
0.01162704613699042
  0
VERTEX
  8
0
  6
CONTINUOUS
 62
     7
 10
199.6806848925933
 20
152.5396572058479
 42
0.0144737106791926
  0
VERTEX
  8
0
  6
CONTINUOUS
 62
     7
 10
196.2701730825758
 20
152.2860871294583
 42
0.02556067450977189
  0
VERTEX
  8
0
  6
CONTINUOUS
 62
     7
 10
192.8898423155333
 20
151.7738606967848
 42
0.1951803014309535
  0
VERTEX
  8
0
  6
CONTINUOUS
 62
     7
 10
189.948658441303
 20
150.332633210119
 42
0
  0
SEQEND
  8
0
  0
POLYLINE
  8
0
  6
CONTINUOUS
 62
     7
 66
     1
 10
0
 20
0
  0
VERTEX
  8
0
  6
CONTINUOUS
 62
     7
 10
195.3607027178703
 20
148.4854546521817
 42
0.04188613022365473
  0
VERTEX
  8
0
  6
CONTINUOUS
 62
     7
 10
195.8008323406864
 20
147.2574652059013
 42
0.04165468219605001
  0
VERTEX
  8
0
  6
CONTINUOUS
 62
     7
 10
196.4390733236278
 20
146.1195237150533
 42
0.04136408119844437
  0
VERTEX
  8
0
  6
CONTINUOUS
 62
     7
 10
197.2565228224032
 20
145.1026473613256
 42
0.04106062826738596
  0
VERTEX
  8
0
  6
CONTINUOUS
 62
     7
 10
198.2298266541329
 20
144.2334846759148
 42
0.04077373210746082
  0
VERTEX
  8
0
  6
CONTINUOUS
 62
     7
 10
199.3318968288949
 20
143.5342767350566
 42
0.04052967900161326
  0
VERTEX
  8
0
  6
CONTINUOUS
 62
     7
 10
200.5327592762011
 20
143.0225028720043
 42
0.04034890219002557
  0
VERTEX
  8
0
  6
CONTINUOUS
 62
     7
 10
201.8003430322836
 20
142.7106730164315
 42
0.04023730416242777
  0
VERTEX
  8
0
  6
CONTINUOUS
 62
     7
 10
203.1009789061085
 20
142.6062014636047
 42
0.04023045196246818
  0
VERTEX
  8
0
  6
CONTINUOUS
 62
     7
 10
204.4013332016719
 20
142.7113338927849
 42
0.04031713967841965
  0
VERTEX
  8
0
  6
CONTINUOUS
 62
     7
 10
205.6677706919775
 20
143.0234797942068
 42
0.04051233780469297
  0
VERTEX
  8
0
  6
CONTINUOUS
 62
     7
 10
206.8679286397972
 20
143.5354458574177
 42
0.04075999998136944
  0
VERTEX
  8
0
  6
CONTINUOUS
 62
     7
 10
207.9694160487039
 20
144.2347246872528
 42
0.04105956262824564
  0
VERTEX
  8
0
  6
CONTINUOUS
 62
     7
 10
208.9424612152866
 20
145.1041035175157
 42
0.04137676030971035
  0
VERTEX
  8
0
  6
CONTINUOUS
 62
     7
 10
209.7598669903922
 20
146.1215061033442
 42
0.04167427534092049
  0
VERTEX
  8
0
  6
CONTINUOUS
 62
     7
 10
210.3980082908182
 20
147.2601855736797
 42
0.04191528628124318
  0
VERTEX
  8
0
  6
CONTINUOUS
 62
     7
 10
210.8378966849195
 20
148.489206351124
 42
0
  0
SEQEND
  8
0
  0
POLYLINE
  8
0
  6
CONTINUOUS
 62
     7
 66
     1
 10
0
 20
0
  0
VERTEX
  8
0
  6
CONTINUOUS
 62
     7
 10
214.6504232317084
 20
157.6299021111126
 42
0.02483087067150518
  0
VERTEX
  8
0
  6
CONTINUOUS
 62
     7
 10
213.2420334961191
 20
157.9920213273689
 42
0.01364876553542907
  0
VERTEX
  8
0
  6
CONTINUOUS
 62
     7
 10
211.810188448606
 20
158.2493294867404
 42
0.00938295906446018
  0
VERTEX
  8
0
  6
CONTINUOUS
 62
     7
 10
210.3679019252695
 20
158.4416680351335
 42
0.007275504699664028
  0
VERTEX
  8
0
  6
CONTINUOUS
 62
     7
 10
208.9195067839932
 20
158.5863828200516
 42
0.006095727122747323
  0
VERTEX
  8
0
  6
CONTINUOUS
 62
     7
 10
207.4675114599035
 20
158.6925679874113
 42
0.005403454110805892
  0
VERTEX
  8
0
  6
CONTINUOUS
 62
     7
 10
206.0134417343216
 20
158.7654694969538
 42
0.005011303809739982
  0
VERTEX
  8
0
  6
CONTINUOUS
 62
     7
 10
204.5580543404995
 20
158.8081623141585
 42
0.004832092236359171
  0
VERTEX
  8
0
  6
CONTINUOUS
 62
     7
 10
203.1021297573808
 20
158.8222655513225
 42
0.004831326620329758
  0
VERTEX
  8
0
  6
CONTINUOUS
 62
     7
 10
201.6463095168924
 20
158.808293577213
 42
0.005006440239907378
  0
VERTEX
  8
0
  6
CONTINUOUS
 62
     7
 10
200.1919126615327
 20
158.7657762664681
 42
0.005400831365542194
  0
VERTEX
  8
0
  6
CONTINUOUS
 62
     7
 10
198.7377554504701
 20
158.6930389901719
 42
0.006091070722162232
  0
VERTEX
  8
0
  6
CONTINUOUS
 62
     7
 10
197.2856812677589
 20
158.5870378310955
 42
0.007269742893859342
  0
VERTEX
  8
0
  6
CONTINUOUS
 62
     7
 10
195.8367901557862
 20
158.442493956358
 42
0.009378608205142643
  0
VERTEX
  8
0
  6
CONTINUOUS
 62
     7
 10
194.3930746584738
 20
158.2502158163429
 42
0.01364198818419282
  0
VERTEX
  8
0
  6
CONTINUOUS
 62
     7
 10
192.9595601774159
 20
157.9928921835231
 42
0.02480786719446777
  0
VERTEX
  8
0
  6
CONTINUOUS
 62
     7
 10
191.549663119695
 20
157.6307548239058
 42
0
  0
SEQEND
  8
0
  0
POLYLINE
  8
0
  6
CONTINUOUS
 62
     7
 66
     1
 10
0
 20
0
  0
VERTEX
  8
0
  6
CONTINUOUS
 62
     7
 10
191.5604705810547
 20
149.2392578125
 42
-0.01902135150947303
  0
VERTEX
  8
0
  6
CONTINUOUS
 62
     7
 10
190.81857183307
 20
149.443468218438
 42
-0.01048041611078096
  0
VERTEX
  8
0
  6
CONTINUOUS
 62
     7
 10
190.0899079785704
 20
149.6911952002693
 42
-0.005839305254995372
  0
VERTEX
  8
0
  6
CONTINUOUS
 62
     7
 10
189.3683020907042
 20
149.9598396857792
 42
-0.02971922528833647
  0
VERTEX
  8
0
  6
CONTINUOUS
 62
     7
 10
188.66747021511
 20
150.2770007203053
 42
-0.05877643786944859
  0
VERTEX
  8
0
  6
CONTINUOUS
 62
     7
 10
188.0343588295857
 20
150.7113713689741
 42
-0.05384142346766816
  0
VERTEX
  8
0
  6
CONTINUOUS
 62
     7
 10
187.522891193713
 20
151.2845428665689
 42
-0.0481213285445095
  0
VERTEX
  8
0
  6
CONTINUOUS
 62
     7
 10
187.129973629249
 20
151.9458676850656
 42
-0.05488158376500103
  0
VERTEX
  8
0
  6
CONTINUOUS
 62
     7
 10
186.8844869278704
 20
152.6735373180152
 42
-0.0541592596260316
  0
VERTEX
  8
0
  6
CONTINUOUS
 62
     7
 10
186.8011932373047
 20
153.436767578125
 42
-0.05421308352559352
  0
VERTEX
  8
0
  6
CONTINUOUS
 62
     7
 10
186.8846176666289
 20
154.2003476752825
 42
-0.05489577001720333
  0
VERTEX
  8
0
  6
CONTINUOUS
 62
     7
 10
187.1303005211116
 20
154.9281253787501
 42
-0.0480408167904356
  0
VERTEX
  8
0
  6
CONTINUOUS
 62
     7
 10
187.5226322868135
 20
155.5883929517747
 42
-0.05381896387332789
  0
VERTEX
  8
0
  6
CONTINUOUS
 62
     7
 10
188.0341988292058
 20
156.162014393793
 42
-0.05878391963620683
  0
VERTEX
  8
0
  6
CONTINUOUS
 62
     7
 10
188.6673068306347
 20
156.5964521567853
 42
-0.02971394611141634
  0
VERTEX
  8
0
  6
CONTINUOUS
 62
     7
 10
189.3678098965061
 20
156.9135117351588
 42
-0.005857585779996171
  0
VERTEX
  8
0
  6
CONTINUOUS
 62
     7
 10
190.0891948072892
 20
157.182110259438
 42
-0.01049954523273018
  0
VERTEX
  8
0
  6
CONTINUOUS
 62
     7
 10
190.8181803112234
 20
157.4298856996735
 42
-0.01898571376137074
  0
VERTEX
  8
0
  6
CONTINUOUS
 62
     7
 10
191.5599822998047
 20
157.634033203125
 42
0
  0
SEQEND
  8
0
  0
TEXT
  8
0
  6
CONTINUOUS
 62
     7
 10
-295.3298301696777
 20
128.5
 40
18
 41
0.8444757469838271
  1
ＥＲＫ－Ｂ－１５００
  0
ENDSEC
  0
EOF
