  0
SECTION
  2
HEADER
  0
ENDSEC
  0
SECTION
  2
TABLES
  0
TABLE
  2
LTYPE
 70
    22
  0
LTYPE
  2
CONTINUOUS
 70
    64
  3
Solid line
 72
    65
 73
     0
 40
0.000000
  0
LTYPE
  2
DASHED
 70
    64
  3
__ __ __ __ __ __ __ __ __ __ __ __ __ __ __
 72
    65
 73
     2
 40
3.500000
 49
2.000000
 49
-1.500000
  0
LTYPE
  2
CENTER
 70
    64
  3
____ _ ____ _ ____ _ ____ _ ____ _ ____ _ ____
 72
    65
 73
     4
 40
17.500000
 49
13.000000
 49
-1.500000
 49
1.500000
 49
-1.500000
  0
LTYPE
  2
PHANTOM
 70
    64
  3
_____ _ _ _____ _ _ _____ _ _ _____ _ _ ____  
 72
    65
 73
     6
 40
15.500000
 49
8.000000
 49
-1.500000
 49
1.500000
 49
-1.500000
 49
1.500000
 49
-1.500000
  0
LTYPE
  2
DOT
 70
    64
  3
. . . . . . . . . . . . . . . . . . . . . . . .
 72
    65
 73
     2
 40
0.25
 49
0.0
 49
-0.25
  0
ENDTAB
  0
TABLE
  2
LAYER
 70
     1
  0
LAYER
  2
0
 70
     0
 62
     7
  6
CONTINUOUS
  0
ENDTAB
  0
TABLE
  2
STYLE
 70
     1
  0
STYLE
  2
STANDARD
 70
     0
 40
0.000000
 41
1.000000
 50
0.000000
 71
     0
 42
0.200000
  3
txt
  0
ENDTAB
  0
TABLE
  2
VIEW
 70
     0
  0
ENDTAB
  0
ENDSEC
  0
SECTION
  2
BLOCKS
  0
BLOCK
  8
0
  6
CONTINUOUS
 62
     7
  2
KOZU1
 70
    64
 10
0
 20
0
  0
POINT
  8
0
  6
CONTINUOUS
 62
     7
 10
98.5
 20
-143.5
  0
POINT
  8
0
  6
CONTINUOUS
 62
     7
 10
-99.5
 20
-143.5
  0
POINT
  8
0
  6
CONTINUOUS
 62
     7
 10
98.5
 20
143.5
  0
POINT
  8
0
  6
CONTINUOUS
 62
     7
 10
-99.5
 20
143.5
  0
LINE
  8
0
  6
CONTINUOUS
 62
     7
 10
-99.5
 20
-143.5
 11
98.5
 21
-143.5
  0
LINE
  8
0
  6
CONTINUOUS
 62
     7
 10
98.5
 20
143.5
 11
98.5
 21
-143.5
  0
LINE
  8
0
  6
CONTINUOUS
 62
     7
 10
-99.5
 20
143.5
 11
-99.5
 21
-143.5
  0
LINE
  8
0
  6
CONTINUOUS
 62
     7
 10
-99.5
 20
143.5
 11
98.5
 21
143.5
  0
ENDBLK
  8
0
  0
ENDSEC
  0
SECTION
  2
ENTITIES
  0
LINE
  8
0
  6
CONTINUOUS
 62
     3
 10
187.2955322265625
 20
-300
 11
454.9819641113281
 21
-300
  0
LINE
  8
0
  6
CONTINUOUS
 62
     7
 10
369.5
 20
-226.5
 11
369.5
 21
-373.5
  0
LINE
  8
0
  6
CONTINUOUS
 62
     7
 10
339.5
 20
-227.5
 11
339.5
 21
-242.5
  0
LINE
  8
0
  6
CONTINUOUS
 62
     7
 10
359.5
 20
-227.5
 11
359.5
 21
-372.5
  0
LINE
  8
0
  6
CONTINUOUS
 62
     7
 10
359.5
 20
-227.5
 11
369.5
 21
-227.5
  0
LINE
  8
0
  6
CONTINUOUS
 62
     7
 10
359.5
 20
-372.5
 11
369.5
 21
-372.5
  0
LINE
  8
0
  6
CONTINUOUS
 62
     7
 10
339.5
 20
-247.5
 11
354.5
 21
-247.5
  0
LINE
  8
0
  6
CONTINUOUS
 62
     7
 10
339.5
 20
-352.5
 11
354.5
 21
-352.5
  0
LINE
  8
0
  6
CONTINUOUS
 62
     7
 10
334.5
 20
-230.4266357421875
 11
334.5
 21
-359.8395080566406
  0
LINE
  8
0
  6
CONTINUOUS
 62
     7
 10
339.5
 20
-357.5
 11
339.5
 21
-370.9423217773438
  0
LINE
  8
0
  6
CONTINUOUS
 62
     7
 10
334.5
 20
-230.4266357421875
 11
339.5
 21
-230.4266357421875
  0
LINE
  8
0
  6
CONTINUOUS
 62
     7
 10
324.5
 20
-227.5
 11
340.5
 21
-227.5
  0
LINE
  8
0
  6
CONTINUOUS
 62
     7
 10
325.3667907714844
 20
-221.6702270507812
 11
324.5
 21
-226.6106719970703
  0
LINE
  8
0
  6
CONTINUOUS
 62
     7
 10
339.6332092285156
 20
-221.6702270507812
 11
340.5
 21
-226.6107025146484
  0
LINE
  8
0
  6
CONTINUOUS
 62
     7
 10
332.5
 20
-219.7381896972656
 11
326.94384765625
 21
-220.9320526123047
  0
LINE
  8
0
  6
CONTINUOUS
 62
     7
 10
332.5
 20
-219.7381744384766
 11
338.0560302734375
 21
-220.9320220947266
  0
LINE
  8
0
  6
CONTINUOUS
 62
     7
 10
340.5
 20
-226.6106872558594
 11
340.5
 21
-227.5
  0
LINE
  8
0
  6
DASHED
 62
     7
 10
361
 20
-374
 11
361
 21
-390
  0
LINE
  8
0
  6
CONTINUOUS
 62
     7
 10
324.5
 20
-226.5
 11
324.5
 21
-322.5189208984375
  0
LINE
  8
0
  6
CONTINUOUS
 62
     7
 10
370
 20
-374
 11
370
 21
-390
  0
LINE
  8
0
  6
CONTINUOUS
 62
     7
 10
302
 20
-226.5
 11
324.5
 21
-226.5
  0
LINE
  8
0
  6
CONTINUOUS
 62
     7
 10
302
 20
-226.5
 11
302
 21
-295
  0
LINE
  8
0
  6
CONTINUOUS
 62
     7
 10
250
 20
-374
 11
250
 21
-390
  0
LINE
  8
0
  6
CONTINUOUS
 62
     7
 10
250
 20
-390
 11
370
 21
-390
  0
LINE
  8
0
  6
CONTINUOUS
 62
     7
 10
250
 20
-374
 11
276.8746948242187
 21
-374
  0
LINE
  8
0
  6
CONTINUOUS
 62
     7
 10
253
 20
-329.0033874511719
 11
253
 21
-374
  0
LINE
  8
0
  6
CONTINUOUS
 62
     7
 10
241
 20
-336
 11
253
 21
-336
  0
LINE
  8
0
  6
CONTINUOUS
 62
     7
 10
241
 20
-264
 11
257.4312438964844
 21
-264
  0
LINE
  8
0
  6
CONTINUOUS
 62
     7
 10
234
 20
-274.5
 11
234
 21
-325.5
  0
LINE
  8
0
  6
CONTINUOUS
 62
     7
 10
233.9999389648438
 20
-274.4998474121094
 11
240.9999542236328
 21
-270.4584045410156
  0
LINE
  8
0
  6
CONTINUOUS
 62
     7
 10
234
 20
-325.5000610351562
 11
241.0000152587891
 21
-329.54150390625
  0
LINE
  8
0
  6
CONTINUOUS
 62
     7
 10
292
 20
-227.5
 11
292
 21
-284.1139526367188
  0
LINE
  8
0
  6
CONTINUOUS
 62
     7
 10
292
 20
-227.5
 11
302
 21
-227.5
  0
LINE
  8
0
  6
CONTINUOUS
 62
     7
 10
277
 20
-248
 11
292
 21
-248
  0
LINE
  8
0
  6
CONTINUOUS
 62
     7
 10
277
 20
-248
 11
277
 21
-335.3291931152344
  0
LINE
  8
0
  6
CONTINUOUS
 62
     7
 10
254.4833679199219
 20
-275.626953125
 11
277.0000305175781
 21
-266.4287109375
  0
LINE
  8
0
  6
CONTINUOUS
 62
     7
 10
277.0001220703125
 20
-285.875244140625
 11
254.4834747314453
 21
-289.2420349121094
  0
LINE
  8
0
  6
CONTINUOUS
 62
     7
 10
277.0000305175781
 20
-314.1251220703125
 11
254.4833831787109
 21
-310.75830078125
  0
LINE
  8
0
  6
CONTINUOUS
 62
     7
 10
252
 20
-257.5
 11
269.0793151855469
 21
-257.5
  0
LINE
  8
0
  6
CONTINUOUS
 62
     7
 10
252
 20
-257.5
 11
252
 21
-264
  0
LINE
  8
0
  6
CONTINUOUS
 62
     7
 10
253
 20
-324.0033874511719
 11
264.4833374023437
 21
-324.0033874511719
  0
LINE
  8
0
  6
CONTINUOUS
 62
     7
 10
277
 20
-335.3291931152344
 11
287.8888854980469
 21
-335.3291931152344
  0
LINE
  8
0
  6
CONTINUOUS
 62
     7
 10
264.4833984375
 20
-324.0033264160156
 11
277.0000610351563
 21
-335.3291320800781
  0
LINE
  8
0
  6
CONTINUOUS
 62
     7
 10
295
 20
-295
 11
302
 21
-295
  0
LINE
  8
0
  6
CONTINUOUS
 62
     7
 10
281.7987976074219
 20
-369.8682556152344
 11
295.0000915527344
 21
-295
  0
LINE
  8
0
  6
CONTINUOUS
 62
     7
 10
317
 20
-310
 11
321.1455383300781
 21
-310
  0
LINE
  8
0
  6
CONTINUOUS
 62
     7
 10
292
 20
-284.1139526367188
 11
295
 21
-284.1139526367188
  0
LINE
  8
0
  6
CONTINUOUS
 62
     7
 10
321.1455383300781
 20
-309.9999694824219
 11
335.9111022949219
 21
-365.1058349609375
  0
LINE
  8
0
  6
CONTINUOUS
 62
     3
 10
265
 20
-369.9278564453125
 11
265
 21
-393.29345703125
  0
LINE
  8
0
  6
CONTINUOUS
 62
     7
 10
254.4834747314453
 20
-265.645263671875
 11
277.0001220703125
 21
-253.0802154541016
  0
LINE
  8
0
  6
CONTINUOUS
 62
     7
 10
241
 20
-264
 11
241
 21
-336
  0
LINE
  8
0
  6
CONTINUOUS
 62
     7
 10
273.7417297363281
 20
-290.567138671875
 11
261.0675048828125
 21
-292.0546875
  0
LINE
  8
0
  6
CONTINUOUS
 62
     7
 10
261.1930847167969
 20
-307.9592590332031
 11
273.7416381835937
 21
-309.4341125488281
  0
LINE
  8
0
  6
CONTINUOUS
 62
     7
 10
200
 20
-286.5
 11
200
 21
-311
  0
LINE
  8
0
  6
CONTINUOUS
 62
     7
 10
200
 20
-289
 11
230
 21
-289
  0
LINE
  8
0
  6
CONTINUOUS
 62
     7
 10
200
 20
-311
 11
230
 21
-311
  0
LINE
  8
0
  6
CONTINUOUS
 62
     7
 10
230
 20
-285
 11
230
 21
-315
  0
LINE
  8
0
  6
CONTINUOUS
 62
     7
 10
230
 20
-315
 11
234
 21
-315
  0
LINE
  8
0
  6
CONTINUOUS
 62
     7
 10
230
 20
-285
 11
234
 21
-285
  0
LINE
  8
0
  6
CONTINUOUS
 62
     7
 10
200
 20
-286.5
 11
225
 21
-286.5
  0
LINE
  8
0
  6
CONTINUOUS
 62
     7
 10
225
 20
-286.5
 11
225
 21
-289
  0
LINE
  8
0
  6
DASHED
 62
     7
 10
271
 20
-374
 11
271
 21
-390
  0
LINE
  8
0
  6
DASHED
 62
     7
 10
259
 20
-374
 11
259
 21
-390
  0
LINE
  8
0
  6
CONTINUOUS
 62
     7
 10
295
 20
-284.1139526367188
 11
295
 21
-295
  0
LINE
  8
0
  6
DASHED
 62
     7
 10
349
 20
-374
 11
349
 21
-390
  0
LINE
  8
0
  6
CONTINUOUS
 62
     7
 10
347.502197265625
 20
-374
 11
370
 21
-374
  0
LINE
  8
0
  6
CONTINUOUS
 62
     3
 10
355
 20
-369.9278564453125
 11
355
 21
-393.29345703125
  0
LINE
  8
0
  6
CONTINUOUS
 62
     7
 10
392
 20
-226.5
 11
392
 21
-373.5
  0
LINE
  8
0
  6
CONTINUOUS
 62
     7
 10
369.5
 20
-226.5
 11
392
 21
-226.5
  0
LINE
  8
0
  6
CONTINUOUS
 62
     7
 10
369.5
 20
-373.5
 11
392
 21
-373.5
  0
LINE
  8
0
  6
CONTINUOUS
 62
     7
 10
324.5
 20
73.5
 11
324.5
 21
20.80316162109375
  0
LINE
  8
0
  6
CONTINUOUS
 62
     7
 10
324.5
 20
-72.5
 11
334.5
 21
-72.5
  0
LINE
  8
0
  6
CONTINUOUS
 62
     7
 10
324.5
 20
72.5
 11
334.5
 21
72.5
  0
LINE
  8
0
  6
CONTINUOUS
 62
     7
 10
369.5
 20
73.5
 11
369.5
 21
-73.5
  0
LINE
  8
0
  6
CONTINUOUS
 62
     7
 10
359.5
 20
72.5
 11
359.5
 21
-72.5
  0
LINE
  8
0
  6
CONTINUOUS
 62
     7
 10
359.5
 20
72.5
 11
369.5
 21
72.5
  0
LINE
  8
0
  6
CONTINUOUS
 62
     7
 10
359.5
 20
-72.5
 11
369.5
 21
-72.5
  0
LINE
  8
0
  6
CONTINUOUS
 62
     7
 10
339.5
 20
52.5
 11
354.5
 21
52.5
  0
LINE
  8
0
  6
CONTINUOUS
 62
     7
 10
339.5
 20
-52.5
 11
354.5
 21
-52.5
  0
LINE
  8
0
  6
CONTINUOUS
 62
     7
 10
334.5
 20
72.5
 11
334.5
 21
21.24783325195312
  0
LINE
  8
0
  6
CONTINUOUS
 62
     7
 10
339.5
 20
9.123565673828125
 11
339.5
 21
-20.39105224609375
  0
LINE
  8
0
  6
CONTINUOUS
 62
     7
 10
334.5
 20
-20.39105224609375
 11
339.5
 21
-20.39105224609375
  0
LINE
  8
0
  6
CONTINUOUS
 62
     7
 10
334.5
 20
-20.39105224609375
 11
334.5
 21
-72.5
  0
LINE
  8
0
  6
CONTINUOUS
 62
     3
 10
182.3645782470703
 20
0
 11
454.9819641113281
 21
0
  0
LINE
  8
0
  6
CONTINUOUS
 62
     7
 10
324.5
 20
10.97433471679687
 11
324.5
 21
-73.5
  0
LINE
  8
0
  6
CONTINUOUS
 62
     7
 10
302
 20
73.5
 11
324.5
 21
73.5
  0
LINE
  8
0
  6
CONTINUOUS
 62
     7
 10
302
 20
-73.5
 11
324.5
 21
-73.5
  0
LINE
  8
0
  6
CONTINUOUS
 62
     7
 10
302
 20
79.088134765625
 11
302
 21
-79.088134765625
  0
LINE
  8
0
  6
CONTINUOUS
 62
     7
 10
234
 20
25.5
 11
234
 21
-25.5
  0
LINE
  8
0
  6
CONTINUOUS
 62
     7
 10
255
 20
-87.5
 11
365
 21
-87.5
  0
LINE
  8
0
  6
CONTINUOUS
 62
     7
 10
250
 20
-52.5
 11
250
 21
-82.5
  0
LINE
  8
0
  6
CONTINUOUS
 62
     7
 10
230
 20
15
 11
230
 21
-15
  0
LINE
  8
0
  6
CONTINUOUS
 62
     7
 10
200
 20
11
 11
200
 21
-11
  0
LINE
  8
0
  6
CONTINUOUS
 62
     7
 10
200
 20
11
 11
230
 21
11
  0
LINE
  8
0
  6
CONTINUOUS
 62
     7
 10
200
 20
-11
 11
230
 21
-11
  0
LINE
  8
0
  6
CONTINUOUS
 62
     7
 10
230
 20
-15
 11
234
 21
-15
  0
LINE
  8
0
  6
CONTINUOUS
 62
     7
 10
230
 20
15
 11
234
 21
15
  0
LINE
  8
0
  6
CONTINUOUS
 62
     7
 10
241
 20
36
 11
241
 21
-36
  0
LINE
  8
0
  6
CONTINUOUS
 62
     7
 10
241
 20
36
 11
257.4314575195313
 21
36
  0
LINE
  8
0
  6
CONTINUOUS
 62
     7
 10
241
 20
-36
 11
257.4313354492188
 21
-36
  0
LINE
  8
0
  6
CONTINUOUS
 62
     7
 10
277
 20
52
 11
292
 21
52
  0
LINE
  8
0
  6
CONTINUOUS
 62
     7
 10
277
 20
-52
 11
292
 21
-52
  0
LINE
  8
0
  6
CONTINUOUS
 62
     7
 10
292
 20
63.92559814453125
 11
292
 21
-63.92559814453125
  0
LINE
  8
0
  6
CONTINUOUS
 62
     7
 10
277
 20
52
 11
277
 21
-52
  0
LINE
  8
0
  6
CONTINUOUS
 62
     7
 10
233.9999389648438
 20
25.5003490447998
 11
240.9999237060547
 21
29.54179191589355
  0
LINE
  8
0
  6
CONTINUOUS
 62
     7
 10
234.0000305175781
 20
-25.49997329711914
 11
241.0000152587891
 21
-29.54141426086426
  0
LINE
  8
0
  6
CONTINUOUS
 62
     7
 10
254.4833831787109
 20
-10.75769329071045
 11
277.0000610351563
 21
-14.12448501586914
  0
LINE
  8
0
  6
CONTINUOUS
 62
     7
 10
254.4832763671875
 20
-24.37335586547852
 11
276.9999694824219
 21
-33.57160568237305
  0
LINE
  8
0
  6
CONTINUOUS
 62
     7
 10
254.4833984375
 20
-34.3547248840332
 11
277.0000610351563
 21
-46.91978454589844
  0
LINE
  8
0
  6
CONTINUOUS
 62
     7
 10
254.4832916259766
 20
10.75817394256592
 11
276.9999389648438
 21
14.12496566772461
  0
LINE
  8
0
  6
CONTINUOUS
 62
     7
 10
254.4835510253906
 20
24.37271881103516
 11
277.000244140625
 21
33.57097625732422
  0
LINE
  8
0
  6
CONTINUOUS
 62
     7
 10
254.4830474853516
 20
34.35538482666016
 11
276.999755859375
 21
46.92046737670898
  0
LINE
  8
0
  6
CONTINUOUS
 62
     7
 10
250
 20
52.5
 11
250
 21
82.5
  0
LINE
  8
0
  6
CONTINUOUS
 62
     7
 10
255
 20
87.5
 11
365
 21
87.5
  0
LINE
  8
0
  6
CONTINUOUS
 62
     7
 10
253
 20
-36
 11
253
 21
-51.72433471679687
  0
LINE
  8
0
  6
CONTINUOUS
 62
     7
 10
253
 20
-51.72433471679687
 11
277
 21
-51.72433471679687
  0
LINE
  8
0
  6
CONTINUOUS
 62
     7
 10
253
 20
36
 11
253
 21
51.724365234375
  0
LINE
  8
0
  6
CONTINUOUS
 62
     7
 10
253
 20
51.724365234375
 11
277
 21
51.724365234375
  0
LINE
  8
0
  6
CONTINUOUS
 62
     7
 10
200
 20
-3
 11
225
 21
-3
  0
LINE
  8
0
  6
CONTINUOUS
 62
     7
 10
200
 20
3
 11
225
 21
3
  0
LINE
  8
0
  6
CONTINUOUS
 62
     7
 10
225
 20
3
 11
225
 21
-3
  0
LINE
  8
0
  6
CONTINUOUS
 62
     3
 10
257.0876159667969
 20
-72.5
 11
272.9788208007813
 21
-72.5
  0
LINE
  8
0
  6
CONTINUOUS
 62
     3
 10
265
 20
-64.04592895507813
 11
265
 21
-81.23434448242187
  0
LINE
  8
0
  6
CONTINUOUS
 62
     3
 10
257.0876159667969
 20
72.5
 11
272.9788208007813
 21
72.5
  0
LINE
  8
0
  6
CONTINUOUS
 62
     3
 10
265
 20
64.04592895507813
 11
265
 21
81.23434448242187
  0
LINE
  8
0
  6
CONTINUOUS
 62
     7
 10
256.1482849121094
 20
-8.10914421081543
 11
276.9999694824219
 21
-10.1543493270874
  0
LINE
  8
0
  6
CONTINUOUS
 62
     7
 10
256.1488342285156
 20
8.109479904174805
 11
277
 21
10.15577793121338
  0
LINE
  8
0
  6
CONTINUOUS
 62
     7
 10
292
 20
63.92559814453125
 11
295
 21
63.92559814453125
  0
LINE
  8
0
  6
CONTINUOUS
 62
     7
 10
292
 20
-63.92559814453125
 11
295
 21
-63.92559814453125
  0
LINE
  8
0
  6
CONTINUOUS
 62
     7
 10
295
 20
-63.92559814453125
 11
295
 21
-79.088134765625
  0
LINE
  8
0
  6
CONTINUOUS
 62
     7
 10
280.4034729003906
 20
-86.15632629394531
 11
294.6483154296875
 21
-79.088134765625
  0
LINE
  8
0
  6
CONTINUOUS
 62
     7
 10
294.6483154296875
 20
-79.088134765625
 11
321.4365234375
 21
-79.088134765625
  0
LINE
  8
0
  6
CONTINUOUS
 62
     7
 10
280.4034423828125
 20
86.15631866455078
 11
294.6483154296875
 21
79.08812713623047
  0
LINE
  8
0
  6
CONTINUOUS
 62
     7
 10
295
 20
63.92559814453125
 11
295
 21
79.088134765625
  0
LINE
  8
0
  6
CONTINUOUS
 62
     7
 10
294.6483154296875
 20
79.088134765625
 11
321.4365234375
 21
79.088134765625
  0
LINE
  8
0
  6
CONTINUOUS
 62
     7
 10
321.4365539550781
 20
79.08815002441406
 11
338.8550720214844
 21
86.10874176025391
  0
LINE
  8
0
  6
CONTINUOUS
 62
     7
 10
370
 20
73.5
 11
370
 21
82.5
  0
LINE
  8
0
  6
CONTINUOUS
 62
     3
 10
347.0876159667969
 20
72.5
 11
359.5
 21
72.5
  0
LINE
  8
0
  6
CONTINUOUS
 62
     3
 10
355
 20
64.04592895507813
 11
355
 21
81.23434448242187
  0
LINE
  8
0
  6
CONTINUOUS
 62
     7
 10
343.3351135253906
 20
52.50000381469727
 11
359.5
 21
58.56183242797852
  0
LINE
  8
0
  6
CONTINUOUS
 62
     7
 10
343.3324279785156
 20
-52.50000381469727
 11
359.5
 21
-58.56283950805664
  0
LINE
  8
0
  6
CONTINUOUS
 62
     7
 10
321.4365539550781
 20
-79.08814239501953
 11
338.8550720214844
 21
-86.10873413085937
  0
LINE
  8
0
  6
CONTINUOUS
 62
     7
 10
370
 20
-73.5
 11
370
 21
-82.5
  0
LINE
  8
0
  6
CONTINUOUS
 62
     3
 10
347.0876159667969
 20
-72.5
 11
359.5
 21
-72.5
  0
LINE
  8
0
  6
CONTINUOUS
 62
     3
 10
355
 20
-64.04592895507813
 11
355
 21
-81.23434448242187
  0
LINE
  8
0
  6
CONTINUOUS
 62
     7
 10
369.5
 20
-73.5
 11
392
 21
-73.5
  0
LINE
  8
0
  6
CONTINUOUS
 62
     7
 10
392
 20
73.5
 11
392
 21
20.85109329223633
  0
LINE
  8
0
  6
CONTINUOUS
 62
     7
 10
369.5
 20
73.5
 11
392
 21
73.5
  0
LINE
  8
0
  6
CONTINUOUS
 62
     7
 10
-6.507789611816406
 20
-221.2601776123047
 11
-5.058295726776123
 21
-225.2426300048828
  0
LINE
  8
0
  6
CONTINUOUS
 62
     7
 10
-10.88452339172363
 20
-220.1305084228516
 11
-7.314070701599121
 21
-220.6111755371094
  0
LINE
  8
0
  6
CONTINUOUS
 62
     7
 10
-15.0700626373291
 20
-196.3928527832031
 11
-10.18186855316162
 21
-224.1151885986328
  0
LINE
  8
0
  6
CONTINUOUS
 62
     7
 10
-20.81521606445312
 20
-223.7829742431641
 11
-20.81521606445312
 21
-228.02099609375
  0
LINE
  8
0
  6
CONTINUOUS
 62
     7
 10
-17.08880233764648
 20
-221.2244720458984
 11
-20.2795352935791
 21
-222.8973236083984
  0
LINE
  8
0
  6
CONTINUOUS
 62
     7
 10
-21.27435111999512
 20
-197.4868316650391
 11
-16.38615608215332
 21
-225.2091674804687
  0
LINE
  8
0
  6
CONTINUOUS
 62
     7
 10
-5.058269500732422
 20
-225.2425842285156
 11
-4.634085655212402
 21
-227.6482543945313
  0
LINE
  8
0
  6
CONTINUOUS
 62
     7
 10
-20.81521415710449
 20
-228.0210418701172
 11
-20.39104652404785
 21
-230.4266204833984
  0
LINE
  8
0
  6
CONTINUOUS
 62
     3
 10
-96.08383941650391
 20
-300
 11
96.08260345458984
 21
-300
  0
LINE
  8
0
  6
CONTINUOUS
 62
     3
 10
0
 20
-211.5
 11
0
 21
-405
  0
LINE
  8
0
  6
CONTINUOUS
 62
     7
 10
-87.5
 20
-390
 11
-47.5
 21
-390
  0
LINE
  8
0
  6
CONTINUOUS
 62
     7
 10
-87.5
 20
-374
 11
-87.5
 21
-390
  0
LINE
  8
0
  6
CONTINUOUS
 62
     7
 10
87.5
 20
-374
 11
87.5
 21
-390
  0
LINE
  8
0
  6
CONTINUOUS
 62
     7
 10
-87.5
 20
-374
 11
-47.5
 21
-374
  0
LINE
  8
0
  6
CONTINUOUS
 62
     7
 10
-44.5
 20
-387
 11
44.5
 21
-387
  0
LINE
  8
0
  6
CONTINUOUS
 62
     7
 10
-47.5
 20
-374
 11
-47.5
 21
-390
  0
LINE
  8
0
  6
CONTINUOUS
 62
     7
 10
47.5
 20
-374
 11
47.5
 21
-390
  0
LINE
  8
0
  6
CONTINUOUS
 62
     7
 10
47.5
 20
-374
 11
87.5
 21
-374
  0
LINE
  8
0
  6
CONTINUOUS
 62
     7
 10
47.5
 20
-390
 11
87.5
 21
-390
  0
LINE
  8
0
  6
CONTINUOUS
 62
     7
 10
41.56008529663086
 20
-263.9604797363281
 11
52.54126739501953
 21
-260.0009765625
  0
LINE
  8
0
  6
CONTINUOUS
 62
     7
 10
51.98717498779297
 20
-282.0225524902344
 11
60.90682220458984
 21
-274.4923095703125
  0
LINE
  8
0
  6
CONTINUOUS
 62
     7
 10
-10.42958450317383
 20
-245.9883270263672
 11
-8.368012428283691
 21
-234.4985198974609
  0
LINE
  8
0
  6
CONTINUOUS
 62
     7
 10
10.4267578125
 20
-245.9887237548828
 11
8.365204811096191
 21
-234.4990081787109
  0
LINE
  8
0
  6
CONTINUOUS
 62
     3
 10
50.24792098999023
 20
-270.9881286621094
 11
62.63627624511719
 21
-263.8357238769531
  0
LINE
  8
0
  6
CONTINUOUS
 62
     7
 10
-51.9898567199707
 20
-282.0260314941406
 11
-60.90947723388672
 21
-274.4958190917969
  0
LINE
  8
0
  6
CONTINUOUS
 62
     7
 10
-41.56135940551758
 20
-263.9633178710938
 11
-52.54254150390625
 21
-260.0038146972656
  0
LINE
  8
0
  6
CONTINUOUS
 62
     3
 10
-47.12594985961914
 20
-272.7916564941406
 11
-61.03079986572266
 21
-264.7637023925781
  0
LINE
  8
0
  6
CONTINUOUS
 62
     7
 10
-41.56192779541016
 20
-336.0347595214844
 11
-52.54310989379883
 21
-339.9942626953125
  0
LINE
  8
0
  6
CONTINUOUS
 62
     7
 10
-51.99100112915039
 20
-317.9727783203125
 11
-60.91064453125
 21
-325.5030517578125
  0
LINE
  8
0
  6
CONTINUOUS
 62
     3
 10
-47.64398956298828
 20
-327.5078125
 11
-62.04161071777344
 21
-335.8202819824219
  0
LINE
  8
0
  6
CONTINUOUS
 62
     7
 10
10.42457389831543
 20
-354.0106506347656
 11
8.363012313842773
 21
-365.5003967285156
  0
LINE
  8
0
  6
CONTINUOUS
 62
     7
 10
-10.43122863769531
 20
-354.0119323730469
 11
-8.369671821594238
 21
-365.5016784667969
  0
LINE
  8
0
  6
CONTINUOUS
 62
     7
 10
51.98831939697266
 20
-317.9757690429687
 11
60.90793991088867
 21
-325.5060119628906
  0
LINE
  8
0
  6
CONTINUOUS
 62
     7
 10
41.56114196777344
 20
-336.0367431640625
 11
52.54232025146484
 21
-339.9962463378906
  0
LINE
  8
0
  6
CONTINUOUS
 62
     3
 10
48.33074188232422
 20
-327.903564453125
 11
62.05521392822266
 21
-335.827392578125
  0
LINE
  8
0
  6
CONTINUOUS
 62
     7
 10
76.85211181640625
 20
-295
 11
80.58837890625
 21
-295
  0
LINE
  8
0
  6
CONTINUOUS
 62
     7
 10
-3
 20
-286.5
 11
-3
 21
-292.5
  0
LINE
  8
0
  6
CONTINUOUS
 62
     7
 10
3
 20
-286.5
 11
3
 21
-292.5
  0
LINE
  8
0
  6
CONTINUOUS
 62
     7
 10
-3
 20
-292.5
 11
3
 21
-292.5
  0
LINE
  8
0
  6
CONTINUOUS
 62
     7
 10
80.58786773681641
 20
-295.0000305175781
 11
87.49947357177734
 21
-374.0000305175781
  0
LINE
  8
0
  6
CONTINUOUS
 62
     7
 10
-80.58910369873047
 20
-294.9999084472656
 11
-87.50070953369141
 21
-373.9998779296875
  0
LINE
  8
0
  6
CONTINUOUS
 62
     7
 10
-76.57305908203125
 20
-295
 11
-80.58837890625
 21
-295
  0
LINE
  8
0
  6
CONTINUOUS
 62
     3
 10
-72.5
 20
-369.52587890625
 11
-72.5
 21
-393.3502807617188
  0
LINE
  8
0
  6
CONTINUOUS
 62
     3
 10
72.5
 20
-369.1353149414062
 11
72.5
 21
-393.3502807617188
  0
LINE
  8
0
  6
CONTINUOUS
 62
     7
 10
-3
 20
-286.5
 11
3
 21
-286.5
  0
LINE
  8
0
  6
DASHED
 62
     7
 10
-78.5
 20
-374
 11
-78.5
 21
-390
  0
LINE
  8
0
  6
DASHED
 62
     7
 10
-66.5
 20
-374
 11
-66.5
 21
-390
  0
LINE
  8
0
  6
DASHED
 62
     7
 10
78.5
 20
-374
 11
78.5
 21
-390
  0
LINE
  8
0
  6
DASHED
 62
     7
 10
66.5
 20
-374
 11
66.5
 21
-390
  0
LINE
  8
0
  6
CONTINUOUS
 62
     7
 10
-37.66980743408203
 20
-338.8358764648438
 11
-49.39344024658203
 21
-373.3568115234375
  0
LINE
  8
0
  6
CONTINUOUS
 62
     7
 10
37.67014694213867
 20
-338.8362121582031
 11
49.39368057250977
 21
-373.3568725585937
  0
LINE
  8
0
  6
CONTINUOUS
 62
     7
 10
36.32622146606445
 20
-290.2664489746094
 11
47.33037185668945
 21
-287.3179016113281
  0
LINE
  8
0
  6
CONTINUOUS
 62
     7
 10
26.59263610839844
 20
-273.4073791503906
 11
34.64823150634766
 21
-265.3517761230469
  0
LINE
  8
0
  6
CONTINUOUS
 62
     7
 10
9.733603477478027
 20
-263.6737976074219
 11
12.68215656280518
 21
-252.6696319580078
  0
LINE
  8
0
  6
CONTINUOUS
 62
     7
 10
-9.733589172363281
 20
-263.6737670898437
 11
-12.68214225769043
 21
-252.6696319580078
  0
LINE
  8
0
  6
CONTINUOUS
 62
     7
 10
-26.59263610839844
 20
-273.4073791503906
 11
-34.64823150634766
 21
-265.3517761230469
  0
LINE
  8
0
  6
CONTINUOUS
 62
     7
 10
-36.32621383666992
 20
-290.2664184570313
 11
-47.3303337097168
 21
-287.31787109375
  0
LINE
  8
0
  6
CONTINUOUS
 62
     7
 10
-36.32621002197266
 20
-309.7336120605469
 11
-47.33036041259766
 21
-312.6821594238281
  0
LINE
  8
0
  6
CONTINUOUS
 62
     7
 10
-25.45584487915039
 20
-325.4558410644531
 11
-35.7515869140625
 21
-335.7515869140625
  0
LINE
  8
0
  6
CONTINUOUS
 62
     7
 10
-9.733556747436523
 20
-336.3262023925781
 11
-12.68210983276367
 21
-347.3303527832031
  0
LINE
  8
0
  6
CONTINUOUS
 62
     7
 10
9.73357105255127
 20
-336.3262023925781
 11
12.68212413787842
 21
-347.3303527832031
  0
LINE
  8
0
  6
CONTINUOUS
 62
     7
 10
26.59263610839844
 20
-326.5926208496094
 11
35.75193023681641
 21
-335.7519226074219
  0
LINE
  8
0
  6
CONTINUOUS
 62
     7
 10
36.32624816894531
 20
-309.7335815429688
 11
47.33039474487305
 21
-312.68212890625
  0
LINE
  8
0
  6
CONTINUOUS
 62
     7
 10
-9.8349609375
 20
-257.5
 11
9.8349609375
 21
-257.5
  0
LINE
  8
0
  6
CONTINUOUS
 62
     7
 10
-41
 20
-290.5670776367188
 11
-41
 21
-309.43310546875
  0
LINE
  8
0
  6
CONTINUOUS
 62
     7
 10
-9.83526611328125
 20
-342.5
 11
9.83441162109375
 21
-342.5
  0
LINE
  8
0
  6
CONTINUOUS
 62
     7
 10
41
 20
-290.5669555664062
 11
41
 21
-309.4340209960938
  0
LINE
  8
0
  6
CONTINUOUS
 62
     7
 10
-70
 20
-320.5
 11
-70
 21
-318.8745727539063
  0
LINE
  8
0
  6
DASHED
 62
     3
 10
-68
 20
-322.5
 11
-56.69876098632813
 21
-322.5
  0
LINE
  8
0
  6
DASHED
 62
     3
 10
-68
 20
-277.5
 11
-56.69876098632813
 21
-277.5
  0
LINE
  8
0
  6
CONTINUOUS
 62
     3
 10
-58
 20
-321.7255554199219
 11
-58
 21
-328.3228454589844
  0
LINE
  8
0
  6
DASHED
 62
     3
 10
-65
 20
-275.5
 11
-55.86367797851562
 21
-275.5
  0
LINE
  8
0
  6
DASHED
 62
     3
 10
-66
 20
-276.5
 11
-66
 21
-277.5
  0
LINE
  8
0
  6
CONTINUOUS
 62
     7
 10
-70
 20
-281.1254272460938
 11
-70
 21
-279.5
  0
LINE
  8
0
  6
DASHED
 62
     3
 10
-70
 20
-318.8745727539063
 11
-70
 21
-281.1254272460938
  0
LINE
  8
0
  6
CONTINUOUS
 62
     7
 10
392
 20
-372.5
 11
392
 21
-227.5
  0
LINE
  8
0
  6
CONTINUOUS
 62
     7
 10
392
 20
-72.5
 11
392
 21
11.0224609375
  0
LINE
  8
0
  6
CONTINUOUS
 62
     7
 10
407
 20
-72.5
 11
407
 21
0
  0
LINE
  8
0
  6
CONTINUOUS
 62
     7
 10
392
 20
-72.5
 11
407
 21
-72.5
  0
LINE
  8
0
  6
CONTINUOUS
 62
     7
 10
392
 20
72.5
 11
407
 21
72.5
  0
LINE
  8
0
  6
CONTINUOUS
 62
     7
 10
407
 20
0
 11
407
 21
72.5
  0
LINE
  8
0
  6
CONTINUOUS
 62
     7
 10
392
 20
0
 11
392
 21
72.5
  0
LINE
  8
0
  6
CONTINUOUS
 62
     7
 10
392
 20
0
 11
392
 21
-73.5
  0
LINE
  8
0
  6
CONTINUOUS
 62
     7
 10
407
 20
5
 11
430
 21
5
  0
LINE
  8
0
  6
CONTINUOUS
 62
     7
 10
407
 20
-5
 11
430
 21
-5
  0
LINE
  8
0
  6
CONTINUOUS
 62
     7
 10
407
 20
56
 11
430
 21
56
  0
LINE
  8
0
  6
CONTINUOUS
 62
     7
 10
407
 20
-56
 11
430
 21
-56
  0
LINE
  8
0
  6
CONTINUOUS
 62
     7
 10
412
 20
-38
 11
425
 21
-38
  0
LINE
  8
0
  6
CONTINUOUS
 62
     7
 10
430
 20
-80
 11
442
 21
-80
  0
LINE
  8
0
  6
CONTINUOUS
 62
     7
 10
412
 20
38
 11
425
 21
38
  0
LINE
  8
0
  6
CONTINUOUS
 62
     7
 10
430
 20
80
 11
430
 21
-80
  0
LINE
  8
0
  6
CONTINUOUS
 62
     7
 10
430
 20
80
 11
442
 21
80
  0
LINE
  8
0
  6
CONTINUOUS
 62
     7
 10
442
 20
80
 11
442
 21
-80
  0
LINE
  8
0
  6
CONTINUOUS
 62
     7
 10
392
 20
-372.5
 11
392
 21
-227.5
  0
LINE
  8
0
  6
CONTINUOUS
 62
     7
 10
407
 20
-372.5
 11
407
 21
-227.5
  0
LINE
  8
0
  6
CONTINUOUS
 62
     7
 10
442
 20
-220
 11
442
 21
-380
  0
LINE
  8
0
  6
CONTINUOUS
 62
     7
 10
430
 20
-220
 11
442
 21
-220
  0
LINE
  8
0
  6
CONTINUOUS
 62
     7
 10
430
 20
-220
 11
430
 21
-380
  0
LINE
  8
0
  6
CONTINUOUS
 62
     7
 10
412
 20
-262
 11
425
 21
-262
  0
LINE
  8
0
  6
CONTINUOUS
 62
     7
 10
430
 20
-380
 11
442
 21
-380
  0
LINE
  8
0
  6
CONTINUOUS
 62
     7
 10
412
 20
-338
 11
425
 21
-338
  0
LINE
  8
0
  6
CONTINUOUS
 62
     7
 10
407
 20
-356
 11
430
 21
-356
  0
LINE
  8
0
  6
CONTINUOUS
 62
     7
 10
407
 20
-244
 11
430
 21
-244
  0
LINE
  8
0
  6
CONTINUOUS
 62
     7
 10
392
 20
-372.5
 11
407
 21
-372.5
  0
LINE
  8
0
  6
CONTINUOUS
 62
     7
 10
407
 20
-305
 11
430
 21
-305
  0
LINE
  8
0
  6
CONTINUOUS
 62
     7
 10
407
 20
-295
 11
430
 21
-295
  0
LINE
  8
0
  6
CONTINUOUS
 62
     7
 10
379.3822937011719
 20
-300
 11
453.7077026367187
 21
-300
  0
LINE
  8
0
  6
CONTINUOUS
 62
     7
 10
392
 20
-227.5
 11
407
 21
-227.5
  0
LINE
  8
0
  6
CONTINUOUS
 62
     7
 10
-19.52719879150391
 20
-189.2553100585938
 11
-11.79404067993164
 21
-233.1122283935547
  0
LINE
  8
0
  6
CONTINUOUS
 62
     7
 10
310.7236938476562
 20
-209.8900909423828
 11
352.9528503417969
 21
-209.8900909423828
  0
LINE
  8
0
  6
CONTINUOUS
 62
     7
 10
332.5
 20
-189.9963989257812
 11
332.5
 21
-229.1756744384766
  0
ARC
  8
0
  6
CONTINUOUS
 62
     7
 10
344.5
 20
-242.5
 40
4.999999999999981
 50
179.9999776881996
 51
270.0000280040023
  0
ARC
  8
0
  6
CONTINUOUS
 62
     7
 10
339.5
 20
-242.5
 40
4.999999999999981
 50
179.9999776881996
 51
270.0000280040023
  0
ARC
  8
0
  6
CONTINUOUS
 62
     7
 10
339.5
 20
-357.5
 40
4.999999999999981
 50
89.99992737239761
 51
179.9999640278213
  0
ARC
  8
0
  6
CONTINUOUS
 62
     7
 10
344.5
 20
-357.5
 40
4.999999999999981
 50
89.99992737239761
 51
179.9999640278213
  0
ARC
  8
0
  6
CONTINUOUS
 62
     7
 10
354.5
 20
-242.5
 40
5.000000000000004
 50
269.9999974955215
 51
0
  0
ARC
  8
0
  6
CONTINUOUS
 62
     7
 10
354.5
 20
-357.5
 40
5
 50
0
 51
90.00000250447847
  0
ARC
  8
0
  6
CONTINUOUS
 62
     7
 10
262
 20
-300
 40
8.000000000000011
 50
96.69394306092748
 51
264.2191471358
  0
ARC
  8
0
  6
CONTINUOUS
 62
     7
 10
248
 20
-329.0033874511719
 40
5
 50
0
 51
89.99998201391064
  0
ARC
  8
0
  6
CONTINUOUS
 62
     7
 10
317
 20
-295
 40
15
 50
179.9999776881996
 51
270.000028004002
  0
ARC
  8
0
  6
CONTINUOUS
 62
     7
 10
276.8746948242187
 20
-369
 40
5.000000000000019
 50
270.0000179860891
 51
349.9999516258094
  0
ARC
  8
0
  6
CONTINUOUS
 62
     7
 10
347.502197265625
 20
-362
 40
12
 50
195.0000056537406
 51
270.0000179860893
  0
ARC
  8
0
  6
CONTINUOUS
 62
     7
 10
339.5
 20
-57.5
 40
4.999999999999997
 50
89.99998201391097
 51
179.9999640278213
  0
ARC
  8
0
  6
CONTINUOUS
 62
     7
 10
339.5
 20
57.5
 40
4.999999999999981
 50
179.9999776881996
 51
270.0000280040023
  0
ARC
  8
0
  6
CONTINUOUS
 62
     7
 10
354.5
 20
-57.5
 40
5
 50
0
 51
90.00000250447847
  0
ARC
  8
0
  6
CONTINUOUS
 62
     7
 10
354.5
 20
57.5
 40
4.999999999999997
 50
269.9999974955215
 51
0
  0
ARC
  8
0
  6
CONTINUOUS
 62
     7
 10
255
 20
-82.5
 40
5.00000000000001
 50
179.9999776881996
 51
270.0000280040019
  0
ARC
  8
0
  6
CONTINUOUS
 62
     7
 10
255
 20
-52.5
 40
4.999999999999996
 50
113.5781775193881
 51
179.9999640278213
  0
ARC
  8
0
  6
CONTINUOUS
 62
     7
 10
262
 20
0
 40
10
 50
125.8133549268205
 51
234.1870239213073
  0
ARC
  8
0
  6
CONTINUOUS
 62
     7
 10
255
 20
52.5
 40
5.00000000000001
 50
179.9999776881996
 51
246.4218324985244
  0
ARC
  8
0
  6
CONTINUOUS
 62
     7
 10
255
 20
82.5
 40
4.999999999999996
 50
89.99992737239728
 51
179.9999640278213
  0
ARC
  8
0
  6
CONTINUOUS
 62
     7
 10
225
 20
0
 40
3
 50
270.0000179860896
 51
89.99998201391043
  0
CIRCLE
  8
0
  6
CONTINUOUS
 62
     7
 10
265
 20
-72.5
 40
6
  0
CIRCLE
  8
0
  6
CONTINUOUS
 62
     7
 10
265
 20
72.5
 40
6
  0
ARC
  8
0
  6
CONTINUOUS
 62
     7
 10
365
 20
82.5
 40
5
 50
359.9999453584866
 51
89.99992737239761
  0
ARC
  8
0
  6
CONTINUOUS
 62
     7
 10
355
 20
72.5
 40
6
 50
0
 51
318.5903489293095
  0
ARC
  8
0
  6
CONTINUOUS
 62
     7
 10
365
 20
-82.5
 40
5.000000000000004
 50
270.0000179860891
 51
0
  0
ARC
  8
0
  6
CONTINUOUS
 62
     7
 10
355
 20
-72.5
 40
5.999999999999986
 50
41.40957912633311
 51
1.001791266906166E-05
  0
ARC
  8
0
  6
CONTINUOUS
 62
     7
 10
-18.1722412109375
 20
-196.9398651123047
 40
3.150000095367433
 50
9.999998855319467
 51
189.9999620293669
  0
ARC
  8
0
  6
CONTINUOUS
 62
     7
 10
-19.81521606445313
 20
-223.7829742431641
 40
1.000000000000008
 50
117.6670839263945
 51
179.9999503674436
  0
ARC
  8
0
  6
CONTINUOUS
 62
     7
 10
-7.447479248046875
 20
-221.6022033691406
 40
0.999999999999999
 50
20.00001137101667
 51
82.33288293470702
  0
ARC
  8
0
  6
CONTINUOUS
 62
     7
 10
-9.197113037109375
 20
-223.9415588378906
 40
1.000000000000001
 50
189.9999793322113
 51
280.0000159876348
  0
ARC
  8
0
  6
CONTINUOUS
 62
     7
 10
-17.37100219726563
 20
-225.3828430175781
 40
0.9999999999999991
 50
279.9999613461216
 51
9.999998855319541
  0
ARC
  8
0
  6
CONTINUOUS
 62
     7
 10
0
 20
-300
 40
72.49999999999999
 50
309.0815373791073
 51
230.9187237619429
  0
ARC
  8
0
  6
CONTINUOUS
 62
     7
 10
0
 20
-300
 40
52.00000000000001
 50
317.2032196985211
 51
222.7971234047991
  0
CIRCLE
  8
0
  6
CONTINUOUS
 62
     7
 10
0
 20
-300
 40
36
  0
CIRCLE
  8
0
  6
CONTINUOUS
 62
     7
 10
0
 20
-300
 40
25.5
  0
ARC
  8
0
  6
CONTINUOUS
 62
     3
 10
0
 20
-300
 40
63.99999999999999
 50
262.7235169349513
 51
276.6528817848702
  0
ARC
  8
0
  6
CONTINUOUS
 62
     7
 10
55.42559814453125
 20
-268
 40
8.500000000000023
 50
310.1721717404911
 51
109.8278162687825
  0
ARC
  8
0
  6
CONTINUOUS
 62
     7
 10
0
 20
-236
 40
8.5
 50
10.17218707052167
 51
169.8278315988131
  0
ARC
  8
0
  6
CONTINUOUS
 62
     7
 10
-55.42559814453125
 20
-268
 40
8.499999999999986
 50
70.17218190998457
 51
229.827833268465
  0
ARC
  8
0
  6
CONTINUOUS
 62
     7
 10
-55.42559814453125
 20
-331.9999389648438
 40
8.500000000000012
 50
130.1721767494475
 51
289.8278212777388
  0
ARC
  8
0
  6
CONTINUOUS
 62
     7
 10
0
 20
-363.9999389648438
 40
8.5
 50
190.1721820615654
 51
349.8278265898566
  0
ARC
  8
0
  6
CONTINUOUS
 62
     7
 10
55.42559814453125
 20
-331.9999389648438
 40
8.499999999999995
 50
250.1721769010283
 51
49.82782142931953
  0
ARC
  8
0
  6
CONTINUOUS
 62
     7
 10
0
 20
-300
 40
52.00000000000001
 50
227.2056726470495
 51
312.794759476101
  0
ARC
  8
0
  6
CONTINUOUS
 62
     7
 10
0
 20
-300
 40
72.49999999999999
 50
234.25568462531
 51
305.7446382148138
  0
ARC
  8
0
  6
CONTINUOUS
 62
     7
 10
76.85211181640625
 20
-290
 40
5
 50
187.4137965048774
 51
270.0000179860893
  0
ARC
  8
0
  6
CONTINUOUS
 62
     7
 10
0
 20
-300
 40
11.00000000000002
 50
105.8266368114757
 51
74.17337821539326
  0
ARC
  8
0
  6
CONTINUOUS
 62
     7
 10
-44.5
 20
-390
 40
2.999999999999977
 50
89.9999820139107
 51
179.9999640278208
  0
ARC
  8
0
  6
CONTINUOUS
 62
     7
 10
44.5
 20
-390
 40
3
 50
0
 51
89.9999820139107
  0
ARC
  8
0
  6
CONTINUOUS
 62
     7
 10
-76.85211181640625
 20
-290
 40
4.999999999999993
 50
273.2070854995447
 51
352.5861848257881
  0
ARC
  8
0
  6
CONTINUOUS
 62
     3
 10
0
 20
-300
 40
63.99999999999999
 50
323.7564412825952
 51
336.2875280980819
  0
ARC
  8
0
  6
CONTINUOUS
 62
     3
 10
0
 20
-300
 40
64
 50
23.80862559750627
 51
36.97342590192316
  0
ARC
  8
0
  6
CONTINUOUS
 62
     3
 10
0
 20
-300
 40
63.99999999999999
 50
83.35940572544663
 51
95.80329322334701
  0
ARC
  8
0
  6
CONTINUOUS
 62
     3
 10
0
 20
-300
 40
63.99999999999999
 50
143.0914249230133
 51
156.5041952452475
  0
ARC
  8
0
  6
CONTINUOUS
 62
     3
 10
0
 20
-300
 40
64.00000000000001
 50
202.9723527171411
 51
216.6502300018201
  0
ARC
  8
0
  6
CONTINUOUS
 62
     7
 10
-30.0947265625
 20
-341.408447265625
 40
7.999999999999984
 50
135.0000003416228
 51
161.2420379252968
  0
ARC
  8
0
  6
CONTINUOUS
 62
     7
 10
30.09506225585938
 20
-341.4087829589844
 40
8
 50
18.75796025347026
 51
45.00000125223909
  0
ARC
  8
0
  6
DASHED
 62
     3
 10
-65
 20
-276.5
 40
1.000000000000001
 50
90.00000250447847
 51
180.0000050089569
  0
ARC
  8
0
  6
DASHED
 62
     3
 10
-68
 20
-279.5
 40
2.000000000000002
 50
90.00000250447806
 51
120.2911333224866
  0
ARC
  8
0
  6
CONTINUOUS
 62
     7
 10
-68
 20
-320.5
 40
1.999999999999994
 50
180.0000086514214
 51
239.7088666775134
  0
ARC
  8
0
  6
CONTINUOUS
 62
     7
 10
-68
 20
-279.5
 40
2.000000000000008
 50
120.2911333224866
 51
180.0000050089569
  0
ARC
  8
0
  6
DASHED
 62
     3
 10
-68
 20
-320.5
 40
2.000000000000008
 50
239.7088666775134
 51
269.9999974955219
  0
ARC
  8
0
  6
CONTINUOUS
 62
     7
 10
412
 20
-43
 40
4.999999999999997
 50
90.00000250447847
 51
180.0000050089563
  0
ARC
  8
0
  6
CONTINUOUS
 62
     7
 10
412
 20
43
 40
5
 50
179.999991348578
 51
270.0000006832456
  0
ARC
  8
0
  6
CONTINUOUS
 62
     7
 10
425
 20
43
 40
4.999999999999997
 50
269.9999974955215
 51
0
  0
ARC
  8
0
  6
CONTINUOUS
 62
     7
 10
425
 20
-43
 40
5
 50
0
 51
90.00000250447847
  0
ARC
  8
0
  6
CONTINUOUS
 62
     7
 10
0
 20
-300
 40
80
 50
3.583321717376981
 51
94.91860614091193
  0
ARC
  8
0
  6
CONTINUOUS
 62
     7
 10
0
 20
-300
 40
80
 50
105.0813470598115
 51
176.4166828646925
  0
ARC
  8
0
  6
CONTINUOUS
 62
     7
 10
425
 20
-343
 40
5
 50
0
 51
90.00000250447847
  0
ARC
  8
0
  6
CONTINUOUS
 62
     7
 10
425
 20
-257
 40
5.000000000000004
 50
269.9999974955215
 51
0
  0
ARC
  8
0
  6
CONTINUOUS
 62
     7
 10
412
 20
-257
 40
5
 50
179.999991348578
 51
270.0000006832456
  0
ARC
  8
0
  6
CONTINUOUS
 62
     7
 10
412
 20
-343
 40
5.000000000000004
 50
90.00000250447847
 51
180.0000050089563
  0
POLYLINE
  8
0
  6
CONTINUOUS
 62
     7
 66
     1
 10
0
 20
0
  0
VERTEX
  8
0
  6
CONTINUOUS
 62
     7
 10
340.0611857662015
 20
-224.1081479795612
 42
0.0827222461071891
  0
VERTEX
  8
0
  6
CONTINUOUS
 62
     7
 10
344.3481256351077
 20
-220.9067977993126
 42
0.08385196407262831
  0
VERTEX
  8
0
  6
CONTINUOUS
 62
     7
 10
347.3558268195329
 20
-216.4818587292408
 42
0.08471339104961567
  0
VERTEX
  8
0
  6
CONTINUOUS
 62
     7
 10
348.7338859651703
 20
-211.3125005175409
 42
0.08490374353109294
  0
VERTEX
  8
0
  6
CONTINUOUS
 62
     7
 10
348.316619700727
 20
-205.9801507077653
 42
0.08436947758509142
  0
VERTEX
  8
0
  6
CONTINUOUS
 62
     7
 10
346.1548408370375
 20
-201.0869055890044
 42
0.08333442676211961
  0
VERTEX
  8
0
  6
CONTINUOUS
 62
     7
 10
342.5050664009046
 20
-197.1746339261113
 42
0.08226418733020982
  0
VERTEX
  8
0
  6
CONTINUOUS
 62
     7
 10
337.7826987083848
 20
-194.6575648400349
 42
0.08162580224457341
  0
VERTEX
  8
0
  6
CONTINUOUS
 62
     7
 10
332.5
 20
-193.7898559570312
 42
0.08158656035582652
  0
VERTEX
  8
0
  6
CONTINUOUS
 62
     7
 10
327.219732259612
 20
-194.656743672892
 42
0.08224720682324327
  0
VERTEX
  8
0
  6
CONTINUOUS
 62
     7
 10
322.497818865969
 20
-197.1724219051759
 42
0.08333895139426167
  0
VERTEX
  8
0
  6
CONTINUOUS
 62
     7
 10
318.8469771366065
 20
-201.0841556842337
 42
0.08437838601907328
  0
VERTEX
  8
0
  6
CONTINUOUS
 62
     7
 10
316.6840421068165
 20
-205.9775314094218
 42
0.08490739937955187
  0
VERTEX
  8
0
  6
CONTINUOUS
 62
     7
 10
316.2658893208627
 20
-211.3100449677545
 42
0.08470956744724996
  0
VERTEX
  8
0
  6
CONTINUOUS
 62
     7
 10
317.6430389621768
 20
-216.479380661759
 42
0.08383810926025236
  0
VERTEX
  8
0
  6
CONTINUOUS
 62
     7
 10
320.6493496963619
 20
-220.9041617364767
 42
0.0827374186511655
  0
VERTEX
  8
0
  6
CONTINUOUS
 62
     7
 10
324.9364054732181
 20
-224.1069037545193
 42
0
  0
SEQEND
  8
0
  0
POLYLINE
  8
0
  6
CONTINUOUS
 62
     7
 66
     1
 10
0
 20
0
 70
     1
  0
VERTEX
  8
0
  6
CONTINUOUS
 62
     7
 10
342.5
 20
-209.8900909423828
 42
0.1005697614596514
  0
VERTEX
  8
0
  6
CONTINUOUS
 62
     7
 10
341.7286164258952
 20
-206.0972835948851
 42
0.09931459426855112
  0
VERTEX
  8
0
  6
CONTINUOUS
 62
     7
 10
339.5449283026197
 20
-202.900797913141
 42
0.09762475566248449
  0
VERTEX
  8
0
  6
CONTINUOUS
 62
     7
 10
336.3027735203133
 20
-200.7818698241244
 42
0.09645742494750086
  0
VERTEX
  8
0
  6
CONTINUOUS
 62
     7
 10
332.5
 20
-200.0420074462891
 42
0.0964368343300462
  0
VERTEX
  8
0
  6
CONTINUOUS
 62
     7
 10
328.6979889324393
 20
-200.7815611270046
 42
0.09759325526350002
  0
VERTEX
  8
0
  6
CONTINUOUS
 62
     7
 10
325.4565369725482
 20
-202.8993658033249
 42
0.09935255147165992
  0
VERTEX
  8
0
  6
CONTINUOUS
 62
     7
 10
323.2715980621025
 20
-206.0967774812675
 42
0.1005839922554519
  0
VERTEX
  8
0
  6
CONTINUOUS
 62
     7
 10
322.5
 20
-209.8900909423828
 42
0.1005699380586949
  0
VERTEX
  8
0
  6
CONTINUOUS
 62
     7
 10
323.2713844715514
 20
-213.6828980014489
 42
0.09931486592911076
  0
VERTEX
  8
0
  6
CONTINUOUS
 62
     7
 10
325.455076428439
 20
-216.8793809132591
 42
0.09762481604129454
  0
VERTEX
  8
0
  6
CONTINUOUS
 62
     7
 10
328.6972352694488
 20
-218.9983027098581
 42
0.09645692972528301
  0
VERTEX
  8
0
  6
CONTINUOUS
 62
     7
 10
332.5
 20
-219.7381591796875
 42
0.09643659111140299
  0
VERTEX
  8
0
  6
CONTINUOUS
 62
     7
 10
336.3020116123553
 20
-218.9986076263891
 42
0.09759332041094969
  0
VERTEX
  8
0
  6
CONTINUOUS
 62
     7
 10
339.5434655186984
 20
-216.8808059607914
 42
0.09935282727083802
  0
VERTEX
  8
0
  6
CONTINUOUS
 62
     7
 10
341.728404978167
 20
-213.6833948232786
 42
0.100583908041133
  0
SEQEND
  8
0
  0
POLYLINE
  8
0
  6
CONTINUOUS
 62
     7
 66
     1
 10
0
 20
0
  0
VERTEX
  8
0
  6
CONTINUOUS
 62
     7
 10
339.633260319332
 20
-221.6705082286607
 42
0.2015082714046877
  0
VERTEX
  8
0
  6
CONTINUOUS
 62
     7
 10
338.9032570372444
 20
-221.1620278178304
 42
0.03155962249731195
  0
VERTEX
  8
0
  6
CONTINUOUS
 62
     7
 10
338.013428586751
 20
-220.9229466748142
 42
0.01542694082228232
  0
VERTEX
  8
0
  6
CONTINUOUS
 62
     7
 10
337.1057895615067
 20
-220.7635852299206
 42
0.01021026469517426
  0
VERTEX
  8
0
  6
CONTINUOUS
 62
     7
 10
336.1902648884376
 20
-220.6497806231095
 42
0.00782924774676072
  0
VERTEX
  8
0
  6
CONTINUOUS
 62
     7
 10
335.2711859274283
 20
-220.5686921155886
 42
0.006588713842294452
  0
VERTEX
  8
0
  6
CONTINUOUS
 62
     7
 10
334.3499521814701
 20
-220.5139474174719
 42
0.005931101374084193
  0
VERTEX
  8
0
  6
CONTINUOUS
 62
     7
 10
333.4275498075577
 20
-220.4821798476608
 42
0.005641265167937867
  0
VERTEX
  8
0
  6
CONTINUOUS
 62
     7
 10
332.5046231181426
 20
-220.4716952056555
 42
0.005639189148661436
  0
VERTEX
  8
0
  6
CONTINUOUS
 62
     7
 10
331.5818052347442
 20
-220.481968535918
 42
0.005918164220037805
  0
VERTEX
  8
0
  6
CONTINUOUS
 62
     7
 10
330.6606368483845
 20
-220.5134566653092
 42
0.006584376605029783
  0
VERTEX
  8
0
  6
CONTINUOUS
 62
     7
 10
329.7386271257537
 20
-220.5679774050531
 42
0.007814520412722004
  0
VERTEX
  8
0
  6
CONTINUOUS
 62
     7
 10
328.8191934726262
 20
-220.6487926334559
 42
0.01018488360740578
  0
VERTEX
  8
0
  6
CONTINUOUS
 62
     7
 10
327.9029309451886
 20
-220.7623111264577
 42
0.01540565567862774
  0
VERTEX
  8
0
  6
CONTINUOUS
 62
     7
 10
326.992660379359
 20
-220.9216651729646
 42
0.03141742369792435
  0
VERTEX
  8
0
  6
CONTINUOUS
 62
     7
 10
326.1013798084895
 20
-221.1603987084411
 42
0.1997036642486376
  0
VERTEX
  8
0
  6
CONTINUOUS
 62
     7
 10
325.3671489644616
 20
-221.6682280128126
 42
0
  0
SEQEND
  8
0
  0
POLYLINE
  8
0
  6
CONTINUOUS
 62
     7
 66
     1
 10
0
 20
0
  0
VERTEX
  8
0
  6
CONTINUOUS
 62
     7
 10
324.7619022221352
 20
10.93737814818252
 42
0.04188730367423638
  0
VERTEX
  8
0
  6
CONTINUOUS
 62
     7
 10
325.2020344841995
 20
9.709403999588005
 42
0.04165594837388165
  0
VERTEX
  8
0
  6
CONTINUOUS
 62
     7
 10
325.8402812820294
 20
8.571480997584207
 42
0.04136510392960657
  0
VERTEX
  8
0
  6
CONTINUOUS
 62
     7
 10
326.6577381641796
 20
7.554627661301517
 42
0.04106114708363243
  0
VERTEX
  8
0
  6
CONTINUOUS
 62
     7
 10
327.6310482054423
 20
6.685491964297047
 42
0.04077357732523467
  0
VERTEX
  8
0
  6
CONTINUOUS
 62
     7
 10
328.7331206473258
 20
5.986312499169603
 42
0.04052878174778915
  0
VERTEX
  8
0
  6
CONTINUOUS
 62
     7
 10
329.933979701734
 20
5.474564569895136
 42
0.04034729443312932
  0
VERTEX
  8
0
  6
CONTINUOUS
 62
     7
 10
331.2015544560752
 20
5.162753377309822
 42
0.04023511476118604
  0
VERTEX
  8
0
  6
CONTINUOUS
 62
     7
 10
332.5021778129697
 20
5.058288866146238
 42
0.04022823417034637
  0
VERTEX
  8
0
  6
CONTINUOUS
 62
     7
 10
333.8025196657524
 20
5.163414401938661
 42
0.04031551583042834
  0
VERTEX
  8
0
  6
CONTINUOUS
 62
     7
 10
335.0689486216773
 20
5.475541793439424
 42
0.04051141576204503
  0
VERTEX
  8
0
  6
CONTINUOUS
 62
     7
 10
336.2691032684894
 20
5.987481882585715
 42
0.04075983235441678
  0
VERTEX
  8
0
  6
CONTINUOUS
 62
     7
 10
337.3705931556671
 20
6.68673216606684
 42
0.04106008099377936
  0
VERTEX
  8
0
  6
CONTINUOUS
 62
     7
 10
338.3436447586855
 20
7.556083921328614
 42
0.04137779398195301
  0
VERTEX
  8
0
  6
CONTINUOUS
 62
     7
 10
339.1610580729468
 20
8.573463371376505
 42
0.04167556173287016
  0
VERTEX
  8
0
  6
CONTINUOUS
 62
     7
 10
339.7992052336398
 20
9.712124199119215
 42
0.0419164945614424
  0
VERTEX
  8
0
  6
CONTINUOUS
 62
     7
 10
340.2390962624776
 20
10.94112975636099
 42
0
  0
SEQEND
  8
0
  0
POLYLINE
  8
0
  6
CONTINUOUS
 62
     7
 66
     1
 10
0
 20
0
  0
VERTEX
  8
0
  6
CONTINUOUS
 62
     7
 10
343.4314048289556
 20
20.26018562728211
 42
0.0175428024714942
  0
VERTEX
  8
0
  6
CONTINUOUS
 62
     7
 10
342.0899370004203
 20
20.55332861378042
 42
0.01105000106664553
  0
VERTEX
  8
0
  6
CONTINUOUS
 62
     7
 10
340.733649092524
 20
20.77138152718539
 42
0.008116753947646554
  0
VERTEX
  8
0
  6
CONTINUOUS
 62
     7
 10
339.3692750333379
 20
20.93806667291368
 42
0.006531214552919916
  0
VERTEX
  8
0
  6
CONTINUOUS
 62
     7
 10
338.0008428141854
 20
21.06499833982713
 42
0.005600166967233017
  0
VERTEX
  8
0
  6
CONTINUOUS
 62
     7
 10
336.6294646684681
 20
21.1588740847845
 42
0.005037299046472236
  0
VERTEX
  8
0
  6
CONTINUOUS
 62
     7
 10
335.2560748062272
 20
21.2236686663077
 42
0.004711430493024445
  0
VERTEX
  8
0
  6
CONTINUOUS
 62
     7
 10
333.8815881704423
 20
21.26174597165706
 42
0.004560874606666967
  0
VERTEX
  8
0
  6
CONTINUOUS
 62
     7
 10
332.5066224349903
 20
21.27438325536233
 42
0.004559742370436786
  0
VERTEX
  8
0
  6
CONTINUOUS
 62
     7
 10
331.1317827739626
 20
21.26199006405944
 42
0.004705488727854978
  0
VERTEX
  8
0
  6
CONTINUOUS
 62
     7
 10
329.7583480273248
 20
21.22420401926933
 42
0.005034824033440411
  0
VERTEX
  8
0
  6
CONTINUOUS
 62
     7
 10
328.3844006311996
 20
21.15966894912224
 42
0.00559437764301453
  0
VERTEX
  8
0
  6
CONTINUOUS
 62
     7
 10
327.0126631807537
 20
21.06607682664444
 42
0.006523128034349626
  0
VERTEX
  8
0
  6
CONTINUOUS
 62
     7
 10
325.643492488479
 20
20.93942309762384
 42
0.008102150586962115
  0
VERTEX
  8
0
  6
CONTINUOUS
 62
     7
 10
324.2783449725728
 20
20.7730520002711
 42
0.01103428390015725
  0
VERTEX
  8
0
  6
CONTINUOUS
 62
     7
 10
322.9199077333646
 20
20.55514866948618
 42
0.01751373987310754
  0
VERTEX
  8
0
  6
CONTINUOUS
 62
     7
 10
321.575787224559
 20
20.26205137394807
 42
0
  0
SEQEND
  8
0
  0
POLYLINE
  8
0
  6
CONTINUOUS
 62
     7
 66
     1
 10
0
 20
0
 70
     1
  0
VERTEX
  8
0
  6
CONTINUOUS
 62
     7
 10
332.5
 20
15.07009887695313
 42
0.01162476452189834
  0
VERTEX
  8
0
  6
CONTINUOUS
 62
     7
 10
329.0818891266273
 20
14.99160828867686
 42
0.01447217399078604
  0
VERTEX
  8
0
  6
CONTINUOUS
 62
     7
 10
325.6713792691481
 20
14.73808060470511
 42
0.0255603878170158
  0
VERTEX
  8
0
  6
CONTINUOUS
 62
     7
 10
322.2910452185806
 20
14.22591025962467
 42
0.1952839009470627
  0
VERTEX
  8
0
  6
CONTINUOUS
 62
     7
 10
319.35001214316
 20
12.78443255642297
 42
0.1938987691653555
  0
VERTEX
  8
0
  6
CONTINUOUS
 62
     7
 10
322.2942839600086
 20
11.34665175964835
 42
0.02553136055714643
  0
VERTEX
  8
0
  6
CONTINUOUS
 62
     7
 10
325.6729289292065
 20
10.83502013040028
 42
0.01446583242551547
  0
VERTEX
  8
0
  6
CONTINUOUS
 62
     7
 10
329.082344894868
 20
10.58164084475829
 42
0.01162275125249971
  0
VERTEX
  8
0
  6
CONTINUOUS
 62
     7
 10
332.5
 20
10.503173828125
 42
0.01162444772987198
  0
VERTEX
  8
0
  6
CONTINUOUS
 62
     7
 10
335.9181109421924
 20
10.58166215016709
 42
0.01447191320538956
  0
VERTEX
  8
0
  6
CONTINUOUS
 62
     7
 10
339.3286212821457
 20
10.83518367267387
 42
0.02556016153305867
  0
VERTEX
  8
0
  6
CONTINUOUS
 62
     7
 10
342.7089567942722
 20
11.34734461322044
 42
0.1952857525117497
  0
VERTEX
  8
0
  6
CONTINUOUS
 62
     7
 10
345.649987828509
 20
12.78881475813337
 42
0.1938970346386859
  0
VERTEX
  8
0
  6
CONTINUOUS
 62
     7
 10
342.7057157601428
 20
14.22660275370712
 42
0.02553159831797421
  0
VERTEX
  8
0
  6
CONTINUOUS
 62
     7
 10
339.3270722648019
 20
14.73824396651164
 42
0.01446609579013606
  0
VERTEX
  8
0
  6
CONTINUOUS
 62
     7
 10
335.9176567800718
 20
14.99162951316865
 42
0.01162307440157556
  0
SEQEND
  8
0
  0
POLYLINE
  8
0
  6
CONTINUOUS
 62
     7
 66
     1
 10
0
 20
0
  0
VERTEX
  8
0
  6
CONTINUOUS
 62
     7
 10
321.5736999511719
 20
20.26150512695312
 42
0.01843525202588635
  0
VERTEX
  8
0
  6
CONTINUOUS
 62
     7
 10
320.5927266618542
 20
20.02168617099631
 42
0.00507882525242565
  0
VERTEX
  8
0
  6
CONTINUOUS
 62
     7
 10
319.6233124095504
 20
19.73862479335442
 42
0.02696868374645424
  0
VERTEX
  8
0
  6
CONTINUOUS
 62
     7
 10
318.6726062041068
 20
19.3987530764499
 42
0.05660729878813966
  0
VERTEX
  8
0
  6
CONTINUOUS
 62
     7
 10
317.7928084154179
 20
18.90715549538541
 42
0.06337965065018741
  0
VERTEX
  8
0
  6
CONTINUOUS
 62
     7
 10
317.0650117895957
 20
18.21049247414176
 42
0.06341675255996251
  0
VERTEX
  8
0
  6
CONTINUOUS
 62
     7
 10
316.5286680268244
 20
17.35648027882926
 42
0.07212843519056995
  0
VERTEX
  8
0
  6
CONTINUOUS
 62
     7
 10
316.243084688066
 20
16.39152965431817
 42
0.07237625315357402
  0
VERTEX
  8
0
  6
CONTINUOUS
 62
     7
 10
316.2431962530247
 20
15.38527765115636
 42
0.07211558853129975
  0
VERTEX
  8
0
  6
CONTINUOUS
 62
     7
 10
316.5289018735908
 20
14.4205679948472
 42
0.06331753536177026
  0
VERTEX
  8
0
  6
CONTINUOUS
 62
     7
 10
317.0643477569091
 20
13.56787907354877
 42
0.06336647317126189
  0
VERTEX
  8
0
  6
CONTINUOUS
 62
     7
 10
317.7919590361797
 20
12.87102464534024
 42
0.056639161816531
  0
VERTEX
  8
0
  6
CONTINUOUS
 62
     7
 10
318.6716552988526
 20
12.37921391879989
 42
0.02700149179082581
  0
VERTEX
  8
0
  6
CONTINUOUS
 62
     7
 10
319.6225536645557
 20
12.03916600952237
 42
0.005084234218348345
  0
VERTEX
  8
0
  6
CONTINUOUS
 62
     7
 10
320.592485880493
 20
11.75593817855074
 42
0.01843767337789663
  0
VERTEX
  8
0
  6
CONTINUOUS
 62
     7
 10
321.5736999511719
 20
11.51605224609375
 42
0
  0
SEQEND
  8
0
  0
POLYLINE
  8
0
  6
CONTINUOUS
 62
     7
 66
     1
 10
0
 20
0
  0
VERTEX
  8
0
  6
CONTINUOUS
 62
     7
 10
343.4263000488281
 20
20.26150512695312
 42
-0.01843525202588635
  0
VERTEX
  8
0
  6
CONTINUOUS
 62
     7
 10
344.4072733381458
 20
20.02168617099631
 42
-0.00507882525242565
  0
VERTEX
  8
0
  6
CONTINUOUS
 62
     7
 10
345.3766875904496
 20
19.73862479335442
 42
-0.02696868374645424
  0
VERTEX
  8
0
  6
CONTINUOUS
 62
     7
 10
346.3273937958932
 20
19.3987530764499
 42
-0.05660729878813966
  0
VERTEX
  8
0
  6
CONTINUOUS
 62
     7
 10
347.2071915845821
 20
18.90715549538541
 42
-0.06337965065019106
  0
VERTEX
  8
0
  6
CONTINUOUS
 62
     7
 10
347.9349882104043
 20
18.21049247414176
 42
-0.0634167525599625
  0
VERTEX
  8
0
  6
CONTINUOUS
 62
     7
 10
348.4713319731756
 20
17.35648027882926
 42
-0.0721284351905712
  0
VERTEX
  8
0
  6
CONTINUOUS
 62
     7
 10
348.756915311934
 20
16.39152965431817
 42
-0.07237625315357536
  0
VERTEX
  8
0
  6
CONTINUOUS
 62
     7
 10
348.7568037469753
 20
15.38527765115636
 42
-0.07211558853129964
  0
VERTEX
  8
0
  6
CONTINUOUS
 62
     7
 10
348.4710981264092
 20
14.4205679948472
 42
-0.06331753536177026
  0
VERTEX
  8
0
  6
CONTINUOUS
 62
     7
 10
347.9356522430909
 20
13.56787907354877
 42
-0.06336647317125854
  0
VERTEX
  8
0
  6
CONTINUOUS
 62
     7
 10
347.2080409638203
 20
12.87102464534024
 42
-0.056639161816531
  0
VERTEX
  8
0
  6
CONTINUOUS
 62
     7
 10
346.3283447011474
 20
12.37921391879989
 42
-0.02700149179082581
  0
VERTEX
  8
0
  6
CONTINUOUS
 62
     7
 10
345.3774463354443
 20
12.03916600952237
 42
-0.005084234218348567
  0
VERTEX
  8
0
  6
CONTINUOUS
 62
     7
 10
344.407514119507
 20
11.75593817855074
 42
-0.01843767337789685
  0
VERTEX
  8
0
  6
CONTINUOUS
 62
     7
 10
343.4263000488281
 20
11.51605224609375
 42
0
  0
SEQEND
  8
0
  0
TEXT
  8
0
  6
CONTINUOUS
 62
     7
 10
-87.42857670783997
 20
-9
 40
18
 41
1.034657687125121
  1
ERM-AA-200
  0
ENDSEC
  0
EOF
