  0
SECTION
  2
HEADER
  0
ENDSEC
  0
SECTION
  2
TABLES
  0
TABLE
  2
LTYPE
 70
    22
  0
LTYPE
  2
CONTINUOUS
 70
    64
  3
Solid line
 72
    65
 73
     0
 40
0.000000
  0
LTYPE
  2
DASHED
 70
    64
  3
__ __ __ __ __ __ __ __ __ __ __ __ __ __ __
 72
    65
 73
     2
 40
3.500000
 49
2.000000
 49
-1.500000
  0
LTYPE
  2
CENTER
 70
    64
  3
____ _ ____ _ ____ _ ____ _ ____ _ ____ _ ____
 72
    65
 73
     4
 40
17.500000
 49
13.000000
 49
-1.500000
 49
1.500000
 49
-1.500000
  0
LTYPE
  2
PHANTOM
 70
    64
  3
_____ _ _ _____ _ _ _____ _ _ _____ _ _ ____  
 72
    65
 73
     6
 40
15.500000
 49
8.000000
 49
-1.500000
 49
1.500000
 49
-1.500000
 49
1.500000
 49
-1.500000
  0
LTYPE
  2
DOT
 70
    64
  3
. . . . . . . . . . . . . . . . . . . . . . . .
 72
    65
 73
     2
 40
0.25
 49
0.0
 49
-0.25
  0
ENDTAB
  0
TABLE
  2
LAYER
 70
     1
  0
LAYER
  2
0
 70
     0
 62
     7
  6
CONTINUOUS
  0
ENDTAB
  0
TABLE
  2
STYLE
 70
     1
  0
STYLE
  2
STANDARD
 70
     0
 40
0.000000
 41
1.000000
 50
0.000000
 71
     0
 42
0.200000
  3
txt
  0
ENDTAB
  0
TABLE
  2
VIEW
 70
     0
  0
ENDTAB
  0
ENDSEC
  0
SECTION
  2
BLOCKS
  0
ENDSEC
  0
SECTION
  2
ENTITIES
  0
LINE
  8
0
  6
CONTINUOUS
 62
     3
 10
45.99785995483398
 20
132.2336120605469
 11
240.4978637695313
 21
132.2336120605469
  0
LINE
  8
0
  6
CONTINUOUS
 62
     3
 10
240.4978637695313
 20
-117.7663955688477
 11
45.99785995483398
 21
-117.7663955688477
  0
LINE
  8
0
  6
CONTINUOUS
 62
     7
 10
180.4978637695312
 20
-44.26639175415039
 11
157.9978637695312
 21
-44.26639175415039
  0
LINE
  8
0
  6
CONTINUOUS
 62
     7
 10
157.9978637695312
 20
-44.26639175415039
 11
157.9978637695312
 21
-112.7663955688477
  0
LINE
  8
0
  6
CONTINUOUS
 62
     7
 10
180.4978637695312
 20
-44.26639175415039
 11
180.4978637695312
 21
-140.2853393554688
  0
LINE
  8
0
  6
CONTINUOUS
 62
     7
 10
105.9978561401367
 20
-191.7663879394531
 11
105.9978561401367
 21
-207.7663879394531
  0
LINE
  8
0
  6
CONTINUOUS
 62
     7
 10
225.9978637695312
 20
-191.7663879394531
 11
225.9978637695312
 21
-207.7663879394531
  0
LINE
  8
0
  6
CONTINUOUS
 62
     7
 10
105.9978561401367
 20
-207.7663879394531
 11
225.9978637695312
 21
-207.7663879394531
  0
LINE
  8
0
  6
CONTINUOUS
 62
     7
 10
105.9978561401367
 20
-191.7663879394531
 11
132.87255859375
 21
-191.7663879394531
  0
LINE
  8
0
  6
CONTINUOUS
 62
     7
 10
108.9978561401367
 20
-146.769775390625
 11
108.9978561401367
 21
-191.7663879394531
  0
LINE
  8
0
  6
CONTINUOUS
 62
     7
 10
96.99785614013672
 20
-153.7663879394531
 11
108.9978561401367
 21
-153.7663879394531
  0
LINE
  8
0
  6
CONTINUOUS
 62
     7
 10
96.99785614013672
 20
-81.76639556884766
 11
113.4291000366211
 21
-81.76639556884766
  0
LINE
  8
0
  6
CONTINUOUS
 62
     7
 10
89.99785614013672
 20
-92.26639556884766
 11
89.99785614013672
 21
-143.2663879394531
  0
LINE
  8
0
  6
CONTINUOUS
 62
     7
 10
89.99779510498047
 20
-92.26625061035156
 11
96.99781036376953
 21
-88.22479248046875
  0
LINE
  8
0
  6
CONTINUOUS
 62
     7
 10
89.99784088134766
 20
-143.2664031982422
 11
96.99785614013672
 21
-147.307861328125
  0
LINE
  8
0
  6
CONTINUOUS
 62
     7
 10
147.9978637695313
 20
-45.26639175415039
 11
147.9978637695313
 21
-101.8803634643555
  0
LINE
  8
0
  6
CONTINUOUS
 62
     7
 10
147.9978637695313
 20
-45.26639175415039
 11
157.9978637695312
 21
-45.26639175415039
  0
LINE
  8
0
  6
CONTINUOUS
 62
     7
 10
132.9978637695312
 20
-65.76639556884766
 11
147.9978637695313
 21
-65.76639556884766
  0
LINE
  8
0
  6
CONTINUOUS
 62
     7
 10
132.9978637695312
 20
-65.76639556884766
 11
132.9978637695312
 21
-153.0955810546875
  0
LINE
  8
0
  6
CONTINUOUS
 62
     7
 10
110.4811935424805
 20
-93.39330291748047
 11
132.9978790283203
 21
-84.19503784179687
  0
LINE
  8
0
  6
CONTINUOUS
 62
     7
 10
132.9979553222656
 20
-103.6416320800781
 11
110.4813003540039
 21
-107.0084381103516
  0
LINE
  8
0
  6
CONTINUOUS
 62
     7
 10
132.9978485107422
 20
-131.8915100097656
 11
110.4812240600586
 21
-128.5247039794922
  0
LINE
  8
0
  6
CONTINUOUS
 62
     7
 10
107.9978561401367
 20
-75.26639556884766
 11
125.0771713256836
 21
-75.26639556884766
  0
LINE
  8
0
  6
CONTINUOUS
 62
     7
 10
107.9978561401367
 20
-75.26639556884766
 11
107.9978561401367
 21
-81.76639556884766
  0
LINE
  8
0
  6
CONTINUOUS
 62
     7
 10
108.9978561401367
 20
-141.769775390625
 11
120.4811935424805
 21
-141.769775390625
  0
LINE
  8
0
  6
CONTINUOUS
 62
     7
 10
132.9978637695312
 20
-153.0955810546875
 11
143.8867492675781
 21
-153.0955810546875
  0
LINE
  8
0
  6
CONTINUOUS
 62
     7
 10
120.4812545776367
 20
-141.7696990966797
 11
132.9979248046875
 21
-153.0955047607422
  0
LINE
  8
0
  6
CONTINUOUS
 62
     7
 10
150.9978637695313
 20
-112.7663955688477
 11
157.9978637695312
 21
-112.7663955688477
  0
LINE
  8
0
  6
CONTINUOUS
 62
     7
 10
137.7966918945312
 20
-187.6346435546875
 11
150.9979858398437
 21
-112.7663955688477
  0
LINE
  8
0
  6
CONTINUOUS
 62
     7
 10
172.9978637695313
 20
-127.7663955688477
 11
177.1434020996094
 21
-127.7663955688477
  0
LINE
  8
0
  6
CONTINUOUS
 62
     7
 10
147.9978637695313
 20
-101.8803634643555
 11
150.9978637695313
 21
-101.8803634643555
  0
LINE
  8
0
  6
CONTINUOUS
 62
     7
 10
177.1434020996094
 20
-127.7663650512695
 11
191.9089660644531
 21
-182.8722076416016
  0
LINE
  8
0
  6
CONTINUOUS
 62
     3
 10
120.9978561401367
 20
-187.6942443847656
 11
120.9978561401367
 21
-211.0598449707031
  0
LINE
  8
0
  6
CONTINUOUS
 62
     3
 10
210.9978637695313
 20
-187.6942443847656
 11
210.9978637695313
 21
-211.0598449707031
  0
LINE
  8
0
  6
CONTINUOUS
 62
     7
 10
110.481330871582
 20
-83.41164398193359
 11
132.9979858398438
 21
-70.84660339355469
  0
LINE
  8
0
  6
CONTINUOUS
 62
     7
 10
96.99785614013672
 20
-81.76639556884766
 11
96.99785614013672
 21
-153.7663879394531
  0
LINE
  8
0
  6
CONTINUOUS
 62
     7
 10
129.7395629882812
 20
-108.3335342407227
 11
117.0653533935547
 21
-109.8210678100586
  0
LINE
  8
0
  6
CONTINUOUS
 62
     7
 10
117.1909637451172
 20
-125.7256317138672
 11
129.7395172119141
 21
-127.2004852294922
  0
LINE
  8
0
  6
CONTINUOUS
 62
     7
 10
55.99785995483398
 20
-104.2663955688477
 11
55.99785995483398
 21
-128.7663879394531
  0
LINE
  8
0
  6
CONTINUOUS
 62
     7
 10
55.99785995483398
 20
-106.7663955688477
 11
85.99785614013672
 21
-106.7663955688477
  0
LINE
  8
0
  6
CONTINUOUS
 62
     7
 10
55.99785995483398
 20
-128.7663879394531
 11
85.99785614013672
 21
-128.7663879394531
  0
LINE
  8
0
  6
CONTINUOUS
 62
     7
 10
85.99785614013672
 20
-102.7663955688477
 11
85.99785614013672
 21
-132.7663879394531
  0
LINE
  8
0
  6
CONTINUOUS
 62
     7
 10
85.99785614013672
 20
-132.7663879394531
 11
89.99785614013672
 21
-132.7663879394531
  0
LINE
  8
0
  6
CONTINUOUS
 62
     7
 10
85.99785614013672
 20
-102.7663955688477
 11
89.99785614013672
 21
-102.7663955688477
  0
LINE
  8
0
  6
CONTINUOUS
 62
     7
 10
55.99785995483398
 20
-104.2663955688477
 11
80.99785614013672
 21
-104.2663955688477
  0
LINE
  8
0
  6
CONTINUOUS
 62
     7
 10
80.99785614013672
 20
-104.2663955688477
 11
80.99785614013672
 21
-106.7663955688477
  0
LINE
  8
0
  6
DASHED
 62
     7
 10
126.9978561401367
 20
-191.7663879394531
 11
126.9978561401367
 21
-207.7663879394531
  0
LINE
  8
0
  6
DASHED
 62
     7
 10
114.9978561401367
 20
-191.7663879394531
 11
114.9978561401367
 21
-207.7663879394531
  0
LINE
  8
0
  6
DASHED
 62
     7
 10
216.9978637695312
 20
-191.7663879394531
 11
216.9978637695312
 21
-207.7663879394531
  0
LINE
  8
0
  6
DASHED
 62
     7
 10
204.9978637695313
 20
-191.7663879394531
 11
204.9978637695313
 21
-207.7663879394531
  0
LINE
  8
0
  6
CONTINUOUS
 62
     7
 10
150.9978637695313
 20
-101.8803634643555
 11
150.9978637695313
 21
-112.7663955688477
  0
LINE
  8
0
  6
CONTINUOUS
 62
     7
 10
203.5000610351562
 20
-191.7663879394531
 11
225.9978637695312
 21
-191.7663879394531
  0
LINE
  8
0
  6
CONTINUOUS
 62
     7
 10
89.99785614013672
 20
157.7336120605469
 11
89.99785614013672
 21
106.7336044311523
  0
LINE
  8
0
  6
CONTINUOUS
 62
     7
 10
225.9978637695312
 20
52.23360824584961
 11
225.9978637695312
 21
49.73360824584961
  0
LINE
  8
0
  6
CONTINUOUS
 62
     7
 10
110.9978561401367
 20
44.73360824584961
 11
220.9978637695312
 21
44.73360824584961
  0
LINE
  8
0
  6
CONTINUOUS
 62
     7
 10
105.9978561401367
 20
79.73360443115234
 11
105.9978561401367
 21
49.73360824584961
  0
LINE
  8
0
  6
CONTINUOUS
 62
     7
 10
210.4978637695312
 20
75.54576110839844
 11
218.4978637695313
 21
72.54576873779297
  0
LINE
  8
0
  6
CONTINUOUS
 62
     7
 10
215.1085205078125
 20
75.13994598388672
 11
214.7897796630859
 21
75.73360443115234
  0
LINE
  8
0
  6
CONTINUOUS
 62
     7
 10
85.99785614013672
 20
147.2336120605469
 11
85.99785614013672
 21
117.2336044311523
  0
LINE
  8
0
  6
CONTINUOUS
 62
     7
 10
55.99785995483398
 20
143.2336120605469
 11
55.99785995483398
 21
121.2336044311523
  0
LINE
  8
0
  6
CONTINUOUS
 62
     7
 10
55.99785995483398
 20
143.2336120605469
 11
85.99785614013672
 21
143.2336120605469
  0
LINE
  8
0
  6
CONTINUOUS
 62
     7
 10
55.99785995483398
 20
121.2336044311523
 11
85.99785614013672
 21
121.2336044311523
  0
LINE
  8
0
  6
CONTINUOUS
 62
     7
 10
85.99785614013672
 20
117.2336044311523
 11
89.99785614013672
 21
117.2336044311523
  0
LINE
  8
0
  6
CONTINUOUS
 62
     7
 10
85.99785614013672
 20
147.2336120605469
 11
89.99785614013672
 21
147.2336120605469
  0
LINE
  8
0
  6
CONTINUOUS
 62
     7
 10
96.99785614013672
 20
168.2336120605469
 11
96.99785614013672
 21
96.23360443115234
  0
LINE
  8
0
  6
CONTINUOUS
 62
     7
 10
96.99785614013672
 20
168.2336120605469
 11
113.429313659668
 21
168.2336120605469
  0
LINE
  8
0
  6
CONTINUOUS
 62
     7
 10
96.99785614013672
 20
96.23360443115234
 11
113.4291915893555
 21
96.23360443115234
  0
LINE
  8
0
  6
CONTINUOUS
 62
     7
 10
132.9978637695312
 20
184.2336120605469
 11
147.9978637695313
 21
184.2336120605469
  0
LINE
  8
0
  6
CONTINUOUS
 62
     7
 10
132.9978637695312
 20
80.23360443115234
 11
147.9978637695313
 21
80.23360443115234
  0
LINE
  8
0
  6
CONTINUOUS
 62
     7
 10
157.9978637695312
 20
211.3217468261719
 11
157.9978637695312
 21
53.14547348022461
  0
LINE
  8
0
  6
CONTINUOUS
 62
     7
 10
147.9978637695313
 20
196.1592102050781
 11
147.9978637695313
 21
68.30800628662109
  0
LINE
  8
0
  6
CONTINUOUS
 62
     7
 10
132.9978637695312
 20
184.2336120605469
 11
132.9978637695312
 21
80.23360443115234
  0
LINE
  8
0
  6
CONTINUOUS
 62
     7
 10
89.99777221679688
 20
157.7339477539063
 11
96.99775695800781
 21
161.775390625
  0
LINE
  8
0
  6
CONTINUOUS
 62
     7
 10
89.99790191650391
 20
106.7336273193359
 11
96.99788665771484
 21
102.6921844482422
  0
LINE
  8
0
  6
CONTINUOUS
 62
     7
 10
110.481201171875
 20
121.4759216308594
 11
132.9978485107422
 21
118.109130859375
  0
LINE
  8
0
  6
CONTINUOUS
 62
     7
 10
110.4811477661133
 20
107.860237121582
 11
132.9978179931641
 21
98.66199493408203
  0
LINE
  8
0
  6
CONTINUOUS
 62
     7
 10
110.4812850952148
 20
97.87887573242188
 11
132.9979400634766
 21
85.31381225585938
  0
LINE
  8
0
  6
CONTINUOUS
 62
     7
 10
110.4811477661133
 20
142.9917755126953
 11
132.9978179931641
 21
146.3585662841797
  0
LINE
  8
0
  6
CONTINUOUS
 62
     7
 10
110.4813995361328
 20
156.6063232421875
 11
132.9981079101563
 21
165.8045959472656
  0
LINE
  8
0
  6
CONTINUOUS
 62
     7
 10
110.4809188842773
 20
166.5890197753906
 11
132.9975891113281
 21
179.1540985107422
  0
LINE
  8
0
  6
CONTINUOUS
 62
     7
 10
105.9978561401367
 20
184.7336120605469
 11
105.9978561401367
 21
214.7336120605469
  0
LINE
  8
0
  6
CONTINUOUS
 62
     7
 10
110.9978561401367
 20
219.7336120605469
 11
220.9978637695312
 21
219.7336120605469
  0
LINE
  8
0
  6
CONTINUOUS
 62
     7
 10
225.9978637695312
 20
212.2336120605469
 11
225.9978637695312
 21
214.7336120605469
  0
LINE
  8
0
  6
CONTINUOUS
 62
     7
 10
210.4978485107422
 20
188.9204406738281
 11
218.4978637695313
 21
191.9204406738281
  0
LINE
  8
0
  6
CONTINUOUS
 62
     7
 10
215.1083221435547
 20
189.327392578125
 11
214.7895050048828
 21
188.7336120605469
  0
LINE
  8
0
  6
CONTINUOUS
 62
     7
 10
108.9978561401367
 20
96.23360443115234
 11
108.9978561401367
 21
80.50926971435547
  0
LINE
  8
0
  6
CONTINUOUS
 62
     7
 10
108.9978561401367
 20
80.50926971435547
 11
132.9978637695312
 21
80.50926971435547
  0
LINE
  8
0
  6
CONTINUOUS
 62
     7
 10
108.9978561401367
 20
168.2336120605469
 11
108.9978561401367
 21
183.9579772949219
  0
LINE
  8
0
  6
CONTINUOUS
 62
     7
 10
108.9978561401367
 20
183.9579772949219
 11
132.9978637695312
 21
183.9579772949219
  0
LINE
  8
0
  6
CONTINUOUS
 62
     7
 10
55.99785995483398
 20
129.2336120605469
 11
80.99785614013672
 21
129.2336120605469
  0
LINE
  8
0
  6
CONTINUOUS
 62
     7
 10
55.99785995483398
 20
135.2336120605469
 11
80.99785614013672
 21
135.2336120605469
  0
LINE
  8
0
  6
CONTINUOUS
 62
     7
 10
80.99785614013672
 20
135.2336120605469
 11
80.99785614013672
 21
129.2336120605469
  0
LINE
  8
0
  6
CONTINUOUS
 62
     3
 10
210.9978637695313
 20
68.18767547607422
 11
210.9978637695313
 21
50.99926376342773
  0
LINE
  8
0
  6
CONTINUOUS
 62
     3
 10
203.0854797363281
 20
59.73360824584961
 11
218.9766845703125
 21
59.73360824584961
  0
LINE
  8
0
  6
CONTINUOUS
 62
     3
 10
113.0854721069336
 20
59.73360824584961
 11
128.9766845703125
 21
59.73360824584961
  0
LINE
  8
0
  6
CONTINUOUS
 62
     3
 10
120.9978561401367
 20
68.18767547607422
 11
120.9978561401367
 21
50.99926376342773
  0
LINE
  8
0
  6
CONTINUOUS
 62
     3
 10
113.0854721069336
 20
204.7336120605469
 11
128.9766845703125
 21
204.7336120605469
  0
LINE
  8
0
  6
CONTINUOUS
 62
     3
 10
120.9978561401367
 20
196.279541015625
 11
120.9978561401367
 21
213.4679565429687
  0
LINE
  8
0
  6
CONTINUOUS
 62
     3
 10
203.0854797363281
 20
204.7336120605469
 11
218.9766845703125
 21
204.7336120605469
  0
LINE
  8
0
  6
CONTINUOUS
 62
     3
 10
210.9978637695313
 20
196.279541015625
 11
210.9978637695313
 21
213.4679565429687
  0
LINE
  8
0
  6
CONTINUOUS
 62
     7
 10
112.1461868286133
 20
124.1244659423828
 11
132.9978637695312
 21
122.0792541503906
  0
LINE
  8
0
  6
CONTINUOUS
 62
     7
 10
112.1466903686523
 20
140.3430938720703
 11
132.9978790283203
 21
142.3893890380859
  0
LINE
  8
0
  6
CONTINUOUS
 62
     7
 10
147.9978637695313
 20
196.1592102050781
 11
150.9978637695313
 21
196.1592102050781
  0
LINE
  8
0
  6
CONTINUOUS
 62
     7
 10
147.9978637695313
 20
68.30800628662109
 11
150.9978637695313
 21
68.30800628662109
  0
LINE
  8
0
  6
CONTINUOUS
 62
     7
 10
150.9978637695313
 20
68.30800628662109
 11
150.9978637695313
 21
53.14547348022461
  0
LINE
  8
0
  6
CONTINUOUS
 62
     7
 10
136.4013214111328
 20
46.07727813720703
 11
150.6461944580078
 21
53.14547729492187
  0
LINE
  8
0
  6
CONTINUOUS
 62
     7
 10
150.6461791992187
 20
53.14547348022461
 11
177.4343872070313
 21
53.14547348022461
  0
LINE
  8
0
  6
CONTINUOUS
 62
     7
 10
177.4343872070313
 20
53.14547348022461
 11
194.8528900146484
 21
46.12488174438477
  0
LINE
  8
0
  6
CONTINUOUS
 62
     7
 10
136.4013214111328
 20
218.3899230957031
 11
150.6461944580078
 21
211.3217315673828
  0
LINE
  8
0
  6
CONTINUOUS
 62
     7
 10
150.9978637695313
 20
196.1592102050781
 11
150.9978637695313
 21
211.3217468261719
  0
LINE
  8
0
  6
CONTINUOUS
 62
     7
 10
150.6461791992187
 20
211.3217468261719
 11
177.4343872070313
 21
211.3217468261719
  0
LINE
  8
0
  6
CONTINUOUS
 62
     7
 10
177.4343872070313
 20
211.3217468261719
 11
194.8528900146484
 21
218.3423461914063
  0
LINE
  8
0
  6
CONTINUOUS
 62
     7
 10
180.4978637695312
 20
205.7336120605469
 11
157.9978637695312
 21
205.7336120605469
  0
LINE
  8
0
  6
CONTINUOUS
 62
     7
 10
180.4978637695312
 20
58.73360824584961
 11
157.9978637695312
 21
58.73360824584961
  0
LINE
  8
0
  6
CONTINUOUS
 62
     7
 10
-182.0078277587891
 20
-53.95256423950195
 11
-184.4562072753906
 21
-56.40093994140625
  0
LINE
  8
0
  6
CONTINUOUS
 62
     7
 10
-205.3675994873047
 20
-77.31233978271484
 11
-207.8172454833984
 21
-79.76198577880859
  0
LINE
  8
0
  6
CONTINUOUS
 62
     7
 10
-231.5021362304687
 20
-207.7663879394531
 11
-191.5021362304688
 21
-207.7663879394531
  0
LINE
  8
0
  6
CONTINUOUS
 62
     3
 10
-144.0021362304688
 20
-27.76639175415039
 11
-144.0021362304688
 21
-214.7663879394531
  0
LINE
  8
0
  6
CONTINUOUS
 62
     7
 10
-231.5021362304687
 20
-191.7663879394531
 11
-231.5021362304687
 21
-207.7663879394531
  0
LINE
  8
0
  6
CONTINUOUS
 62
     7
 10
-56.50214004516602
 20
-191.7663879394531
 11
-56.50214004516602
 21
-207.7663879394531
  0
LINE
  8
0
  6
CONTINUOUS
 62
     7
 10
-231.5021362304687
 20
-191.7663879394531
 11
-191.5021362304688
 21
-191.7663879394531
  0
LINE
  8
0
  6
CONTINUOUS
 62
     7
 10
-188.5021362304687
 20
-204.7663879394531
 11
-99.50214385986328
 21
-204.7663879394531
  0
LINE
  8
0
  6
CONTINUOUS
 62
     7
 10
-191.5021362304688
 20
-191.7663879394531
 11
-191.5021362304688
 21
-207.7663879394531
  0
LINE
  8
0
  6
CONTINUOUS
 62
     7
 10
-96.50214385986328
 20
-191.7663879394531
 11
-96.50214385986328
 21
-207.7663879394531
  0
LINE
  8
0
  6
CONTINUOUS
 62
     7
 10
-96.50214385986328
 20
-191.7663879394531
 11
-56.50214004516602
 21
-191.7663879394531
  0
LINE
  8
0
  6
CONTINUOUS
 62
     7
 10
-96.50214385986328
 20
-207.7663879394531
 11
-56.50214004516602
 21
-207.7663879394531
  0
LINE
  8
0
  6
CONTINUOUS
 62
     3
 10
-235.0286407470703
 20
-117.7663955688477
 11
-52.97684478759766
 21
-117.7663955688477
  0
LINE
  8
0
  6
CONTINUOUS
 62
     7
 10
-102.4420700073242
 20
-81.72686767578125
 11
-91.46088409423828
 21
-77.76736450195313
  0
LINE
  8
0
  6
CONTINUOUS
 62
     7
 10
-92.01496887207031
 20
-99.78896331787109
 11
-83.09532165527344
 21
-92.25872039794922
  0
LINE
  8
0
  6
CONTINUOUS
 62
     7
 10
-154.4317169189453
 20
-63.75473022460938
 11
-152.3701477050781
 21
-52.26492309570313
  0
LINE
  8
0
  6
CONTINUOUS
 62
     7
 10
-133.5753784179688
 20
-63.75511169433594
 11
-135.6369323730469
 21
-52.26540756225586
  0
LINE
  8
0
  6
CONTINUOUS
 62
     3
 10
-93.75421142578125
 20
-88.75450134277344
 11
-81.36585235595703
 21
-81.60208892822266
  0
LINE
  8
0
  6
CONTINUOUS
 62
     7
 10
-195.9919891357422
 20
-99.79240417480469
 11
-204.91162109375
 21
-92.26217651367188
  0
LINE
  8
0
  6
CONTINUOUS
 62
     7
 10
-185.5635070800781
 20
-81.72969055175781
 11
-196.5446929931641
 21
-77.77018737792969
  0
LINE
  8
0
  6
CONTINUOUS
 62
     3
 10
-191.1280822753906
 20
-90.55805206298828
 11
-205.0329284667969
 21
-82.53008270263672
  0
LINE
  8
0
  6
CONTINUOUS
 62
     7
 10
-185.5641021728516
 20
-153.8011627197266
 11
-196.5452728271484
 21
-157.7606658935547
  0
LINE
  8
0
  6
CONTINUOUS
 62
     7
 10
-195.9931488037109
 20
-135.7391815185547
 11
-204.9127960205078
 21
-143.2694396972656
  0
LINE
  8
0
  6
CONTINUOUS
 62
     3
 10
-191.6461181640625
 20
-145.2742004394531
 11
-206.0437469482422
 21
-153.5866546630859
  0
LINE
  8
0
  6
CONTINUOUS
 62
     7
 10
-133.5775756835937
 20
-171.7770385742187
 11
-135.6391296386719
 21
-183.2667846679687
  0
LINE
  8
0
  6
CONTINUOUS
 62
     7
 10
-154.4333648681641
 20
-171.7783355712891
 11
-152.3718109130859
 21
-183.26806640625
  0
LINE
  8
0
  6
CONTINUOUS
 62
     7
 10
-92.01383972167969
 20
-135.7421569824219
 11
-83.09422302246094
 21
-143.2723846435547
  0
LINE
  8
0
  6
CONTINUOUS
 62
     7
 10
-102.4409942626953
 20
-153.8031311035156
 11
-91.45981597900391
 21
-157.7626342773437
  0
LINE
  8
0
  6
CONTINUOUS
 62
     3
 10
-95.67142486572266
 20
-145.6699371337891
 11
-81.94695281982422
 21
-153.5937652587891
  0
LINE
  8
0
  6
CONTINUOUS
 62
     7
 10
-67.15003204345703
 20
-112.7663955688477
 11
-63.41376113891602
 21
-112.7663955688477
  0
LINE
  8
0
  6
CONTINUOUS
 62
     7
 10
-147.0021362304687
 20
-104.2663955688477
 11
-147.0021362304687
 21
-110.2663955688477
  0
LINE
  8
0
  6
CONTINUOUS
 62
     7
 10
-141.0021362304687
 20
-104.2663955688477
 11
-141.0021362304687
 21
-110.2663955688477
  0
LINE
  8
0
  6
CONTINUOUS
 62
     7
 10
-147.0021362304687
 20
-110.2663955688477
 11
-141.0021362304687
 21
-110.2663955688477
  0
LINE
  8
0
  6
CONTINUOUS
 62
     7
 10
-63.41428756713867
 20
-112.7663955688477
 11
-56.50267791748047
 21
-191.7664184570312
  0
LINE
  8
0
  6
CONTINUOUS
 62
     7
 10
-224.5911865234375
 20
-112.7662887573242
 11
-231.5027923583984
 21
-191.7662506103516
  0
LINE
  8
0
  6
CONTINUOUS
 62
     7
 10
-220.5751953125
 20
-112.7663955688477
 11
-224.5905151367188
 21
-112.7663955688477
  0
LINE
  8
0
  6
CONTINUOUS
 62
     3
 10
-216.5021362304688
 20
-187.2922668457031
 11
-216.5021362304688
 21
-211.1166687011719
  0
LINE
  8
0
  6
CONTINUOUS
 62
     3
 10
-71.50214385986328
 20
-186.9017028808594
 11
-71.50214385986328
 21
-211.1166687011719
  0
LINE
  8
0
  6
CONTINUOUS
 62
     7
 10
-147.0021362304687
 20
-104.2663955688477
 11
-141.0021362304687
 21
-104.2663955688477
  0
LINE
  8
0
  6
DASHED
 62
     7
 10
-222.5021362304688
 20
-191.7663879394531
 11
-222.5021362304688
 21
-207.7663879394531
  0
LINE
  8
0
  6
DASHED
 62
     7
 10
-210.5021362304688
 20
-191.7663879394531
 11
-210.5021362304688
 21
-207.7663879394531
  0
LINE
  8
0
  6
DASHED
 62
     7
 10
-65.50214385986328
 20
-191.7663879394531
 11
-65.50214385986328
 21
-207.7663879394531
  0
LINE
  8
0
  6
DASHED
 62
     7
 10
-77.50214385986328
 20
-191.7663879394531
 11
-77.50214385986328
 21
-207.7663879394531
  0
LINE
  8
0
  6
CONTINUOUS
 62
     7
 10
-181.6719512939453
 20
-156.6022644042969
 11
-193.3955841064453
 21
-191.1232147216797
  0
LINE
  8
0
  6
CONTINUOUS
 62
     7
 10
-106.3319931030273
 20
-156.6026000976562
 11
-94.60845947265625
 21
-191.1232604980469
  0
LINE
  8
0
  6
CONTINUOUS
 62
     7
 10
-107.6759262084961
 20
-108.0328140258789
 11
-96.67177581787109
 21
-105.0842666625977
  0
LINE
  8
0
  6
CONTINUOUS
 62
     7
 10
-117.4094924926758
 20
-91.17375946044922
 11
-109.3539047241211
 21
-83.1181640625
  0
LINE
  8
0
  6
CONTINUOUS
 62
     7
 10
-134.2685546875
 20
-81.44017028808594
 11
-131.3199920654297
 21
-70.43603515625
  0
LINE
  8
0
  6
CONTINUOUS
 62
     7
 10
-153.7357177734375
 20
-81.44017791748047
 11
-156.6842803955078
 21
-70.43603515625
  0
LINE
  8
0
  6
CONTINUOUS
 62
     7
 10
-170.5947723388672
 20
-91.17375946044922
 11
-178.6503601074219
 21
-83.11815643310547
  0
LINE
  8
0
  6
CONTINUOUS
 62
     7
 10
-180.3283843994141
 20
-108.0328140258789
 11
-191.3325042724609
 21
-105.0842666625977
  0
LINE
  8
0
  6
CONTINUOUS
 62
     7
 10
-180.3283538818359
 20
-127.4999771118164
 11
-191.3325042724609
 21
-130.4485321044922
  0
LINE
  8
0
  6
CONTINUOUS
 62
     7
 10
-169.4579772949219
 20
-143.2222290039062
 11
-179.7537078857422
 21
-153.5179748535156
  0
LINE
  8
0
  6
CONTINUOUS
 62
     7
 10
-153.7357177734375
 20
-154.0926361083984
 11
-156.6842651367188
 21
-165.0967559814453
  0
LINE
  8
0
  6
CONTINUOUS
 62
     7
 10
-134.2685546875
 20
-154.0926208496094
 11
-131.3200073242188
 21
-165.0967712402344
  0
LINE
  8
0
  6
CONTINUOUS
 62
     7
 10
-117.4094924926758
 20
-144.3590240478516
 11
-108.2502059936523
 21
-153.518310546875
  0
LINE
  8
0
  6
CONTINUOUS
 62
     7
 10
-107.6759185791016
 20
-127.4999771118164
 11
-96.67176818847656
 21
-130.4485321044922
  0
LINE
  8
0
  6
CONTINUOUS
 62
     7
 10
-153.8370971679688
 20
-75.26639556884766
 11
-134.1671752929687
 21
-75.26639556884766
  0
LINE
  8
0
  6
CONTINUOUS
 62
     7
 10
-185.0021362304688
 20
-108.3334732055664
 11
-185.0021362304688
 21
-127.1995010375977
  0
LINE
  8
0
  6
CONTINUOUS
 62
     7
 10
-153.83740234375
 20
-160.2663879394531
 11
-134.167724609375
 21
-160.2663879394531
  0
LINE
  8
0
  6
CONTINUOUS
 62
     7
 10
-103.0021438598633
 20
-108.3333511352539
 11
-103.0021438598633
 21
-127.2004165649414
  0
LINE
  8
0
  6
CONTINUOUS
 62
     7
 10
180.4978637695312
 20
204.7336120605469
 11
195.4978637695312
 21
204.7336120605469
  0
LINE
  8
0
  6
CONTINUOUS
 62
     7
 10
195.4978637695312
 20
137.2336120605469
 11
218.4978637695313
 21
137.2336120605469
  0
LINE
  8
0
  6
CONTINUOUS
 62
     7
 10
195.4978637695312
 20
127.2336044311523
 11
218.4978637695313
 21
127.2336044311523
  0
LINE
  8
0
  6
CONTINUOUS
 62
     7
 10
180.4978637695312
 20
59.73360824584961
 11
195.4978637695312
 21
59.73360824584961
  0
LINE
  8
0
  6
CONTINUOUS
 62
     7
 10
195.4978637695312
 20
188.2336120605469
 11
218.4978637695313
 21
188.2336120605469
  0
LINE
  8
0
  6
CONTINUOUS
 62
     7
 10
195.4978637695312
 20
76.23360443115234
 11
218.4978637695313
 21
76.23360443115234
  0
LINE
  8
0
  6
CONTINUOUS
 62
     7
 10
200.4978637695313
 20
94.23360443115234
 11
213.4978637695312
 21
94.23360443115234
  0
LINE
  8
0
  6
CONTINUOUS
 62
     7
 10
218.4978637695313
 20
52.23360824584961
 11
230.4978637695312
 21
52.23360824584961
  0
LINE
  8
0
  6
CONTINUOUS
 62
     7
 10
200.4978637695313
 20
170.2336120605469
 11
213.4978637695312
 21
170.2336120605469
  0
LINE
  8
0
  6
CONTINUOUS
 62
     7
 10
218.4978637695313
 20
212.2336120605469
 11
218.4978637695313
 21
52.23360824584961
  0
LINE
  8
0
  6
CONTINUOUS
 62
     7
 10
218.4978637695313
 20
212.2336120605469
 11
230.4978637695312
 21
212.2336120605469
  0
LINE
  8
0
  6
CONTINUOUS
 62
     7
 10
230.4978637695312
 20
212.2336120605469
 11
230.4978637695312
 21
52.23360824584961
  0
LINE
  8
0
  6
CONTINUOUS
 62
     7
 10
195.4978637695312
 20
59.73360824584961
 11
195.4978637695312
 21
141.4042663574219
  0
LINE
  8
0
  6
CONTINUOUS
 62
     7
 10
180.4978637695312
 20
58.73360824584961
 11
180.4978637695312
 21
143.2560729980469
  0
LINE
  8
0
  6
CONTINUOUS
 62
     7
 10
180.4978637695312
 20
153.0846862792969
 11
180.4978637695312
 21
205.7336120605469
  0
LINE
  8
0
  6
CONTINUOUS
 62
     7
 10
195.4978637695312
 20
153.2055358886719
 11
195.4978637695312
 21
204.7336120605469
  0
LINE
  8
0
  6
CONTINUOUS
 62
     7
 10
180.4978637695312
 20
-140.2853546142578
 11
180.4978637695312
 21
-45.26639175415039
  0
LINE
  8
0
  6
CONTINUOUS
 62
     7
 10
195.4978637695312
 20
-188.7086944580078
 11
195.4978637695312
 21
-45.26639175415039
  0
LINE
  8
0
  6
CONTINUOUS
 62
     7
 10
230.4978637695312
 20
-37.76639175415039
 11
230.4978637695312
 21
-197.7663879394531
  0
LINE
  8
0
  6
CONTINUOUS
 62
     7
 10
218.4978637695313
 20
-37.76639175415039
 11
230.4978637695312
 21
-37.76639175415039
  0
LINE
  8
0
  6
CONTINUOUS
 62
     7
 10
218.4978637695313
 20
-37.76639175415039
 11
218.4978637695313
 21
-191.7663879394531
  0
LINE
  8
0
  6
CONTINUOUS
 62
     7
 10
200.4978637695313
 20
-79.76639556884766
 11
213.4978637695312
 21
-79.76639556884766
  0
LINE
  8
0
  6
CONTINUOUS
 62
     7
 10
225.9978637695312
 20
-197.7663879394531
 11
230.4978637695312
 21
-197.7663879394531
  0
LINE
  8
0
  6
CONTINUOUS
 62
     7
 10
200.4978637695313
 20
-155.7663879394531
 11
213.4978637695312
 21
-155.7663879394531
  0
LINE
  8
0
  6
CONTINUOUS
 62
     7
 10
195.4978637695312
 20
-173.7663879394531
 11
218.4978637695313
 21
-173.7663879394531
  0
LINE
  8
0
  6
CONTINUOUS
 62
     7
 10
195.4978637695312
 20
-61.76639175415039
 11
218.4978637695313
 21
-61.76639175415039
  0
LINE
  8
0
  6
CONTINUOUS
 62
     7
 10
195.4978637695312
 20
-122.7663955688477
 11
218.4978637695313
 21
-122.7663955688477
  0
LINE
  8
0
  6
CONTINUOUS
 62
     7
 10
195.4978637695312
 20
-112.7663955688477
 11
218.4978637695313
 21
-112.7663955688477
  0
LINE
  8
0
  6
CONTINUOUS
 62
     7
 10
186.4978485107422
 20
-44.85631942749023
 11
186.9079437255859
 21
-45.26641082763672
  0
LINE
  8
0
  6
CONTINUOUS
 62
     7
 10
188.4978942871094
 20
-44.85623550415039
 11
188.9079895019531
 21
-45.26632690429688
  0
LINE
  8
0
  6
CONTINUOUS
 62
     7
 10
180.4978637695312
 20
-45.26639175415039
 11
195.4978637695312
 21
-45.26639175415039
  0
LINE
  8
0
  6
CONTINUOUS
 62
     7
 10
188.4978637695313
 20
-48.01236343383789
 11
188.4978637695313
 21
-9.022251129150391
  0
LINE
  8
0
  6
CONTINUOUS
 62
     7
 10
169.0770874023437
 20
-27.85623550415039
 11
207.4539947509766
 21
-27.85623550415039
  0
LINE
  8
0
  6
CONTINUOUS
 62
     7
 10
180.4978485107422
 20
-44.85628128051758
 11
181.0880889892578
 21
-41.50887298583984
  0
LINE
  8
0
  6
CONTINUOUS
 62
     7
 10
183.0576934814453
 20
-39.85623550415039
 11
193.9380187988281
 21
-39.85623550415039
  0
LINE
  8
0
  6
CONTINUOUS
 62
     7
 10
182.3675537109375
 20
-39.97922515869141
 11
188.1576232910156
 21
-37.85058975219727
  0
LINE
  8
0
  6
CONTINUOUS
 62
     7
 10
188.8380889892578
 20
-37.85061264038086
 11
194.6281433105469
 21
-39.97924423217773
  0
LINE
  8
0
  6
CONTINUOUS
 62
     7
 10
180.4965667724609
 20
-44.85623550415039
 11
196.4978637695313
 21
-44.85623550415039
  0
LINE
  8
0
  6
CONTINUOUS
 62
     7
 10
180.7978515625
 20
-44.85623550415039
 11
180.7978515625
 21
-45.26639175415039
  0
LINE
  8
0
  6
CONTINUOUS
 62
     7
 10
196.1978607177734
 20
-44.85623550415039
 11
196.1978607177734
 21
-46.85623550415039
  0
LINE
  8
0
  6
CONTINUOUS
 62
     7
 10
195.4978637695312
 20
-46.85623550415039
 11
196.1978607177734
 21
-46.85623550415039
  0
LINE
  8
0
  6
CONTINUOUS
 62
     7
 10
195.9076232910156
 20
-41.50888824462891
 11
196.4978485107422
 21
-44.85617446899414
  0
LINE
  8
0
  6
CONTINUOUS
 62
     7
 10
-156.2752380371094
 20
-48.1622314453125
 11
-163.5038909912109
 21
-7.16648530960083
  0
LINE
  8
0
  6
CONTINUOUS
 62
     7
 10
-150.5099639892578
 20
-39.02659606933594
 11
-149.0604705810547
 21
-43.00904846191406
  0
LINE
  8
0
  6
CONTINUOUS
 62
     7
 10
-154.8866882324219
 20
-37.89681243896484
 11
-151.3161773681641
 21
-38.37747955322266
  0
LINE
  8
0
  6
CONTINUOUS
 62
     7
 10
-159.0722961425781
 20
-14.15918731689453
 11
-154.1840972900391
 21
-41.88154983520508
  0
LINE
  8
0
  6
CONTINUOUS
 62
     7
 10
-164.8174133300781
 20
-41.54935073852539
 11
-164.8174133300781
 21
-45.78738784790039
  0
LINE
  8
0
  6
CONTINUOUS
 62
     7
 10
-161.0909881591797
 20
-38.99078369140625
 11
-164.2817687988281
 21
-40.66365051269531
  0
LINE
  8
0
  6
CONTINUOUS
 62
     7
 10
-165.2765808105469
 20
-15.25317001342773
 11
-160.3883819580078
 21
-42.97553253173828
  0
LINE
  8
0
  6
CONTINUOUS
 62
     7
 10
-164.8174133300781
 20
-45.7873420715332
 11
-149.0604858398438
 21
-43.00897216796875
  0
LINE
  8
0
  6
CONTINUOUS
 62
     7
 10
-149.3559417724609
 20
-43.06106948852539
 11
-149.1120452880859
 21
-44.44423294067383
  0
LINE
  8
0
  6
CONTINUOUS
 62
     7
 10
-164.52197265625
 20
-45.73524856567383
 11
-164.2780914306641
 21
-47.1184196472168
  0
LINE
  8
0
  6
CONTINUOUS
 62
     7
 10
-157.7423858642578
 20
-45.56212997436523
 11
-158.9085998535156
 21
-44.74553680419922
  0
LINE
  8
0
  6
CONTINUOUS
 62
     7
 10
-156.9389343261719
 20
-44.3983154296875
 11
-155.7725982666016
 21
-45.21498870849609
  0
ARC
  8
0
  6
CONTINUOUS
 62
     7
 10
203.5000610351562
 20
-179.7663879394531
 40
11.99999999999999
 50
195.0000056537405
 51
270.0000179860893
  0
ARC
  8
0
  6
CONTINUOUS
 62
     7
 10
117.9978561401367
 20
-117.7663955688477
 40
7.999999999999996
 50
96.6939430609275
 51
264.2191471358
  0
ARC
  8
0
  6
CONTINUOUS
 62
     7
 10
103.9978561401367
 20
-146.769775390625
 40
5
 50
0
 51
89.99998201391064
  0
ARC
  8
0
  6
CONTINUOUS
 62
     7
 10
172.9978637695313
 20
-112.7663955688477
 40
15
 50
179.9999776881997
 51
270.0000280040019
  0
ARC
  8
0
  6
CONTINUOUS
 62
     7
 10
132.87255859375
 20
-186.7663879394531
 40
4.99999999999999
 50
270.0000179860893
 51
349.9999516258091
  0
CIRCLE
  8
0
  6
CONTINUOUS
 62
     7
 10
120.9978561401367
 20
204.7336120605469
 40
6
  0
CIRCLE
  8
0
  6
CONTINUOUS
 62
     7
 10
210.9978637695313
 20
204.7336120605469
 40
6
  0
ARC
  8
0
  6
CONTINUOUS
 62
     7
 10
110.9978561401367
 20
49.73360824584961
 40
4.999999999999996
 50
179.9999776881996
 51
270.0000280040019
  0
ARC
  8
0
  6
CONTINUOUS
 62
     7
 10
220.9978637695312
 20
49.73360824584961
 40
4.999999999999997
 50
270.0000179860893
 51
0
  0
ARC
  8
0
  6
CONTINUOUS
 62
     7
 10
110.9978561401367
 20
79.73360443115234
 40
4.999999999999996
 50
113.5781775193883
 51
179.9999640278213
  0
ARC
  8
0
  6
CONTINUOUS
 62
     7
 10
219.5137634277344
 20
77.50511932373047
 40
4.999999999999999
 50
208.2318715856176
 51
249.4439353015322
  0
ARC
  8
0
  6
CONTINUOUS
 62
     7
 10
117.9978561401367
 20
132.2336120605469
 40
10
 50
125.8133549268205
 51
234.1870239213073
  0
ARC
  8
0
  6
CONTINUOUS
 62
     7
 10
110.9978561401367
 20
184.7336120605469
 40
4.999999999999996
 50
179.9999776881996
 51
246.4218324985245
  0
ARC
  8
0
  6
CONTINUOUS
 62
     7
 10
110.9978561401367
 20
214.7336120605469
 40
5.00000000000001
 50
89.99992737239728
 51
179.9999640278213
  0
ARC
  8
0
  6
CONTINUOUS
 62
     7
 10
220.9978637695312
 20
214.7336120605469
 40
5
 50
359.9999453584866
 51
89.99992737239728
  0
ARC
  8
0
  6
CONTINUOUS
 62
     7
 10
219.5137634277344
 20
186.9621276855469
 40
5.000000000000013
 50
110.5560100569543
 51
151.7681830558957
  0
ARC
  8
0
  6
CONTINUOUS
 62
     7
 10
80.99785614013672
 20
132.2336120605469
 40
3.000000000000006
 50
270.0000179860893
 51
89.9999820139107
  0
CIRCLE
  8
0
  6
CONTINUOUS
 62
     7
 10
210.9978637695313
 20
59.73360824584961
 40
6
  0
CIRCLE
  8
0
  6
CONTINUOUS
 62
     7
 10
120.9978561401367
 20
59.73360824584961
 40
6
  0
ARC
  8
0
  6
CONTINUOUS
 62
     7
 10
-144.0021362304688
 20
-117.7663955688477
 40
73.5
 50
308.6748201046005
 51
231.0248102601315
  0
ARC
  8
0
  6
CONTINUOUS
 62
     7
 10
-178.4743041992188
 20
-57.48617935180664
 40
5.000000000000002
 50
82.85100742476597
 51
135.000533096378
  0
ARC
  8
0
  6
CONTINUOUS
 62
     7
 10
-204.2835083007812
 20
-83.29572296142578
 40
4.999999999999988
 50
135.0003281907028
 51
187.1557346551901
  0
ARC
  8
0
  6
CONTINUOUS
 62
     7
 10
-144.0021362304688
 20
-117.7663955688477
 40
52.00000000000001
 50
317.2032196985211
 51
222.7971234047991
  0
CIRCLE
  8
0
  6
CONTINUOUS
 62
     7
 10
-144.0021362304688
 20
-117.7663955688477
 40
36
  0
CIRCLE
  8
0
  6
CONTINUOUS
 62
     7
 10
-144.0021362304688
 20
-117.7663955688477
 40
25.5
  0
ARC
  8
0
  6
CONTINUOUS
 62
     3
 10
-144.0021362304688
 20
-117.7663955688477
 40
64.00000000000001
 50
262.7235169349513
 51
276.6528817848702
  0
ARC
  8
0
  6
CONTINUOUS
 62
     7
 10
-88.57654571533203
 20
-85.76639556884766
 40
8.499999999999996
 50
310.1721717404911
 51
109.8278162687825
  0
ARC
  8
0
  6
CONTINUOUS
 62
     7
 10
-144.0021362304688
 20
-53.76639175415039
 40
8.499999999999988
 50
10.17218707052168
 51
169.827831598813
  0
ARC
  8
0
  6
CONTINUOUS
 62
     7
 10
-199.427734375
 20
-85.76639556884766
 40
8.500000000000004
 50
70.17218190998452
 51
229.8278332684651
  0
ARC
  8
0
  6
CONTINUOUS
 62
     7
 10
-199.427734375
 20
-149.7663269042969
 40
8.499999999999995
 50
130.1721767494476
 51
289.8278212777389
  0
ARC
  8
0
  6
CONTINUOUS
 62
     7
 10
-144.0021362304688
 20
-181.7663269042969
 40
8.499999999999993
 50
190.1721820615654
 51
349.8278265898566
  0
ARC
  8
0
  6
CONTINUOUS
 62
     7
 10
-88.57654571533203
 20
-149.7663269042969
 40
8.499999999999993
 50
250.1721769010283
 51
49.82782142931965
  0
ARC
  8
0
  6
CONTINUOUS
 62
     7
 10
-144.0021362304688
 20
-117.7663955688477
 40
51.99999999999999
 50
227.2056726470495
 51
312.794759476101
  0
ARC
  8
0
  6
CONTINUOUS
 62
     7
 10
-67.15003204345703
 20
-107.7663955688477
 40
4.999999999999998
 50
223.1602062431643
 51
270.0000179860893
  0
ARC
  8
0
  6
CONTINUOUS
 62
     7
 10
-144.0021362304688
 20
-117.7663955688477
 40
10.99999999999999
 50
105.8266368114758
 51
74.17337821539321
  0
ARC
  8
0
  6
CONTINUOUS
 62
     7
 10
-188.5021362304687
 20
-207.7663879394531
 40
3.000000000000006
 50
89.99998201391043
 51
179.9999640278214
  0
ARC
  8
0
  6
CONTINUOUS
 62
     7
 10
-99.50214385986328
 20
-207.7663879394531
 40
3
 50
0
 51
89.9999820139107
  0
ARC
  8
0
  6
CONTINUOUS
 62
     7
 10
-220.854248046875
 20
-107.7663955688477
 40
5.000000000000006
 50
273.2070854995445
 51
316.8397921629738
  0
ARC
  8
0
  6
CONTINUOUS
 62
     3
 10
-144.0021362304688
 20
-117.7663955688477
 40
64
 50
323.7564412825952
 51
336.2875280980819
  0
ARC
  8
0
  6
CONTINUOUS
 62
     3
 10
-144.0021362304688
 20
-117.7663955688477
 40
64
 50
23.80862559750625
 51
36.97342590192314
  0
ARC
  8
0
  6
CONTINUOUS
 62
     3
 10
-144.0021362304688
 20
-117.7663955688477
 40
64
 50
83.35940572544663
 51
95.80329322334701
  0
ARC
  8
0
  6
CONTINUOUS
 62
     3
 10
-144.0021362304688
 20
-117.7663955688477
 40
64
 50
143.0914249230133
 51
156.5041952452475
  0
ARC
  8
0
  6
CONTINUOUS
 62
     3
 10
-144.0021362304688
 20
-117.7663955688477
 40
64
 50
202.9723527171411
 51
216.6502300018201
  0
ARC
  8
0
  6
CONTINUOUS
 62
     7
 10
-174.0968627929687
 20
-159.1748352050781
 40
8.000000000000004
 50
135.0000003416226
 51
161.2420379252968
  0
ARC
  8
0
  6
CONTINUOUS
 62
     7
 10
-113.9070816040039
 20
-159.1751708984375
 40
7.999999999999993
 50
18.75796025347028
 51
45.00000125223906
  0
ARC
  8
0
  6
CONTINUOUS
 62
     7
 10
-144.0021362304688
 20
-117.7663955688477
 40
73.5
 50
236.3287563214356
 51
305.0951760172048
  0
ARC
  8
0
  6
CONTINUOUS
 62
     7
 10
200.4978637695313
 20
89.23360443115234
 40
5.000000000000004
 50
90.00000250447815
 51
180.0000050089563
  0
ARC
  8
0
  6
CONTINUOUS
 62
     7
 10
200.4978637695313
 20
175.2336120605469
 40
5
 50
179.999991348578
 51
270.0000006832453
  0
ARC
  8
0
  6
CONTINUOUS
 62
     7
 10
213.4978637695312
 20
175.2336120605469
 40
5.000000000000004
 50
269.9999974955218
 51
0
  0
ARC
  8
0
  6
CONTINUOUS
 62
     7
 10
213.4978637695312
 20
89.23360443115234
 40
5
 50
0
 51
90.00000250447815
  0
ARC
  8
0
  6
CONTINUOUS
 62
     7
 10
213.4978637695312
 20
-160.7663879394531
 40
5
 50
0
 51
90.00000250447815
  0
ARC
  8
0
  6
CONTINUOUS
 62
     7
 10
213.4978637695312
 20
-74.76639556884766
 40
5.000000000000004
 50
269.9999974955218
 51
0
  0
ARC
  8
0
  6
CONTINUOUS
 62
     7
 10
200.4978637695313
 20
-74.76639556884766
 40
5
 50
179.999991348578
 51
270.0000006832453
  0
ARC
  8
0
  6
CONTINUOUS
 62
     7
 10
200.4978637695313
 20
-160.7663879394531
 40
5.000000000000004
 50
90.00000250447815
 51
180.0000050089563
  0
ARC
  8
0
  6
CONTINUOUS
 62
     7
 10
193.9380187988281
 20
-41.85623550415039
 40
2.000000000000004
 50
10.00000397796112
 51
89.99998201391097
  0
ARC
  8
0
  6
CONTINUOUS
 62
     7
 10
176.5410614013672
 20
-44.26126480102539
 40
3.999999999999995
 50
351.4459282863103
 51
53.91357911911859
  0
ARC
  8
0
  6
CONTINUOUS
 62
     7
 10
200.4546508789062
 20
-44.26126480102539
 40
3.999999999999994
 50
126.0864395502159
 51
188.5540383028319
  0
ARC
  8
0
  6
CONTINUOUS
 62
     7
 10
188.4978637695313
 20
-27.85623550415039
 40
16.29999923706054
 50
306.086414050692
 51
233.91354314694
  0
CIRCLE
  8
0
  6
CONTINUOUS
 62
     7
 10
188.4978637695313
 20
-27.85623550415039
 40
10
  0
ARC
  8
0
  6
CONTINUOUS
 62
     7
 10
183.0576934814453
 20
-41.85623550415039
 40
1.999999999999999
 50
89.99998201391097
 51
170.0000206677891
  0
ARC
  8
0
  6
CONTINUOUS
 62
     7
 10
-144.0021362304688
 20
-117.7663955688477
 40
80
 50
3.58332171737697
 51
96.0949764518524
  0
ARC
  8
0
  6
CONTINUOUS
 62
     7
 10
-144.0021362304688
 20
-117.7663955688477
 40
80
 50
103.9050313903844
 51
176.4166828646925
  0
ARC
  8
0
  6
CONTINUOUS
 62
     7
 10
-151.4496459960937
 20
-39.36856460571289
 40
0.9999999999999987
 50
20.0000130785643
 51
82.33288293470682
  0
ARC
  8
0
  6
CONTINUOUS
 62
     7
 10
-162.1744384765625
 20
-14.70621109008789
 40
3.150000095367426
 50
9.999999709092926
 51
189.9999620293669
  0
ARC
  8
0
  6
CONTINUOUS
 62
     7
 10
-153.1992797851563
 20
-41.70792007446289
 40
0.999999999999986
 50
189.999979332211
 51
280.0000159876346
  0
ARC
  8
0
  6
CONTINUOUS
 62
     7
 10
-161.3731689453125
 20
-43.14920425415039
 40
0.9999999999999978
 50
279.9999613461212
 51
9.999999709092924
  0
ARC
  8
0
  6
CONTINUOUS
 62
     7
 10
-163.8173828125
 20
-41.54935073852539
 40
0.9999999999999956
 50
117.667083926394
 51
179.9999503674428
  0
POLYLINE
  8
0
  6
CONTINUOUS
 62
     7
 66
     1
 10
0
 20
0
  0
VERTEX
  8
0
  6
CONTINUOUS
 62
     7
 10
175.3478339055422
 20
145.068080563993
 42
0.1945692824531054
  0
VERTEX
  8
0
  6
CONTINUOUS
 62
     7
 10
178.2900104332282
 20
143.6286674608221
 42
0.02554323253016901
  0
VERTEX
  8
0
  6
CONTINUOUS
 62
     7
 10
181.6686301359894
 20
143.1168864933396
 42
0.01446695002794053
  0
VERTEX
  8
0
  6
CONTINUOUS
 62
     7
 10
185.0780407048681
 20
142.8634286978379
 42
0.01162823533405146
  0
VERTEX
  8
0
  6
CONTINUOUS
 62
     7
 10
188.4978583196047
 20
142.784877438993
 42
0.01162207999221654
  0
VERTEX
  8
0
  6
CONTINUOUS
 62
     7
 10
191.9159715530039
 20
142.863348396464
 42
0.01446991748459174
  0
VERTEX
  8
0
  6
CONTINUOUS
 62
     7
 10
195.326487329464
 20
143.1168232267205
 42
0.02555833756705222
  0
VERTEX
  8
0
  6
CONTINUOUS
 62
     7
 10
198.7068358305736
 20
143.6289122318047
 42
0.1953013108079759
  0
VERTEX
  8
0
  6
CONTINUOUS
 62
     7
 10
201.6478458734786
 20
145.0703233556345
 42
0.1938789351877833
  0
VERTEX
  8
0
  6
CONTINUOUS
 62
     7
 10
198.7035527950844
 20
146.5081462848626
 42
0.02553305454208825
  0
VERTEX
  8
0
  6
CONTINUOUS
 62
     7
 10
195.3249178492625
 20
147.0198550658794
 42
0.01446795752225796
  0
VERTEX
  8
0
  6
CONTINUOUS
 62
     7
 10
191.9155040497512
 20
147.2732858215924
 42
0.01162537149201203
  0
VERTEX
  8
0
  6
CONTINUOUS
 62
     7
 10
188.4978583196047
 20
147.351771970243
 42
0.01162712554393292
  0
VERTEX
  8
0
  6
CONTINUOUS
 62
     7
 10
185.0797461856867
 20
147.2732648590159
 42
0.014474009409492
  0
VERTEX
  8
0
  6
CONTINUOUS
 62
     7
 10
181.669238098884
 20
147.019692231393
 42
0.02556168375859151
  0
VERTEX
  8
0
  6
CONTINUOUS
 62
     7
 10
178.2889125411851
 20
146.507455666662
 42
0.1952050264606952
  0
VERTEX
  8
0
  6
CONTINUOUS
 62
     7
 10
175.3478384898973
 20
145.0661738095082
 42
0
  0
SEQEND
  8
0
  0
POLYLINE
  8
0
  6
CONTINUOUS
 62
     7
 66
     1
 10
0
 20
0
  0
VERTEX
  8
0
  6
CONTINUOUS
 62
     7
 10
200.0495506687936
 20
152.3635100293766
 42
0.02483033891505149
  0
VERTEX
  8
0
  6
CONTINUOUS
 62
     7
 10
198.6411614495564
 20
152.7256258288207
 42
0.01364854112583321
  0
VERTEX
  8
0
  6
CONTINUOUS
 62
     7
 10
197.2093175634108
 20
152.9829326281407
 42
0.009382830365691722
  0
VERTEX
  8
0
  6
CONTINUOUS
 62
     7
 10
195.7670323964771
 20
153.1752708571542
 42
0.007275419706930395
  0
VERTEX
  8
0
  6
CONTINUOUS
 62
     7
 10
194.3186386851526
 20
153.3199859761364
 42
0.006095667176956411
  0
VERTEX
  8
0
  6
CONTINUOUS
 62
     7
 10
192.866644855002
 20
153.4261719292369
 42
0.005403411756127153
  0
VERTEX
  8
0
  6
CONTINUOUS
 62
     7
 10
191.4125766197241
 20
153.4990745543165
 42
0.005011276167568602
  0
VERTEX
  8
0
  6
CONTINUOUS
 62
     7
 10
189.9571906887823
 20
153.5417687214283
 42
0.004832082136159703
  0
VERTEX
  8
0
  6
CONTINUOUS
 62
     7
 10
188.5012666970692
 20
153.5558734555268
 42
0.004831334188063314
  0
VERTEX
  8
0
  6
CONTINUOUS
 62
     7
 10
187.0454478738313
 20
153.5419030089674
 42
0.005006470056537131
  0
VERTEX
  8
0
  6
CONTINUOUS
 62
     7
 10
185.5910523295533
 20
153.4993871403837
 42
0.005400882552930993
  0
VERTEX
  8
0
  6
CONTINUOUS
 62
     7
 10
184.1368964038396
 20
153.426651098595
 42
0.006091146285485934
  0
VERTEX
  8
0
  6
CONTINUOUS
 62
     7
 10
182.6848235921095
 20
153.3206508435138
 42
0.007269852988979344
  0
VERTEX
  8
0
  6
CONTINUOUS
 62
     7
 10
181.2359338759524
 20
153.1761073758607
 42
0.009378776901563943
  0
VERTEX
  8
0
  6
CONTINUOUS
 62
     7
 10
179.7922198577774
 20
152.9838288958732
 42
0.01364228252149118
  0
VERTEX
  8
0
  6
CONTINUOUS
 62
     7
 10
178.3587071050709
 20
152.7265037032887
 42
0.02480855593627177
  0
VERTEX
  8
0
  6
CONTINUOUS
 62
     7
 10
176.9488125796038
 20
152.3643623371294
 42
0
  0
SEQEND
  8
0
  0
POLYLINE
  8
0
  6
CONTINUOUS
 62
     7
 66
     1
 10
0
 20
0
  0
VERTEX
  8
0
  6
CONTINUOUS
 62
     7
 10
176.9594366887453
 20
143.972865720243
 42
-0.01901918745875546
  0
VERTEX
  8
0
  6
CONTINUOUS
 62
     7
 10
176.2175422958302
 20
144.1770712410812
 42
-0.0104809770526784
  0
VERTEX
  8
0
  6
CONTINUOUS
 62
     7
 10
175.4888815800858
 20
144.4247903498599
 42
-0.005845321793709048
  0
VERTEX
  8
0
  6
CONTINUOUS
 62
     7
 10
174.7672802567596
 20
144.6934355801711
 42
-0.02972403344422079
  0
VERTEX
  8
0
  6
CONTINUOUS
 62
     7
 10
174.0664619791602
 20
145.0106128112084
 42
-0.05876742985133628
  0
VERTEX
  8
0
  6
CONTINUOUS
 62
     7
 10
173.4333707037499
 20
145.444992031607
 42
-0.05384032392356809
  0
VERTEX
  8
0
  6
CONTINUOUS
 62
     7
 10
172.9218911046298
 20
146.0181464460111
 42
-0.04813922686571111
  0
VERTEX
  8
0
  6
CONTINUOUS
 62
     7
 10
172.5290218924471
 20
146.6794896095296
 42
-0.0548495316516413
  0
VERTEX
  8
0
  6
CONTINUOUS
 62
     7
 10
172.2834864367451
 20
147.4071402846966
 42
-0.05416192064386737
  0
VERTEX
  8
0
  6
CONTINUOUS
 62
     7
 10
172.2001898625734
 20
148.170375485868
 42
-0.05421491251327511
  0
VERTEX
  8
0
  6
CONTINUOUS
 62
     7
 10
172.2836145241353
 20
148.9339483556906
 42
-0.05486362129025878
  0
VERTEX
  8
0
  6
CONTINUOUS
 62
     7
 10
172.5293443854725
 20
149.6617099145334
 42
-0.04805889788445711
  0
VERTEX
  8
0
  6
CONTINUOUS
 62
     7
 10
172.9216262351951
 20
150.3219969825844
 42
-0.05381766463331047
  0
VERTEX
  8
0
  6
CONTINUOUS
 62
     7
 10
173.4332038898822
 20
150.8956034860244
 42
-0.05879202130777814
  0
VERTEX
  8
0
  6
CONTINUOUS
 62
     7
 10
174.0663104534406
 20
151.3300325439343
 42
-0.02971145702960256
  0
VERTEX
  8
0
  6
CONTINUOUS
 62
     7
 10
174.7668192514405
 20
151.6470813810913
 42
-0.005848077796738739
  0
VERTEX
  8
0
  6
CONTINUOUS
 62
     7
 10
175.4881990997423
 20
151.9156816300139
 42
-0.01049682231858213
  0
VERTEX
  8
0
  6
CONTINUOUS
 62
     7
 10
176.2171591716436
 20
152.1634800188335
 42
-0.01899579569781973
  0
VERTEX
  8
0
  6
CONTINUOUS
 62
     7
 10
176.9589484074953
 20
152.367641110868
 42
0
  0
SEQEND
  8
0
  0
POLYLINE
  8
0
  6
CONTINUOUS
 62
     7
 66
     1
 10
0
 20
0
  0
VERTEX
  8
0
  6
CONTINUOUS
 62
     7
 10
200.0362494328859
 20
143.972865720243
 42
0.01901728022363454
  0
VERTEX
  8
0
  6
CONTINUOUS
 62
     7
 10
200.7781464816117
 20
144.1770685341061
 42
0.01048146422240262
  0
VERTEX
  8
0
  6
CONTINUOUS
 62
     7
 10
201.5068108445145
 20
144.4247826284191
 42
0.005848017668095666
  0
VERTEX
  8
0
  6
CONTINUOUS
 62
     7
 10
202.2284143326582
 20
144.6934284358146
 42
0.02972556577508311
  0
VERTEX
  8
0
  6
CONTINUOUS
 62
     7
 10
202.9292316753664
 20
145.0106119696774
 42
0.05876385890720867
  0
VERTEX
  8
0
  6
CONTINUOUS
 62
     7
 10
203.5623192310674
 20
145.4449945766989
 42
0.05384005964150387
  0
VERTEX
  8
0
  6
CONTINUOUS
 62
     7
 10
204.0738175367022
 20
146.0181356463468
 42
0.04813933897796836
  0
VERTEX
  8
0
  6
CONTINUOUS
 62
     7
 10
204.4666898204718
 20
146.6794790801549
 42
0.05486388540021758
  0
VERTEX
  8
0
  6
CONTINUOUS
 62
     7
 10
204.7122001914752
 20
147.4071385747672
 42
0.05415427882669377
  0
VERTEX
  8
0
  6
CONTINUOUS
 62
     7
 10
204.7955267766359
 20
148.170375485868
 42
0.0542069466738513
  0
VERTEX
  8
0
  6
CONTINUOUS
 62
     7
 10
204.7120726795245
 20
148.9339476530739
 42
0.05487790612311037
  0
VERTEX
  8
0
  6
CONTINUOUS
 62
     7
 10
204.4663682678963
 20
149.6617185286352
 42
0.04805889587811434
  0
VERTEX
  8
0
  6
CONTINUOUS
 62
     7
 10
204.0740840859295
 20
150.3220055085047
 42
0.05381747357135324
  0
VERTEX
  8
0
  6
CONTINUOUS
 62
     7
 10
203.5624874342019
 20
150.8955996571117
 42
0.05878894917001497
  0
VERTEX
  8
0
  6
CONTINUOUS
 62
     7
 10
202.9293820830955
 20
151.3300341014127
 42
0.02971283688995254
  0
VERTEX
  8
0
  6
CONTINUOUS
 62
     7
 10
202.2288760506202
 20
151.6470881438671
 42
0.00585068765178011
  0
VERTEX
  8
0
  6
CONTINUOUS
 62
     7
 10
201.5074949180755
 20
151.9156889104823
 42
0.01049742747457252
  0
VERTEX
  8
0
  6
CONTINUOUS
 62
     7
 10
200.7785290684996
 20
152.163482851819
 42
0.01899365772256547
  0
VERTEX
  8
0
  6
CONTINUOUS
 62
     7
 10
200.0367377141359
 20
152.367641110868
 42
0
  0
SEQEND
  8
0
  0
POLYLINE
  8
0
  6
CONTINUOUS
 62
     7
 66
     1
 10
0
 20
0
  0
VERTEX
  8
0
  6
CONTINUOUS
 62
     7
 10
180.7597603782952
 20
143.2190625599247
 42
0.04188613022365473
  0
VERTEX
  8
0
  6
CONTINUOUS
 62
     7
 10
181.1998900011114
 20
141.9910731136443
 42
0.04165468219610906
  0
VERTEX
  8
0
  6
CONTINUOUS
 62
     7
 10
181.8381309840528
 20
140.8531316227963
 42
0.04136408119842357
  0
VERTEX
  8
0
  6
CONTINUOUS
 62
     7
 10
182.6555804828282
 20
139.8362552690686
 42
0.04106062826738863
  0
VERTEX
  8
0
  6
CONTINUOUS
 62
     7
 10
183.6288843145578
 20
138.9670925836578
 42
0.04077373210747439
  0
VERTEX
  8
0
  6
CONTINUOUS
 62
     7
 10
184.7309544893198
 20
138.2678846427996
 42
0.04052967900165953
  0
VERTEX
  8
0
  6
CONTINUOUS
 62
     7
 10
185.9318169366261
 20
137.7561107797473
 42
0.04034890219005804
  0
VERTEX
  8
0
  6
CONTINUOUS
 62
     7
 10
187.1994006927086
 20
137.4442809241744
 42
0.04023730416242555
  0
VERTEX
  8
0
  6
CONTINUOUS
 62
     7
 10
188.5000365665335
 20
137.3398093713477
 42
0.04023045196245283
  0
VERTEX
  8
0
  6
CONTINUOUS
 62
     7
 10
189.8003908620968
 20
137.4449418005278
 42
0.04031713967837228
  0
VERTEX
  8
0
  6
CONTINUOUS
 62
     7
 10
191.0668283524024
 20
137.7570877019498
 42
0.04051233780468051
  0
VERTEX
  8
0
  6
CONTINUOUS
 62
     7
 10
192.2669863002222
 20
138.2690537651607
 42
0.04075999998141237
  0
VERTEX
  8
0
  6
CONTINUOUS
 62
     7
 10
193.3684737091288
 20
138.9683325949957
 42
0.04105956262824341
  0
VERTEX
  8
0
  6
CONTINUOUS
 62
     7
 10
194.3415188757116
 20
139.8377114252587
 42
0.04137676030974548
  0
VERTEX
  8
0
  6
CONTINUOUS
 62
     7
 10
195.1589246508172
 20
140.8551140110872
 42
0.0416742753408958
  0
VERTEX
  8
0
  6
CONTINUOUS
 62
     7
 10
195.7970659512432
 20
141.9937934814226
 42
0.04191528628116644
  0
VERTEX
  8
0
  6
CONTINUOUS
 62
     7
 10
196.2369543453445
 20
143.222814258867
 42
0
  0
SEQEND
  8
0
  0
TEXT
  8
0
  6
CONTINUOUS
 62
     7
 10
-209.359281539917
 20
124.7336120605469
 40
15
 41
1.038789064521032
  1
ERK-A-200
  0
ENDSEC
  0
EOF
