  0
SECTION
  2
HEADER
  9
$ACADVER
  1
AC1009
  9
$DWGCODEPAGE
  3
dos932
  9
$INSBASE
 10
0.0
 20
0.0
 30
0.0
  9
$EXTMIN
 10
-229.597828
 20
-225.000108
 30
0.0
  9
$EXTMAX
 10
1171.010954
 20
261.093795
 30
0.0
  9
$LIMMIN
 10
-229.597828
 20
-225.000108
  9
$LIMMAX
 10
1171.010954
 20
261.093795
  9
$ORTHOMODE
 70
     0
  9
$REGENMODE
 70
     1
  9
$FILLMODE
 70
     1
  9
$QTEXTMODE
 70
     0
  9
$MIRRTEXT
 70
     1
  9
$DRAGMODE
 70
     2
  9
$LTSCALE
 40
1.0
  9
$OSMODE
 70
     0
  9
$ATTMODE
 70
     1
  9
$TEXTSIZE
 40
3.15
  9
$TRACEWID
 40
0.05
  9
$TEXTSTYLE
  7
MX_NOTE_STANDARD
  9
$CLAYER
  8
LY_1
  9
$CELTYPE
  6
CONTINUOUS
  9
$CECOLOR
 62
   256
  9
$DIMSCALE
 40
1.0
  9
$DIMASZ
 40
2.5
  9
$DIMEXO
 40
1.0
  9
$DIMDLI
 40
3.75
  9
$DIMRND
 40
0.0
  9
$DIMDLE
 40
0.0
  9
$DIMEXE
 40
1.5
  9
$DIMTP
 40
0.0
  9
$DIMTM
 40
0.0
  9
$DIMTXT
 40
3.15
  9
$DIMCEN
 40
2.5
  9
$DIMTSZ
 40
0.0
  9
$DIMTOL
 70
     0
  9
$DIMLIM
 70
     0
  9
$DIMTIH
 70
     0
  9
$DIMTOH
 70
     0
  9
$DIMSE1
 70
     0
  9
$DIMSE2
 70
     0
  9
$DIMTAD
 70
     1
  9
$DIMZIN
 70
     8
  9
$DIMBLK
  1

  9
$DIMASO
 70
     1
  9
$DIMSHO
 70
     1
  9
$DIMPOST
  1

  9
$DIMAPOST
  1

  9
$DIMALT
 70
     0
  9
$DIMALTD
 70
     4
  9
$DIMALTF
 40
0.03937
  9
$DIMLFAC
 40
1.0
  9
$DIMTOFL
 70
     1
  9
$DIMTVP
 40
0.0
  9
$DIMTIX
 70
     0
  9
$DIMSOXD
 70
     0
  9
$DIMSAH
 70
     0
  9
$DIMBLK1
  1

  9
$DIMBLK2
  1

  9
$DIMSTYLE
  2
MXDIMSTYLE
  9
$DIMCLRD
 70
     0
  9
$DIMCLRE
 70
     0
  9
$DIMCLRT
 70
     0
  9
$DIMTFAC
 40
1.0
  9
$DIMGAP
 40
1.0
  9
$LUNITS
 70
     2
  9
$LUPREC
 70
     4
  9
$AXISMODE
 70
     0
  9
$AXISUNIT
 10
0.0
 20
0.0
  9
$SKETCHINC
 40
0.1
  9
$FILLETRAD
 40
0.0
  9
$AUNITS
 70
     0
  9
$AUPREC
 70
     0
  9
$MENU
  1
acad
  9
$ELEVATION
 40
0.0
  9
$PELEVATION
 40
0.0
  9
$THICKNESS
 40
0.0
  9
$LIMCHECK
 70
     0
  9
$BLIPMODE
 70
     1
  9
$CHAMFERA
 40
0.0
  9
$CHAMFERB
 40
0.0
  9
$SKPOLY
 70
     0
  9
$TDCREATE
 40
2453665.670162037
  9
$TDUPDATE
 40
2453665.670162037
  9
$TDINDWG
 40
0.0000000000
  9
$TDUSRTIMER
 40
0.0000000000
  9
$USRTIMER
 70
     1
  9
$ANGBASE
 50
0.0
  9
$ANGDIR
 70
     0
  9
$PDMODE
 70
     0
  9
$PDSIZE
 40
0.0
  9
$PLINEWID
 40
0.0
  9
$COORDS
 70
     1
  9
$SPLFRAME
 70
     0
  9
$SPLINETYPE
 70
     6
  9
$SPLINESEGS
 70
     8
  9
$ATTDIA
 70
     0
  9
$ATTREQ
 70
     1
  9
$HANDLING
 70
     1
  9
$HANDSEED
  5
14B
  9
$SURFTAB1
 70
     6
  9
$SURFTAB2
 70
     6
  9
$SURFTYPE
 70
     6
  9
$SURFU
 70
     6
  9
$SURFV
 70
     6
  9
$UCSNAME
  2

  9
$UCSORG
 10
0.0
 20
0.0
 30
0.0
  9
$UCSXDIR
 10
1.0
 20
0.0
 30
0.0
  9
$UCSYDIR
 10
0.0
 20
1.0
 30
0.0
  9
$PUCSNAME
  2

  9
$PUCSORG
 10
0.0
 20
0.0
 30
0.0
  9
$PUCSXDIR
 10
1.0
 20
0.0
 30
0.0
  9
$PUCSYDIR
 10
0.0
 20
1.0
 30
0.0
  9
$USERI1
 70
     0
  9
$USERI2
 70
     0
  9
$USERI3
 70
     0
  9
$USERI4
 70
     0
  9
$USERI5
 70
     0
  9
$USERR1
 40
0.0
  9
$USERR2
 40
0.0
  9
$USERR3
 40
0.0
  9
$USERR4
 40
0.0
  9
$USERR5
 40
0.0
  9
$WORLDVIEW
 70
     1
  9
$SHADEDGE
 70
     3
  9
$SHADEDIF
 70
    70
  9
$TILEMODE
 70
     1
  9
$MAXACTVP
 70
    16
  9
$PINSBASE
 10
0.0
 20
0.0
 30
0.0
  9
$PLIMCHECK
 70
     0
  9
$PEXTMIN
 10
1.000000E+20
 20
1.000000E+20
 30
1.000000E+20
  9
$PEXTMAX
 10
-1.000000E+20
 20
-1.000000E+20
 30
-1.000000E+20
  9
$PLIMMIN
 10
0.0
 20
0.0
  9
$PLIMMAX
 10
12.0
 20
9.0
  9
$UNITMODE
 70
     0
  9
$VISRETAIN
 70
     0
  9
$PLINEGEN
 70
     1
  9
$PSLTSCALE
 70
     0
  9
$TREEDEPTH
 70
  3020
  9
$DWGCODEPAGE
  3
dos932
  0
ENDSEC
  0
SECTION
  2
TABLES
  0
TABLE
  2
VPORT
 70
     1
  0
VPORT
  2
*ACTIVE
 70
     0
 10
0.0
 20
0.0
 11
1.0
 21
1.0
 12
470.706563
 22
18.046843
 13
0.0
 23
0.0
 14
1.0
 24
1.0
 15
0.0
 25
0.0
 16
0.0
 26
0.0
 36
1.0
 17
0.0
 27
0.0
 37
0.0
 40
490.954842
 41
1.732051
 42
50.0
 43
0.0
 44
0.0
 50
0.0
 51
0.0
 71
     0
 72
   100
 73
     1
 74
     1
 75
     0
 76
     0
 77
     0
 78
     0
  0
ENDTAB
  0
TABLE
  2
LTYPE
 70
     3
  0
LTYPE
  2
CONTINUOUS
 70
    64
  3
Solid line
 72
    65
 73
     0
 40
0.0
  0
LTYPE
  2
CENTER
 70
    64
  3
Center ____ _ ____ _ ____ _ ____ _ ____ _ ____
 72
    65
 73
     4
 40
50.8
 49
31.75
 49
-6.35
 49
6.35
 49
-6.35
  0
LTYPE
  2
DASHED
 70
    64
  3
Dashed __ __ __ __ __ __ __ __ __ __ __ __ __ _
 72
    65
 73
     2
 40
19.05
 49
12.7
 49
-6.35
  0
ENDTAB
  0
TABLE
  2
LAYER
 70
     3
  0
LAYER
  2
0
 70
     0
 62
     7
  6
CONTINUOUS
  0
LAYER
  2
LY_1
 70
     0
 62
     7
  6
CONTINUOUS
  0
LAYER
  2
DEFPOINTS
 70
     0
 62
     7
  6
CONTINUOUS
  0
ENDTAB
  0
TABLE
  2
STYLE
 70
     1
  0
STYLE
  2
MX_NOTE_STANDARD
 70
     0
 40
0.0
 41
1.0
 50
0.0
 71
     0
 42
3.15
  3
txt.shx
  4
extfont.shx
  0
ENDTAB
  0
TABLE
  2
VIEW
 70
     0
  0
ENDTAB
  0
TABLE
  2
UCS
 70
     0
  0
ENDTAB
  0
TABLE
  2
APPID
 70
     1
  0
APPID
  2
ACAD
 70
     0
  0
ENDTAB
  0
TABLE
  2
DIMSTYLE
 70
     1
  0
DIMSTYLE
  2
MXDIMSTYLE
 70
     0
  3

  4

  5

  6

  7

 40
1.0
 41
2.5
 42
1.0
 43
3.75
 44
1.5
 45
0.0
 46
0.0
 47
0.0
 48
0.0
 71
     0
 72
     0
 73
     0
 74
     0
 75
     0
 76
     0
 77
     1
 78
     8
140
3.15
141
2.5
142
0.0
143
0.03937
144
1.0
145
0.0
146
1.0
147
1.0
170
     0
171
     4
172
     1
173
     0
174
     0
175
     0
176
     0
177
     0
178
     0
  0
ENDTAB
  0
ENDSEC
  0
SECTION
  2
BLOCKS
  0
ENDSEC
  0
SECTION
  2
ENTITIES
  0
LINE
  8
LY_1
  6
CONTINUOUS
 62
   251
  5
1F
 10
1090.499921
 20
141.87999
 30
0.0
 11
1091.499921
 21
140.87999
 31
0.0
  0
LINE
  8
LY_1
  6
CONTINUOUS
 62
   251
  5
20
 10
1091.499921
 20
140.87999
 30
0.0
 11
1091.499921
 21
121.25002
 31
0.0
  0
LINE
  8
LY_1
  6
CONTINUOUS
 62
   251
  5
21
 10
1053.499921
 20
140.87999
 30
0.0
 11
1053.499921
 21
121.25002
 31
0.0
  0
LINE
  8
LY_1
  6
CONTINUOUS
 62
   251
  5
22
 10
1110.449901
 20
61.80001
 30
0.0
 11
1110.449901
 21
59.00002
 31
0.0
  0
LINE
  8
LY_1
  6
CONTINUOUS
 62
   251
  5
23
 10
1109.999901
 20
59.00002
 30
0.0
 11
1109.999901
 21
42.5
 31
0.0
  0
LINE
  8
LY_1
  6
CONTINUOUS
 62
   251
  5
24
 10
1109.499901
 20
88.00002
 30
0.0
 11
1109.499901
 21
-88.0
 31
0.0
  0
LINE
  8
LY_1
  6
CONTINUOUS
 62
   251
  5
25
 10
1122.499903
 20
-42.5
 30
0.0
 11
1109.499901
 21
-42.5
 31
0.0
  0
LINE
  8
LY_1
  6
CONTINUOUS
 62
   251
  5
26
 10
1122.499903
 20
-27.50367
 30
0.0
 11
1109.499901
 21
-27.50367
 31
0.0
  0
LINE
  8
LY_1
  6
CONTINUOUS
 62
   251
  5
27
 10
1146.855791
 20
-39.18428
 30
0.0
 11
1122.499903
 21
-40.0348
 31
0.0
  0
LINE
  8
LY_1
  6
CONTINUOUS
 62
   251
  5
28
 10
1122.499903
 20
42.5
 30
0.0
 11
1122.499903
 21
-42.5
 31
0.0
  0
LINE
  8
LY_1
  6
CONTINUOUS
 62
   251
  5
29
 10
1148.999903
 20
58.00002
 30
0.0
 11
1148.999903
 21
-30.0
 31
0.0
  0
LINE
  8
LY_1
  6
CONTINUOUS
 62
   251
  5
2A
 10
1116.499901
 20
42.5
 30
0.0
 11
1116.499901
 21
-42.5
 31
0.0
  0
LINE
  8
LY_1
  6
CONTINUOUS
 62
   251
  5
2B
 10
1122.499903
 20
27.50347
 30
0.0
 11
1109.499901
 21
27.50347
 31
0.0
  0
LINE
  8
LY_1
  6
CONTINUOUS
 62
   251
  5
2C
 10
1148.999903
 20
34.34738
 30
0.0
 11
1122.499903
 21
34.34738
 31
0.0
  0
LINE
  8
LY_1
  6
CONTINUOUS
 62
     7
  5
2D
 10
1129.499903
 20
87.84276
 30
0.0
 11
1129.499903
 21
54.54082
 31
0.0
  0
LINE
  8
LY_1
  6
CONTINUOUS
 62
   251
  5
2E
 10
1122.499903
 20
42.5
 30
0.0
 11
1116.499901
 21
42.5
 31
0.0
  0
LINE
  8
LY_1
  6
CONTINUOUS
 62
   251
  5
2F
 10
1144.299898
 20
80.09999
 30
0.0
 11
1144.299898
 21
61.80001
 31
0.0
  0
LINE
  8
LY_1
  6
CONTINUOUS
 62
   251
  5
30
 10
1114.699908
 20
80.09999
 30
0.0
 11
1115.699908
 21
81.09999
 31
0.0
  0
LINE
  8
LY_1
  6
CONTINUOUS
 62
   251
  5
31
 10
1148.549898
 20
61.80001
 30
0.0
 11
1110.449901
 21
61.80001
 31
0.0
  0
LINE
  8
LY_1
  6
CONTINUOUS
 62
   251
  5
32
 10
1148.549898
 20
59.00002
 30
0.0
 11
1109.999901
 21
59.00002
 31
0.0
  0
LINE
  8
LY_1
  6
CONTINUOUS
 62
   251
  5
33
 10
1148.549898
 20
61.80001
 30
0.0
 11
1148.549898
 21
58.00002
 31
0.0
  0
LINE
  8
LY_1
  6
CONTINUOUS
 62
   251
  5
34
 10
1144.299898
 20
64.80001
 30
0.0
 11
1114.699901
 21
64.80001
 31
0.0
  0
LINE
  8
LY_1
  6
CONTINUOUS
 62
   251
  5
35
 10
1148.999903
 20
58.00002
 30
0.0
 11
1109.999901
 21
58.00002
 31
0.0
  0
LINE
  8
LY_1
  6
CONTINUOUS
 62
   251
  5
36
 10
1116.499901
 20
42.5
 30
0.0
 11
1109.499901
 21
42.5
 31
0.0
  0
LINE
  8
LY_1
  6
CONTINUOUS
 62
   251
  5
37
 10
1114.699901
 20
80.09999
 30
0.0
 11
1114.699901
 21
61.80001
 31
0.0
  0
LINE
  8
LY_1
  6
CONTINUOUS
 62
   251
  5
38
 10
1143.299898
 20
81.09999
 30
0.0
 11
1115.699908
 21
81.09999
 31
0.0
  0
LINE
  8
LY_1
  6
CONTINUOUS
 62
   251
  5
39
 10
1109.499901
 20
57.9999
 30
0.0
 11
958.999891
 21
57.9999
 31
0.0
  0
LINE
  8
LY_1
  6
CONTINUOUS
 62
   251
  5
3A
 10
1109.499901
 20
-58.0001
 30
0.0
 11
958.999891
 21
-58.0001
 31
0.0
  0
LINE
  8
LY_1
  6
CONTINUOUS
 62
   251
  5
3B
 10
1032.999891
 20
51.0
 30
0.0
 11
960.999891
 21
51.0
 31
0.0
  0
LINE
  8
LY_1
  6
CONTINUOUS
 62
   251
  5
3C
 10
1032.999891
 20
48.0
 30
0.0
 11
960.999891
 21
48.0
 31
0.0
  0
LINE
  8
LY_1
  6
CONTINUOUS
 62
   251
  5
3D
 10
1032.999891
 20
45.0
 30
0.0
 11
960.999891
 21
45.0
 31
0.0
  0
LINE
  8
LY_1
  6
CONTINUOUS
 62
   251
  5
3E
 10
1032.999891
 20
42.0
 30
0.0
 11
960.999891
 21
42.0
 31
0.0
  0
LINE
  8
LY_1
  6
CONTINUOUS
 62
   251
  5
3F
 10
1032.999891
 20
-42.0
 30
0.0
 11
960.999891
 21
-42.0
 31
0.0
  0
LINE
  8
LY_1
  6
CONTINUOUS
 62
   251
  5
40
 10
1032.999891
 20
-45.0
 30
0.0
 11
960.999891
 21
-45.0
 31
0.0
  0
LINE
  8
LY_1
  6
CONTINUOUS
 62
   251
  5
41
 10
1032.999891
 20
-48.0
 30
0.0
 11
960.999891
 21
-48.0
 31
0.0
  0
LINE
  8
LY_1
  6
CONTINUOUS
 62
   251
  5
42
 10
1032.999891
 20
-51.0
 30
0.0
 11
960.999891
 21
-51.0
 31
0.0
  0
LINE
  8
LY_1
  6
CONTINUOUS
 62
   251
  5
43
 10
1097.999901
 20
88.00002
 30
0.0
 11
1097.999901
 21
-88.0
 31
0.0
  0
LINE
  8
LY_1
  6
CONTINUOUS
 62
   251
  5
44
 10
960.999891
 20
88.00002
 30
0.0
 11
960.999891
 21
-88.0
 31
0.0
  0
LINE
  8
LY_1
  6
CONTINUOUS
 62
   251
  5
45
 10
958.999891
 20
88.00002
 30
0.0
 11
958.999891
 21
-88.0
 31
0.0
  0
LINE
  8
LY_1
  6
CONTINUOUS
 62
   251
  5
46
 10
1097.999901
 20
-51.0
 30
0.0
 11
1032.999891
 21
-51.0
 31
0.0
  0
LINE
  8
LY_1
  6
CONTINUOUS
 62
   251
  5
47
 10
1097.999901
 20
-48.0
 30
0.0
 11
1032.999891
 21
-48.0
 31
0.0
  0
LINE
  8
LY_1
  6
CONTINUOUS
 62
   251
  5
48
 10
1097.999901
 20
-45.0
 30
0.0
 11
1032.999891
 21
-45.0
 31
0.0
  0
LINE
  8
LY_1
  6
CONTINUOUS
 62
   251
  5
49
 10
1097.999901
 20
51.0
 30
0.0
 11
1032.999891
 21
51.0
 31
0.0
  0
LINE
  8
LY_1
  6
CONTINUOUS
 62
   251
  5
4A
 10
1097.999901
 20
48.0
 30
0.0
 11
1032.999891
 21
48.0
 31
0.0
  0
LINE
  8
LY_1
  6
CONTINUOUS
 62
   251
  5
4B
 10
1097.999901
 20
45.0
 30
0.0
 11
1032.999891
 21
45.0
 31
0.0
  0
LINE
  8
LY_1
  6
CONTINUOUS
 62
   251
  5
4C
 10
1097.999901
 20
42.0
 30
0.0
 11
1032.999891
 21
42.0
 31
0.0
  0
LINE
  8
LY_1
  6
CONTINUOUS
 62
   251
  5
4D
 10
1097.999901
 20
-42.0
 30
0.0
 11
1032.999891
 21
-42.0
 31
0.0
  0
LINE
  8
LY_1
  6
CONTINUOUS
 62
     7
  5
4E
 10
1072.499921
 20
147.34105
 30
0.0
 11
1072.499921
 21
103.86556
 31
0.0
  0
LINE
  8
LY_1
  6
CONTINUOUS
 62
   251
  5
4F
 10
1054.499921
 20
141.87999
 30
0.0
 11
1053.499921
 21
140.87999
 31
0.0
  0
LINE
  8
LY_1
  6
CONTINUOUS
 62
   251
  5
50
 10
1091.499921
 20
124.30001
 30
0.0
 11
1053.499921
 21
124.30001
 31
0.0
  0
LINE
  8
LY_1
  6
CONTINUOUS
 62
   251
  5
51
 10
1094.699911
 20
121.25002
 30
0.0
 11
1050.299911
 21
121.25002
 31
0.0
  0
LINE
  8
LY_1
  6
CONTINUOUS
 62
   251
  5
52
 10
1050.299911
 20
121.25002
 30
0.0
 11
1050.299911
 21
118.00002
 31
0.0
  0
LINE
  8
LY_1
  6
CONTINUOUS
 62
   251
  5
53
 10
1094.699911
 20
121.25002
 30
0.0
 11
1094.699911
 21
118.00002
 31
0.0
  0
LINE
  8
LY_1
  6
CONTINUOUS
 62
   251
  5
54
 10
1096.999921
 20
118.00002
 30
0.0
 11
1096.999921
 21
88.00002
 31
0.0
  0
LINE
  8
LY_1
  6
CONTINUOUS
 62
   251
  5
55
 10
1034.999921
 20
89.00002
 30
0.0
 11
1034.999921
 21
88.00002
 31
0.0
  0
LINE
  8
LY_1
  6
CONTINUOUS
 62
   251
  5
56
 10
1096.999921
 20
118.00002
 30
0.0
 11
1040.441211
 21
118.00002
 31
0.0
  0
LINE
  8
LY_1
  6
CONTINUOUS
 62
   251
  5
57
 10
1144.299898
 20
80.09999
 30
0.0
 11
1143.299898
 21
81.09999
 31
0.0
  0
LINE
  8
LY_1
  6
CONTINUOUS
 62
   251
  5
58
 10
1054.499921
 20
141.87999
 30
0.0
 11
1090.499921
 21
141.87999
 31
0.0
  0
ARC
  8
LY_1
  6
CONTINUOUS
 62
   251
  5
59
 10
1146.820894
 20
-38.18489
 30
0.0
 40
1.0
 50
271.999998
 51
343.6062
  0
ARC
  8
LY_1
  6
CONTINUOUS
 62
   251
  5
5A
 10
1118.999901
 20
-30.0
 30
0.0
 40
30.0
 50
343.6062
 51
0.00001
  0
ARC
  8
LY_1
  6
CONTINUOUS
 62
   251
  5
5B
 10
1114.999921
 20
89.00002
 30
0.0
 40
80.0
 50
158.74619
 51
180.0
  0
LINE
  8
LY_1
  6
CONTINUOUS
 62
   251
  5
5C
 10
958.999891
 20
-73.806
 30
0.0
 11
940.999891
 21
-73.806
 31
0.0
  0
LINE
  8
LY_1
  6
CONTINUOUS
 62
   251
  5
5D
 10
958.999891
 20
73.80602
 30
0.0
 11
940.999891
 21
73.80602
 31
0.0
  0
LINE
  8
LY_1
  6
CONTINUOUS
 62
   251
  5
5E
 10
940.999891
 20
88.00002
 30
0.0
 11
1109.499901
 21
88.00002
 31
0.0
  0
LINE
  8
LY_1
  6
CONTINUOUS
 62
   251
  5
5F
 10
940.999891
 20
-88.0
 30
0.0
 11
1109.499901
 21
-88.0
 31
0.0
  0
LINE
  8
LY_1
  6
CONTINUOUS
 62
   251
  5
60
 10
138.149938
 20
0.000035
 30
0.0
 11
147.150019
 21
0.000024
 31
0.0
  0
LINE
  8
LY_1
  6
CONTINUOUS
 62
   251
  5
61
 10
759.999921
 20
185.500015
 30
0.0
 11
759.999932
 21
196.500052
 31
0.0
  0
ARC
  8
LY_1
  6
CONTINUOUS
 62
   251
  5
62
 10
758.999972
 20
-125.000013
 30
0.0
 40
5.0
 50
90.000003
 51
180.000005
  0
ARC
  8
LY_1
  6
CONTINUOUS
 62
   251
  5
63
 10
789.999932
 20
125.0
 30
0.0
 40
5.0
 50
179.999991
 51
270.000001
  0
ARC
  8
LY_1
  6
CONTINUOUS
 62
   251
  5
64
 10
834.999932
 20
125.0
 30
0.0
 40
5.0
 50
269.999997
 51
0.0
  0
ARC
  8
LY_1
  6
CONTINUOUS
 62
   251
  5
65
 10
834.999932
 20
-125.000013
 30
0.0
 40
5.0
 50
0.0
 51
90.000003
  0
ARC
  8
LY_1
  6
CONTINUOUS
 62
   251
  5
66
 10
-9.738413
 20
200.599918
 30
0.0
 40
1.4
 50
101.605676
 51
169.999966
  0
ARC
  8
LY_1
  6
CONTINUOUS
 62
   251
  5
67
 10
-6.400045
 20
195.799923
 30
0.0
 40
1.4
 50
269.999963
 51
0.0
  0
ARC
  8
LY_1
  6
CONTINUOUS
 62
   251
  5
68
 10
6.399994
 20
195.799923
 30
0.0
 40
1.4
 50
179.999978
 51
270.000028
  0
ARC
  8
LY_1
  6
CONTINUOUS
 62
   251
  5
69
 10
0.0
 20
238.999945
 30
0.0
 40
5.0
 50
0.0
 51
179.999964
  0
ARC
  8
LY_1
  6
CONTINUOUS
 62
   251
  5
6A
 10
9.738413
 20
200.599918
 30
0.0
 40
1.4
 50
9.999995
 51
78.394289
  0
ARC
  8
LY_1
  6
CONTINUOUS
 62
   251
  5
6B
 10
673.406304
 20
194.055907
 30
0.0
 40
6.0
 50
126.423865
 51
189.999962
  0
ARC
  8
LY_1
  6
CONTINUOUS
 62
   251
  5
6C
 10
636.59356
 20
194.055907
 30
0.0
 40
6.0
 50
349.863635
 51
53.576154
  0
ARC
  8
LY_1
  6
CONTINUOUS
 62
   251
  5
6D
 10
664.234805
 20
199.999943
 30
0.0
 40
2.0
 50
9.999995
 51
89.999982
  0
ARC
  8
LY_1
  6
CONTINUOUS
 62
   251
  5
6E
 10
645.765058
 20
199.999943
 30
0.0
 40
2.0
 50
89.999982
 51
170.000021
  0
CIRCLE
  8
LY_1
  6
CONTINUOUS
 62
   251
  5
6F
 10
654.999932
 20
218.999945
 30
0.0
 40
15.0
  0
ARC
  8
LY_1
  6
CONTINUOUS
 62
   251
  5
70
 10
654.999932
 20
218.999945
 30
0.0
 40
25.0
 50
306.423846
 51
233.576132
  0
ARC
  8
LY_1
  6
CONTINUOUS
 62
   251
  5
71
 10
0.0
 20
0.0
 30
0.0
 40
180.0
 50
80.405923
 51
99.594055
  0
ARC
  8
LY_1
  6
CONTINUOUS
 62
   251
  5
72
 10
0.0
 20
0.0
 30
0.0
 40
47.5
 50
15.257523
 51
344.742469
  0
CIRCLE
  8
LY_1
  6
CONTINUOUS
 62
     7
  5
73
 10
0.0
 20
0.0
 30
0.0
 40
8.0
  0
CIRCLE
  8
LY_1
  6
CONTINUOUS
 62
   251
  5
74
 10
0.0
 20
0.0
 30
0.0
 40
7.1
  0
CIRCLE
  8
LY_1
  6
CONTINUOUS
 62
   251
  5
75
 10
577.999937
 20
-104.999994
 30
0.0
 40
7.4
  0
CIRCLE
  8
LY_1
  6
CONTINUOUS
 62
   251
  5
76
 10
579.999932
 20
0.0
 30
0.0
 40
8.507551
  0
ARC
  8
LY_1
  6
CONTINUOUS
 62
   251
  5
77
 10
467.500008
 20
0.0
 30
0.0
 40
12.5
 50
269.999997
 51
90.000003
  0
CIRCLE
  8
LY_1
  6
CONTINUOUS
 62
   251
  5
78
 10
0.0
 20
0.0
 30
0.0
 40
132.5
  0
CIRCLE
  8
LY_1
  6
CONTINUOUS
 62
   251
  5
79
 10
0.0
 20
0.0
 30
0.0
 40
90.0
  0
ARC
  8
LY_1
  6
CENTER
 62
     7
  5
7B
 10
0.0
 20
0.0
 30
0.0
 40
117.5
 50
236.165569
 51
243.771613
  0
ARC
  8
LY_1
  6
CENTER
 62
     7
  5
7C
 10
0.0
 20
0.0
 30
0.0
 40
117.5
 50
296.165571
 51
303.771612
  0
ARC
  8
LY_1
  6
CENTER
 62
     7
  5
7D
 10
0.0
 20
0.0
 30
0.0
 40
117.5
 50
356.165568
 51
3.771612
  0
ARC
  8
LY_1
  6
CENTER
 62
     7
  5
7E
 10
0.0
 20
0.0
 30
0.0
 40
117.5
 50
56.165568
 51
63.771612
  0
ARC
  8
LY_1
  6
CENTER
 62
     7
  5
7F
 10
0.0
 20
0.0
 30
0.0
 40
117.5
 50
116.165562
 51
123.771606
  0
ARC
  8
LY_1
  6
CENTER
 62
     7
  5
80
 10
0.0
 20
0.0
 30
0.0
 40
117.5
 50
176.165564
 51
183.771608
  0
ARC
  8
LY_1
  6
CENTER
 62
     7
  5
81
 10
0.0
 20
0.0
 30
0.0
 40
162.5
 50
64.054675
 51
70.980774
  0
ARC
  8
LY_1
  6
CENTER
 62
     7
  5
82
 10
0.0
 20
0.0
 30
0.0
 40
162.5
 50
334.054678
 51
340.980776
  0
ARC
  8
LY_1
  6
CENTER
 62
     7
  5
83
 10
0.0
 20
0.0
 30
0.0
 40
162.5
 50
289.054682
 51
295.980774
  0
ARC
  8
LY_1
  6
CENTER
 62
     7
  5
84
 10
0.0
 20
0.0
 30
0.0
 40
162.5
 50
244.054684
 51
250.980776
  0
ARC
  8
LY_1
  6
CENTER
 62
     7
  5
85
 10
0.0
 20
0.0
 30
0.0
 40
162.5
 50
199.054679
 51
205.980778
  0
ARC
  8
LY_1
  6
CENTER
 62
     7
  5
86
 10
0.0
 20
0.0
 30
0.0
 40
162.5
 50
154.054685
 51
160.98077
  0
ARC
  8
LY_1
  6
CENTER
 62
     7
  5
87
 10
0.0
 20
0.0
 30
0.0
 40
162.5
 50
109.05468
 51
115.980779
  0
ARC
  8
LY_1
  6
CONTINUOUS
 62
   251
  5
88
 10
32.99998
 20
-182.000103
 30
0.0
 40
3.0
 50
179.999991
 51
270.000001
  0
ARC
  8
LY_1
  6
CONTINUOUS
 62
   251
  5
89
 10
-33.000031
 20
-182.000103
 30
0.0
 40
3.0
 50
269.999997
 51
0.0
  0
ARC
  8
LY_1
  6
CONTINUOUS
 62
   251
  5
8A
 10
34.364878
 20
143.440978
 30
0.0
 40
15.0
 50
179.999978
 51
256.527179
  0
ARC
  8
LY_1
  6
CONTINUOUS
 62
   251
  5
8B
 10
-34.36498
 20
143.440978
 30
0.0
 40
15.0
 50
283.472771
 51
0.0
  0
ARC
  8
LY_1
  6
CONTINUOUS
 62
   251
  5
8C
 10
-14.36498
 20
172.002138
 30
0.0
 40
5.0
 50
93.969551
 51
179.999964
  0
ARC
  8
LY_1
  6
CONTINUOUS
 62
   251
  5
8D
 10
14.364878
 20
172.002138
 30
0.0
 40
5.0
 50
0.0
 51
86.030467
  0
ARC
  8
LY_1
  6
CENTER
 62
     7
  5
8E
 10
0.0
 20
0.0
 30
0.0
 40
162.5
 50
19.054679
 51
25.980776
  0
ARC
  8
LY_1
  6
CONTINUOUS
 62
   251
  5
8F
 10
-135.0
 20
-59.424318
 30
0.0
 40
15.0
 50
0.0
 51
23.758133
  0
ARC
  8
LY_1
  6
CONTINUOUS
 62
   251
  5
90
 10
135.000051
 20
-59.424318
 30
0.0
 40
15.0
 50
156.241889
 51
179.999964
  0
ARC
  8
LY_1
  6
CONTINUOUS
 62
   251
  5
91
 10
-78.437246
 20
-124.915269
 30
0.0
 40
15.0
 50
57.874249
 51
170.000021
  0
ARC
  8
LY_1
  6
CONTINUOUS
 62
   251
  5
92
 10
78.437246
 20
-124.915371
 30
0.0
 40
15.0
 50
10.000008
 51
122.125736
  0
ARC
  8
LY_1
  6
CONTINUOUS
 62
   251
  5
93
 10
137.425893
 20
-160.000108
 30
0.0
 40
15.0
 50
189.999966
 51
270.000018
  0
ARC
  8
LY_1
  6
CONTINUOUS
 62
   251
  5
94
 10
-137.425893
 20
-160.000108
 30
0.0
 40
15.0
 50
270.000018
 51
349.999977
  0
ARC
  8
LY_1
  6
CONTINUOUS
 62
   251
  5
95
 10
-94.50002
 20
-177.000103
 30
0.0
 40
8.0
 50
179.999978
 51
270.000028
  0
ARC
  8
LY_1
  6
CONTINUOUS
 62
   251
  5
96
 10
94.499969
 20
-177.000103
 30
0.0
 40
8.0
 50
270.000018
 51
0.0
  0
ARC
  8
LY_1
  6
CONTINUOUS
 62
   251
  5
97
 10
0.0
 20
-35.000006
 30
0.0
 40
212.5
 50
0.0
 51
179.999964
  0
ARC
  8
LY_1
  6
CONTINUOUS
 62
   251
  5
98
 10
584.999932
 20
149.744574
 30
0.0
 40
15.0
 50
274.999996
 51
0.0
  0
ARC
  8
LY_1
  6
CONTINUOUS
 62
   251
  5
99
 10
574.999932
 20
143.850524
 30
0.0
 40
10.0
 50
274.999996
 51
0.0
  0
ARC
  8
LY_1
  6
CONTINUOUS
 62
   251
  5
9A
 10
533.636775
 20
-76.062349
 30
0.0
 40
5.0
 50
355.000017
 51
89.999982
  0
ARC
  8
LY_1
  6
CONTINUOUS
 62
   251
  5
9B
 10
454.756719
 20
-117.13644
 30
0.0
 40
80.0
 50
313.672893
 51
354.999928
  0
ARC
  8
LY_1
  6
CONTINUOUS
 62
   251
  5
9C
 10
724.999957
 20
31.817811
 30
0.0
 40
100.0
 50
179.999978
 51
219.999983
  0
ARC
  8
LY_1
  6
CONTINUOUS
 62
   251
  5
9D
 10
786.652306
 20
-134.999981
 30
0.0
 40
40.0
 50
219.999987
 51
270.000018
  0
ARC
  8
LY_1
  6
CONTINUOUS
 62
   251
  5
9E
 10
579.999932
 20
-155.000108
 30
0.0
 40
20.0
 50
270.000018
 51
0.0
  0
LINE
  8
LY_1
  6
CONTINUOUS
 62
   251
  5
9F
 10
465.000005
 20
12.5
 30
0.0
 11
465.000005
 21
-12.500006
 31
0.0
  0
LINE
  8
LY_1
  6
CONTINUOUS
 62
   251
  5
A0
 10
52.500011
 20
12.5
 30
0.0
 11
52.500011
 21
-12.500006
 31
0.0
  0
LINE
  8
LY_1
  6
CONTINUOUS
 62
   251
  5
A1
 10
918.999972
 20
-115.000013
 30
0.0
 11
940.999891
 21
-115.000013
 31
0.0
  0
LINE
  8
LY_1
  6
CONTINUOUS
 62
   251
  5
A2
 10
882.000054
 20
80.0
 30
0.0
 11
918.999972
 21
80.0
 31
0.0
  0
LINE
  8
LY_1
  6
CONTINUOUS
 62
   251
  5
A3
 10
882.000054
 20
-80.000013
 30
0.0
 11
918.999972
 21
-80.000013
 31
0.0
  0
LINE
  8
LY_1
  6
CONTINUOUS
 62
   251
  5
A4
 10
918.999972
 20
115.0
 30
0.0
 11
918.999972
 21
80.0
 31
0.0
  0
LINE
  8
LY_1
  6
CONTINUOUS
 62
   251
  5
A5
 10
882.000054
 20
-150.000013
 30
0.0
 11
882.000054
 21
-80.000013
 31
0.0
  0
LINE
  8
LY_1
  6
CONTINUOUS
 62
   251
  5
A6
 10
839.999932
 20
-150.000013
 30
0.0
 11
882.000054
 21
-150.000013
 31
0.0
  0
LINE
  8
LY_1
  6
CONTINUOUS
 62
   251
  5
A7
 10
918.999972
 20
80.0
 30
0.0
 11
918.999972
 21
-115.000013
 31
0.0
  0
LINE
  8
LY_1
  6
CONTINUOUS
 62
   251
  5
A8
 10
882.000054
 20
150.000011
 30
0.0
 11
882.000054
 21
-80.000013
 31
0.0
  0
LINE
  8
LY_1
  6
CONTINUOUS
 62
   251
  5
A9
 10
940.999891
 20
115.0
 30
0.0
 11
940.999891
 21
-115.000013
 31
0.0
  0
LINE
  8
LY_1
  6
CONTINUOUS
 62
   251
  5
AA
 10
918.999972
 20
115.0
 30
0.0
 11
940.999891
 21
115.0
 31
0.0
  0
LINE
  8
LY_1
  6
CONTINUOUS
 62
   251
  5
AB
 10
839.999932
 20
150.000011
 30
0.0
 11
882.000054
 21
150.000011
 31
0.0
  0
LINE
  8
LY_1
  6
CONTINUOUS
 62
   251
  5
AC
 10
761.013726
 20
144.214247
 30
0.0
 11
778.574354
 21
144.214247
 31
0.0
  0
LINE
  8
LY_1
  6
CONTINUOUS
 62
   251
  5
AD
 10
745.764288
 20
-148.500023
 30
0.0
 11
753.999972
 21
-148.500023
 31
0.0
  0
LINE
  8
LY_1
  6
CONTINUOUS
 62
   251
  5
AE
 10
753.999972
 20
139.431903
 30
0.0
 11
753.999972
 21
-148.500023
 31
0.0
  0
LINE
  8
LY_1
  6
CONTINUOUS
 62
   251
  5
AF
 10
784.999932
 20
177.500011
 30
0.0
 11
784.999932
 21
112.79335
 31
0.0
  0
LINE
  8
LY_1
  6
CONTINUOUS
 62
   251
  5
B0
 10
789.999932
 20
120.0
 30
0.0
 11
834.999932
 21
120.0
 31
0.0
  0
LINE
  8
LY_1
  6
CONTINUOUS
 62
   251
  5
B1
 10
758.999972
 20
-120.000013
 30
0.0
 11
834.999932
 21
-120.000013
 31
0.0
  0
LINE
  8
LY_1
  6
CONTINUOUS
 62
   251
  5
B2
 10
839.999932
 20
150.000011
 30
0.0
 11
839.999932
 21
-150.000013
 31
0.0
  0
LINE
  8
LY_1
  6
CONTINUOUS
 62
   251
  5
B3
 10
862.000054
 20
150.000011
 30
0.0
 11
862.000054
 21
-150.000013
 31
0.0
  0
LINE
  8
LY_1
  6
CONTINUOUS
 62
   251
  5
B4
 10
727.000054
 20
171.626356
 30
0.0
 11
727.000054
 21
-126.137682
 31
0.0
  0
LINE
  8
LY_1
  6
CENTER
 62
     7
  5
B5
 10
759.999932
 20
204.239945
 30
0.0
 11
759.999932
 21
171.298389
 31
0.0
  0
LINE
  8
LY_1
  6
CONTINUOUS
 62
   251
  5
B6
 10
771.19233
 20
196.500052
 30
0.0
 11
748.807559
 21
196.500052
 31
0.0
  0
LINE
  8
LY_1
  6
CONTINUOUS
 62
   251
  5
B7
 10
773.453377
 20
185.500042
 30
0.0
 11
746.546512
 21
185.500042
 31
0.0
  0
LINE
  8
LY_1
  6
CONTINUOUS
 62
   251
  5
B8
 10
773.453362
 20
185.500034
 30
0.0
 11
773.203362
 21
177.500043
 31
0.0
  0
LINE
  8
LY_1
  6
CONTINUOUS
 62
   251
  5
B9
 10
746.546504
 20
185.50001
 30
0.0
 11
746.796503
 21
177.500019
 31
0.0
  0
LINE
  8
LY_1
  6
CONTINUOUS
 62
   251
  5
BA
 10
771.19233
 20
196.500052
 30
0.0
 11
771.19233
 21
185.500042
 31
0.0
  0
LINE
  8
LY_1
  6
CONTINUOUS
 62
   251
  5
BB
 10
748.807559
 20
196.500052
 30
0.0
 11
748.807559
 21
185.500042
 31
0.0
  0
LINE
  8
LY_1
  6
CONTINUOUS
 62
     7
  5
BC
 10
748.807509
 20
196.50006
 30
0.0
 11
759.999916
 21
185.500043
 31
0.0
  0
LINE
  8
LY_1
  6
CONTINUOUS
 62
     7
  5
BD
 10
759.999935
 20
196.500022
 30
0.0
 11
748.807545
 21
185.500024
 31
0.0
  0
LINE
  8
LY_1
  6
CONTINUOUS
 62
     7
  5
BE
 10
759.999921
 20
185.500015
 30
0.0
 11
771.19231
 21
196.500013
 31
0.0
  0
LINE
  8
LY_1
  6
CONTINUOUS
 62
     7
  5
BF
 10
771.19231
 20
185.500035
 30
0.0
 11
759.999903
 21
196.500051
 31
0.0
  0
LINE
  8
LY_1
  6
CONTINUOUS
 62
   251
  5
C0
 10
704.999932
 20
177.500011
 30
0.0
 11
784.999932
 21
177.500011
 31
0.0
  0
LINE
  8
LY_1
  6
CONTINUOUS
 62
   251
  5
C1
 10
704.999932
 20
177.500006
 30
0.0
 11
704.999932
 21
-99.918961
 31
0.0
  0
LINE
  8
LY_1
  6
CONTINUOUS
 62
   251
  5
C2
 10
667.499932
 20
192.999935
 30
0.0
 11
667.499932
 21
189.999943
 31
0.0
  0
LINE
  8
LY_1
  6
CONTINUOUS
 62
   251
  5
C3
 10
642.499932
 20
192.999935
 30
0.0
 11
642.499932
 21
189.999943
 31
0.0
  0
LINE
  8
LY_1
  6
CONTINUOUS
 62
   251
  5
C4
 10
-12.5
 20
192.999935
 30
0.0
 11
-12.5
 21
189.999943
 31
0.0
  0
LINE
  8
LY_1
  6
CONTINUOUS
 62
   251
  5
C5
 10
12.5
 20
192.999935
 30
0.0
 11
12.5
 21
189.999943
 31
0.0
  0
LINE
  8
LY_1
  6
CENTER
 62
     7
  5
C6
 10
619.999932
 20
218.999945
 30
0.0
 11
689.999932
 21
218.999945
 31
0.0
  0
LINE
  8
LY_1
  6
CENTER
 62
     7
  5
C7
 10
654.999932
 20
253.999933
 30
0.0
 11
654.999932
 21
184.730892
 31
0.0
  0
LINE
  8
LY_1
  6
CONTINUOUS
 62
   251
  5
C8
 10
-5.0
 20
238.999945
 30
0.0
 11
-5.0
 21
195.799923
 31
0.0
  0
LINE
  8
LY_1
  6
CONTINUOUS
 62
   251
  5
C9
 10
-4.999944
 20
203.002158
 30
0.0
 11
-10.019935
 21
201.971181
 31
0.0
  0
LINE
  8
LY_1
  6
CONTINUOUS
 62
   251
  5
CA
 10
-11.117042
 20
200.843086
 30
0.0
 11
-12.499996
 21
192.999968
 31
0.0
  0
LINE
  8
LY_1
  6
CONTINUOUS
 62
   251
  5
CB
 10
5.0
 20
238.999945
 30
0.0
 11
5.0
 21
195.799923
 31
0.0
  0
LINE
  8
LY_1
  6
CONTINUOUS
 62
   251
  5
CC
 10
4.999919
 20
203.002402
 30
0.0
 11
10.019911
 21
201.971424
 31
0.0
  0
LINE
  8
LY_1
  6
CONTINUOUS
 62
   251
  5
CD
 10
11.117033
 20
200.843049
 30
0.0
 11
12.499988
 21
192.999921
 31
0.0
  0
LINE
  8
LY_1
  6
CONTINUOUS
 62
   251
  5
CE
 10
655.423219
 20
203.954545
 30
0.0
 11
664.658084
 21
201.954543
 31
0.0
  0
LINE
  8
LY_1
  6
CONTINUOUS
 62
   251
  5
CF
 10
645.341772
 20
201.95455
 30
0.0
 11
654.576637
 21
203.954552
 31
0.0
  0
LINE
  8
LY_1
  6
CONTINUOUS
 62
   251
  5
D0
 10
645.765058
 20
201.999938
 30
0.0
 11
664.234805
 21
201.999938
 31
0.0
  0
LINE
  8
LY_1
  6
CONTINUOUS
 62
   251
  5
D1
 10
666.204284
 20
200.347241
 30
0.0
 11
667.499809
 21
192.999952
 31
0.0
  0
LINE
  8
LY_1
  6
CONTINUOUS
 62
   251
  5
D2
 10
642.499782
 20
192.999983
 30
0.0
 11
643.795309
 21
200.347284
 31
0.0
  0
LINE
  8
LY_1
  6
CONTINUOUS
 62
   251
  5
D3
 10
-20.047294
 20
178.880114
 30
0.0
 11
-16.0
 21
189.999963
 31
0.0
  0
LINE
  8
LY_1
  6
CONTINUOUS
 62
   251
  5
D4
 10
20.047269
 20
178.880162
 30
0.0
 11
15.999993
 21
189.999963
 31
0.0
  0
LINE
  8
LY_1
  6
CONTINUOUS
 62
   251
  5
D5
 10
-15.999908
 20
189.999943
 30
0.0
 11
16.000112
 21
189.999943
 31
0.0
  0
LINE
  8
LY_1
  6
CONTINUOUS
 62
   251
  5
D6
 10
30.853319
 20
175.248223
 30
0.0
 11
29.999879
 21
177.482378
 31
0.0
  0
LINE
  8
LY_1
  6
CONTINUOUS
 62
   251
  5
D7
 10
-30.853447
 20
175.248251
 30
0.0
 11
-29.999992
 21
177.482414
 31
0.0
  0
LINE
  8
LY_1
  6
CONTINUOUS
 62
   251
  5
D8
 10
694.104419
 20
-86.934198
 30
0.0
 11
699.999932
 21
-86.934198
 31
0.0
  0
LINE
  8
LY_1
  6
CONTINUOUS
 62
   251
  5
D9
 10
663.095228
 20
-49.978886
 30
0.0
 11
699.999932
 21
-49.978886
 31
0.0
  0
LINE
  8
LY_1
  6
CONTINUOUS
 62
   251
  5
DA
 10
646.566526
 20
-30.280768
 30
0.0
 11
699.999932
 21
-30.280768
 31
0.0
  0
LINE
  8
LY_1
  6
CONTINUOUS
 62
   251
  5
DB
 10
634.353061
 20
-10.409425
 30
0.0
 11
699.999932
 21
-10.409425
 31
0.0
  0
LINE
  8
LY_1
  6
CONTINUOUS
 62
   251
  5
DC
 10
629.999932
 20
10.409425
 30
0.0
 11
699.999932
 21
10.409425
 31
0.0
  0
LINE
  8
LY_1
  6
CONTINUOUS
 62
   251
  5
DD
 10
629.999932
 20
30.280762
 30
0.0
 11
699.999932
 21
30.280762
 31
0.0
  0
LINE
  8
LY_1
  6
CONTINUOUS
 62
   251
  5
DE
 10
629.999932
 20
49.979006
 30
0.0
 11
699.999932
 21
49.979006
 31
0.0
  0
LINE
  8
LY_1
  6
CONTINUOUS
 62
   251
  5
DF
 10
629.999932
 20
86.933961
 30
0.0
 11
699.999932
 21
86.933961
 31
0.0
  0
LINE
  8
LY_1
  6
CONTINUOUS
 62
   251
  5
E0
 10
629.999932
 20
104.053593
 30
0.0
 11
699.999932
 21
104.053593
 31
0.0
  0
LINE
  8
LY_1
  6
CONTINUOUS
 62
   251
  5
E1
 10
629.999932
 20
119.70569
 30
0.0
 11
699.999932
 21
119.70569
 31
0.0
  0
LINE
  8
LY_1
  6
CONTINUOUS
 62
   251
  5
E2
 10
629.999932
 20
134.426759
 30
0.0
 11
699.999932
 21
134.426759
 31
0.0
  0
LINE
  8
LY_1
  6
CONTINUOUS
 62
   251
  5
E3
 10
629.999932
 20
172.922179
 30
0.0
 11
699.999932
 21
172.922179
 31
0.0
  0
LINE
  8
LY_1
  6
CONTINUOUS
 62
   251
  5
E4
 10
674.639563
 20
179.999951
 30
0.0
 11
670.999859
 21
189.999954
 31
0.0
  0
LINE
  8
LY_1
  6
CONTINUOUS
 62
   251
  5
E5
 10
635.360217
 20
179.999941
 30
0.0
 11
638.999917
 21
189.999935
 31
0.0
  0
LINE
  8
LY_1
  6
CONTINUOUS
 62
   251
  5
E6
 10
639.000023
 20
189.999943
 30
0.0
 11
670.999993
 21
189.999943
 31
0.0
  0
LINE
  8
LY_1
  6
CONTINUOUS
 62
   251
  5
E7
 10
699.999888
 20
179.999948
 30
0.0
 11
704.999921
 21
174.999916
 31
0.0
  0
LINE
  8
LY_1
  6
CONTINUOUS
 62
   251
  5
E8
 10
624.999834
 20
175.000096
 30
0.0
 11
629.999822
 21
180.000083
 31
0.0
  0
LINE
  8
LY_1
  6
CONTINUOUS
 62
   251
  5
E9
 10
629.999932
 20
179.999943
 30
0.0
 11
699.999932
 21
179.999943
 31
0.0
  0
LINE
  8
LY_1
  6
CONTINUOUS
 62
   251
  5
EA
 10
52.500011
 20
12.5
 30
0.0
 11
38.50001
 21
12.5
 31
0.0
  0
LINE
  8
LY_1
  6
CONTINUOUS
 62
   251
  5
EB
 10
52.500011
 20
-12.500006
 30
0.0
 11
38.50001
 21
-12.500006
 31
0.0
  0
LINE
  8
LY_1
  6
CONTINUOUS
 62
   251
  5
EC
 10
38.50001
 20
12.5
 30
0.0
 11
38.50001
 21
-12.500006
 31
0.0
  0
LINE
  8
LY_1
  6
CENTER
 62
     7
  5
ED
 10
0.0
 20
261.093795
 30
0.0
 11
0.0
 21
-225.000108
 31
0.0
  0
LINE
  8
LY_1
  6
CENTER
 62
     7
  5
EE
 10
-229.597828
 20
0.0
 30
0.0
 11
229.850515
 21
0.0
 31
0.0
  0
LINE
  8
LY_1
  6
CONTINUOUS
 62
   251
  5
EF
 10
529.999919
 20
132.500064
 30
0.0
 11
529.999919
 21
-132.499981
 31
0.0
  0
LINE
  8
LY_1
  6
CONTINUOUS
 62
   251
  5
F0
 10
588.484799
 20
0.000337
 30
0.0
 11
579.99952
 21
-8.484939
 31
0.0
  0
LINE
  8
LY_1
  6
CONTINUOUS
 62
   251
  5
F1
 10
580.000118
 20
-8.485193
 30
0.0
 11
571.514841
 21
0.000085
 31
0.0
  0
LINE
  8
LY_1
  6
CONTINUOUS
 62
   251
  5
F2
 10
579.999661
 20
8.485479
 30
0.0
 11
571.514383
 21
0.000202
 31
0.0
  0
LINE
  8
LY_1
  6
CONTINUOUS
 62
   251
  5
F3
 10
588.485113
 20
-0.000362
 30
0.0
 11
579.999817
 21
8.484934
 31
0.0
  0
LINE
  8
LY_1
  6
CENTER
 62
     7
  5
F4
 10
565.402662
 20
-104.999994
 30
0.0
 11
589.513558
 21
-104.999994
 31
0.0
  0
LINE
  8
LY_1
  6
CENTER
 62
     7
  5
F5
 10
577.999937
 20
-93.773314
 30
0.0
 11
577.999937
 21
-115.692399
 31
0.0
  0
LINE
  8
LY_1
  6
CENTER
 62
     7
  5
F6
 10
579.999932
 20
15.0
 30
0.0
 11
579.999932
 21
-15.000006
 31
0.0
  0
LINE
  8
LY_1
  6
CONTINUOUS
 62
   251
  5
F7
 10
874.999932
 20
-175.000108
 30
0.0
 11
874.999932
 21
-210.000108
 31
0.0
  0
LINE
  8
LY_1
  6
DASHED
 62
     7
  5
F9
 10
852.499932
 20
-175.000108
 30
0.0
 11
852.499932
 21
-210.000108
 31
0.0
  0
LINE
  8
LY_1
  6
CENTER
 62
     7
  5
FA
 10
839.999932
 20
-168.297965
 30
0.0
 11
839.999932
 21
-217.615821
 31
0.0
  0
LINE
  8
LY_1
  6
DASHED
 62
     7
  5
FB
 10
827.499932
 20
-175.000108
 30
0.0
 11
827.499932
 21
-210.000108
 31
0.0
  0
LINE
  8
LY_1
  6
CONTINUOUS
 62
   251
  5
FC
 10
509.999919
 20
-210.000108
 30
0.0
 11
874.999932
 21
-210.000108
 31
0.0
  0
LINE
  8
LY_1
  6
DASHED
 62
     7
  5
FD
 10
557.499932
 20
-175.000108
 30
0.0
 11
557.499932
 21
-210.000108
 31
0.0
  0
LINE
  8
LY_1
  6
CENTER
 62
     7
  5
FE
 10
544.999919
 20
-166.654161
 30
0.0
 11
544.999919
 21
-217.615821
 31
0.0
  0
LINE
  8
LY_1
  6
DASHED
 62
     7
  5
FF
 10
532.499919
 20
-175.000108
 30
0.0
 11
532.499919
 21
-210.000108
 31
0.0
  0
LINE
  8
LY_1
  6
CONTINUOUS
 62
   251
  5
100
 10
509.999919
 20
-175.000108
 30
0.0
 11
579.999932
 21
-175.000108
 31
0.0
  0
LINE
  8
LY_1
  6
CONTINUOUS
 62
   251
  5
101
 10
509.999919
 20
-175.000108
 30
0.0
 11
509.999919
 21
-210.000108
 31
0.0
  0
LINE
  8
LY_1
  6
CONTINUOUS
 62
   251
  5
102
 10
786.652306
 20
-175.000108
 30
0.0
 11
874.999932
 21
-175.000108
 31
0.0
  0
LINE
  8
LY_1
  6
CONTINUOUS
 62
   251
  5
103
 10
350.0
 20
12.5
 30
0.0
 11
467.500008
 21
12.5
 31
0.0
  0
LINE
  8
LY_1
  6
CONTINUOUS
 62
   251
  5
104
 10
350.0
 20
-12.500006
 30
0.0
 11
467.500008
 21
-12.500006
 31
0.0
  0
LINE
  8
LY_1
  6
CONTINUOUS
 62
   251
  5
105
 10
350.0
 20
47.500064
 30
0.0
 11
489.999995
 21
47.500064
 31
0.0
  0
LINE
  8
LY_1
  6
CONTINUOUS
 62
   251
  5
106
 10
489.999995
 20
-55.000006
 30
0.0
 11
498.999998
 21
-55.000006
 31
0.0
  0
LINE
  8
LY_1
  6
CONTINUOUS
 62
   251
  5
107
 10
489.999995
 20
55.000064
 30
0.0
 11
498.999998
 21
55.000064
 31
0.0
  0
LINE
  8
LY_1
  6
CONTINUOUS
 62
   251
  5
108
 10
489.999995
 20
55.000064
 30
0.0
 11
489.999995
 21
-55.000006
 31
0.0
  0
LINE
  8
LY_1
  6
CONTINUOUS
 62
   251
  5
109
 10
350.0
 20
-47.500006
 30
0.0
 11
489.999995
 21
-47.500006
 31
0.0
  0
LINE
  8
LY_1
  6
CONTINUOUS
 62
   251
  5
10A
 10
350.0
 20
47.500064
 30
0.0
 11
350.0
 21
-47.500006
 31
0.0
  0
LINE
  8
LY_1
  6
CONTINUOUS
 62
   251
  5
10B
 10
509.999919
 20
132.500064
 30
0.0
 11
509.999919
 21
-132.499981
 31
0.0
  0
LINE
  8
LY_1
  6
CONTINUOUS
 62
   251
  5
10C
 10
498.99968
 20
-90.00043
 30
0.0
 11
509.999725
 21
-101.000474
 31
0.0
  0
LINE
  8
LY_1
  6
CONTINUOUS
 62
   251
  5
10D
 10
499.000367
 20
89.999512
 30
0.0
 11
510.000394
 21
100.999537
 31
0.0
  0
LINE
  8
LY_1
  6
CONTINUOUS
 62
   251
  5
10E
 10
509.999919
 20
132.500064
 30
0.0
 11
560.000059
 21
132.500064
 31
0.0
  0
LINE
  8
LY_1
  6
CONTINUOUS
 62
   251
  5
10F
 10
509.999919
 20
-132.499981
 30
0.0
 11
533.267652
 21
-132.499981
 31
0.0
  0
LINE
  8
LY_1
  6
CONTINUOUS
 62
   251
  5
110
 10
498.999998
 20
90.000062
 30
0.0
 11
498.999998
 21
-89.999994
 31
0.0
  0
LINE
  8
LY_1
  6
CENTER
 62
     7
  5
111
 10
330.0
 20
0.0
 30
0.0
 11
1171.010954
 21
0.0
 31
0.0
  0
LINE
  8
LY_1
  6
CONTINUOUS
 62
     7
  5
112
 10
138.149938
 20
0.000035
 30
0.0
 11
147.149974
 21
-8.071072
 31
0.0
  0
LINE
  8
LY_1
  6
CONTINUOUS
 62
     7
  5
113
 10
147.150019
 20
0.000024
 30
0.0
 11
138.150021
 21
-8.071049
 31
0.0
  0
LINE
  8
LY_1
  6
CONTINUOUS
 62
     7
  5
114
 10
138.150038
 20
8.070998
 30
0.0
 11
147.149998
 21
-0.000042
 31
0.0
  0
LINE
  8
LY_1
  6
CONTINUOUS
 62
     7
  5
115
 10
138.149943
 20
-0.000034
 30
0.0
 11
147.150054
 21
8.071142
 31
0.0
  0
LINE
  8
LY_1
  6
CONTINUOUS
 62
   251
  5
116
 10
147.150014
 20
8.071047
 30
0.0
 11
138.150075
 21
8.071047
 31
0.0
  0
LINE
  8
LY_1
  6
CONTINUOUS
 62
   251
  5
117
 10
147.150014
 20
-8.071168
 30
0.0
 11
138.150075
 21
-8.071168
 31
0.0
  0
LINE
  8
LY_1
  6
CONTINUOUS
 62
   251
  5
118
 10
138.149985
 20
8.50761
 30
0.0
 11
132.23831
 21
8.32287
 31
0.0
  0
LINE
  8
LY_1
  6
CONTINUOUS
 62
   251
  5
119
 10
138.149979
 20
-8.507514
 30
0.0
 11
132.238355
 21
-8.322776
 31
0.0
  0
LINE
  8
LY_1
  6
CONTINUOUS
 62
   251
  5
11A
 10
138.150075
 20
-8.50757
 30
0.0
 11
138.150075
 21
8.50757
 31
0.0
  0
LINE
  8
LY_1
  6
CONTINUOUS
 62
   251
  5
11B
 10
147.150014
 20
-8.071168
 30
0.0
 11
147.150014
 21
8.071047
 31
0.0
  0
LINE
  8
LY_1
  6
CENTER
 62
     7
  5
11C
 10
-55.266126
 20
-95.72492
 30
0.0
 11
-62.18019
 21
-107.700427
 31
0.0
  0
LINE
  8
LY_1
  6
CENTER
 62
     7
  5
11D
 10
55.267002
 20
-95.724309
 30
0.0
 11
62.181121
 21
-107.699916
 31
0.0
  0
LINE
  8
LY_1
  6
CENTER
 62
     7
  5
11E
 10
55.266109
 20
95.724739
 30
0.0
 11
62.180223
 21
107.700334
 31
0.0
  0
LINE
  8
LY_1
  6
CENTER
 62
     7
  5
11F
 10
-55.267063
 20
95.724206
 30
0.0
 11
-62.181188
 21
107.699824
 31
0.0
  0
LINE
  8
LY_1
  6
CENTER
 62
     7
  5
120
 10
58.927035
 20
142.265605
 30
0.0
 11
64.87157
 21
156.61698
 31
0.0
  0
LINE
  8
LY_1
  6
CENTER
 62
     7
  5
121
 10
142.265586
 20
-58.927046
 30
0.0
 11
156.617019
 21
-64.871606
 31
0.0
  0
LINE
  8
LY_1
  6
CENTER
 62
     7
  5
122
 10
58.929274
 20
-142.264679
 30
0.0
 11
64.873804
 21
-156.616048
 31
0.0
  0
LINE
  8
LY_1
  6
CENTER
 62
     7
  5
123
 10
-58.927031
 20
-142.265611
 30
0.0
 11
-64.871561
 21
-156.616974
 31
0.0
  0
LINE
  8
LY_1
  6
CENTER
 62
     7
  5
124
 10
-142.264716
 20
-58.929258
 30
0.0
 11
-156.616127
 21
-64.873805
 31
0.0
  0
LINE
  8
LY_1
  6
CENTER
 62
     7
  5
125
 10
-142.265643
 20
58.927025
 30
0.0
 11
-156.617005
 21
64.871555
 31
0.0
  0
LINE
  8
LY_1
  6
CENTER
 62
     7
  5
126
 10
-58.929329
 20
142.264704
 30
0.0
 11
-64.873857
 21
156.616068
 31
0.0
  0
LINE
  8
LY_1
  6
CENTER
 62
     7
  5
127
 10
108.270111
 20
-104.999994
 30
0.0
 11
128.172455
 21
-104.999994
 31
0.0
  0
LINE
  8
LY_1
  6
CONTINUOUS
 62
   251
  5
128
 10
32.99998
 20
-185.000108
 30
0.0
 11
94.499969
 21
-185.000108
 31
0.0
  0
LINE
  8
LY_1
  6
DASHED
 62
     7
  5
129
 10
162.500051
 20
-175.000108
 30
0.0
 11
162.500051
 21
-210.000108
 31
0.0
  0
LINE
  8
LY_1
  6
DASHED
 62
     7
  5
12A
 10
187.500051
 20
-175.000108
 30
0.0
 11
187.500051
 21
-210.000108
 31
0.0
  0
LINE
  8
LY_1
  6
DASHED
 62
     7
  5
12B
 10
-187.5
 20
-175.000108
 30
0.0
 11
-187.5
 21
-210.000108
 31
0.0
  0
LINE
  8
LY_1
  6
DASHED
 62
     7
  5
12C
 10
-162.5
 20
-175.000108
 30
0.0
 11
-162.5
 21
-210.000108
 31
0.0
  0
LINE
  8
LY_1
  6
CONTINUOUS
 62
   251
  5
12D
 10
-102.499958
 20
-175.000017
 30
0.0
 11
-93.209318
 21
-122.310653
 31
0.0
  0
LINE
  8
LY_1
  6
CONTINUOUS
 62
   251
  5
12E
 10
19.364878
 20
172.002138
 30
0.0
 11
19.364878
 21
143.440978
 31
0.0
  0
LINE
  8
LY_1
  6
CONTINUOUS
 62
   251
  5
12F
 10
-19.36498
 20
172.002138
 30
0.0
 11
-19.36498
 21
143.440978
 31
0.0
  0
LINE
  8
LY_1
  6
CENTER
 62
     7
  5
130
 10
142.264667
 20
58.9294
 30
0.0
 11
156.61603
 21
64.873928
 31
0.0
  0
LINE
  8
LY_1
  6
CONTINUOUS
 62
   251
  5
131
 10
120.000051
 20
-59.424318
 30
0.0
 11
120.000051
 21
-147.554557
 31
0.0
  0
LINE
  8
LY_1
  6
CONTINUOUS
 62
   251
  5
132
 10
-120.0
 20
-59.424318
 30
0.0
 11
-120.0
 21
-147.554302
 31
0.0
  0
LINE
  8
LY_1
  6
CONTINUOUS
 62
   251
  5
133
 10
-122.653439
 20
-162.604735
 30
0.0
 11
-120.000006
 21
-147.556373
 31
0.0
  0
LINE
  8
LY_1
  6
CONTINUOUS
 62
   251
  5
134
 10
122.65336
 20
-162.604817
 30
0.0
 11
119.999991
 21
-147.556805
 31
0.0
  0
LINE
  8
LY_1
  6
CONTINUOUS
 62
   251
  5
135
 10
102.49959
 20
-175.000183
 30
0.0
 11
93.209017
 21
-122.31069
 31
0.0
  0
LINE
  8
LY_1
  6
CONTINUOUS
 62
   251
  5
136
 10
102.500051
 20
-175.000108
 30
0.0
 11
212.500051
 21
-175.000108
 31
0.0
  0
LINE
  8
LY_1
  6
CONTINUOUS
 62
   251
  5
137
 10
102.500051
 20
-210.000108
 30
0.0
 11
212.500051
 21
-210.000108
 31
0.0
  0
LINE
  8
LY_1
  6
CONTINUOUS
 62
   251
  5
138
 10
-102.5
 20
-205.000108
 30
0.0
 11
102.500051
 21
-205.000108
 31
0.0
  0
LINE
  8
LY_1
  6
CONTINUOUS
 62
   251
  5
139
 10
-94.50002
 20
-185.000108
 30
0.0
 11
-33.000031
 21
-185.000108
 31
0.0
  0
LINE
  8
LY_1
  6
CONTINUOUS
 62
   251
  5
13A
 10
102.500051
 20
-175.000108
 30
0.0
 11
102.500051
 21
-210.000108
 31
0.0
  0
LINE
  8
LY_1
  6
CONTINUOUS
 62
   251
  5
13B
 10
-102.5
 20
-175.000108
 30
0.0
 11
-102.5
 21
-210.000108
 31
0.0
  0
LINE
  8
LY_1
  6
CENTER
 62
     7
  5
13C
 10
175.000051
 20
-163.238633
 30
0.0
 11
175.000051
 21
-219.654039
 31
0.0
  0
LINE
  8
LY_1
  6
CENTER
 62
     7
  5
13D
 10
-175.0
 20
-164.194927
 30
0.0
 11
-175.0
 21
-218.697872
 31
0.0
  0
LINE
  8
LY_1
  6
CONTINUOUS
 62
   251
  5
13E
 10
-212.5
 20
-175.000108
 30
0.0
 11
-102.5
 21
-175.000108
 31
0.0
  0
LINE
  8
LY_1
  6
CONTINUOUS
 62
   251
  5
13F
 10
-212.5
 20
-210.000108
 30
0.0
 11
-102.5
 21
-210.000108
 31
0.0
  0
LINE
  8
LY_1
  6
CONTINUOUS
 62
   251
  5
140
 10
-212.5
 20
-35.000006
 30
0.0
 11
-212.5
 21
-210.000108
 31
0.0
  0
LINE
  8
LY_1
  6
CONTINUOUS
 62
   251
  5
141
 10
212.500051
 20
-35.000006
 30
0.0
 11
212.500051
 21
-210.000108
 31
0.0
  0
LINE
  8
LY_1
  6
CONTINUOUS
 62
   251
  5
142
 10
538.61802
 20
-76.498191
 30
0.0
 11
534.452551
 21
-124.109035
 31
0.0
  0
LINE
  8
LY_1
  6
CONTINUOUS
 62
   251
  5
143
 10
584.999932
 20
177.500057
 30
0.0
 11
584.999932
 21
141.077328
 31
0.0
  0
LINE
  8
LY_1
  6
CONTINUOUS
 62
   251
  5
144
 10
560.000083
 20
132.499346
 30
0.0
 11
586.307369
 21
134.800935
 31
0.0
  0
LINE
  8
LY_1
  6
CONTINUOUS
 62
   251
  5
145
 10
584.999932
 20
177.500057
 30
0.0
 11
624.999932
 21
177.500057
 31
0.0
  0
LINE
  8
LY_1
  6
CONTINUOUS
 62
   251
  5
146
 10
599.999932
 20
177.500057
 30
0.0
 11
599.999932
 21
-155.000108
 31
0.0
  0
LINE
  8
LY_1
  6
CONTINUOUS
 62
   251
  5
147
 10
624.999932
 20
177.500057
 30
0.0
 11
624.999932
 21
31.817811
 31
0.0
  0
LINE
  8
LY_1
  6
CONTINUOUS
 62
   251
  5
148
 10
648.395788
 20
-32.460778
 30
0.0
 11
756.010803
 21
-160.711342
 31
0.0
  0
ENDSEC
  0
EOF
