  0
SECTION
  2
HEADER
  9
$ACADVER
  1
AC1009
  9
$DWGCODEPAGE
  3
dos932
  9
$INSBASE
 10
0.0
 20
0.0
 30
0.0
  9
$EXTMIN
 10
-197.132719
 20
-200.0
 30
0.0
  9
$EXTMAX
 10
1042.908161
 20
228.114367
 30
0.0
  9
$LIMMIN
 10
-197.132719
 20
-200.0
  9
$LIMMAX
 10
1042.908161
 20
228.114367
  9
$ORTHOMODE
 70
     0
  9
$REGENMODE
 70
     1
  9
$FILLMODE
 70
     1
  9
$QTEXTMODE
 70
     0
  9
$MIRRTEXT
 70
     1
  9
$DRAGMODE
 70
     2
  9
$LTSCALE
 40
1.0
  9
$OSMODE
 70
     0
  9
$ATTMODE
 70
     1
  9
$TEXTSIZE
 40
3.15
  9
$TRACEWID
 40
0.05
  9
$TEXTSTYLE
  7
MX_NOTE_STANDARD
  9
$CLAYER
  8
LY_1
  9
$CELTYPE
  6
CONTINUOUS
  9
$CECOLOR
 62
   256
  9
$DIMSCALE
 40
1.0
  9
$DIMASZ
 40
2.5
  9
$DIMEXO
 40
1.0
  9
$DIMDLI
 40
3.75
  9
$DIMRND
 40
0.0
  9
$DIMDLE
 40
0.0
  9
$DIMEXE
 40
1.5
  9
$DIMTP
 40
0.0
  9
$DIMTM
 40
0.0
  9
$DIMTXT
 40
3.15
  9
$DIMCEN
 40
2.5
  9
$DIMTSZ
 40
0.0
  9
$DIMTOL
 70
     0
  9
$DIMLIM
 70
     0
  9
$DIMTIH
 70
     0
  9
$DIMTOH
 70
     0
  9
$DIMSE1
 70
     0
  9
$DIMSE2
 70
     0
  9
$DIMTAD
 70
     1
  9
$DIMZIN
 70
     8
  9
$DIMBLK
  1

  9
$DIMASO
 70
     1
  9
$DIMSHO
 70
     1
  9
$DIMPOST
  1

  9
$DIMAPOST
  1

  9
$DIMALT
 70
     0
  9
$DIMALTD
 70
     4
  9
$DIMALTF
 40
0.03937
  9
$DIMLFAC
 40
1.0
  9
$DIMTOFL
 70
     1
  9
$DIMTVP
 40
0.0
  9
$DIMTIX
 70
     0
  9
$DIMSOXD
 70
     0
  9
$DIMSAH
 70
     0
  9
$DIMBLK1
  1

  9
$DIMBLK2
  1

  9
$DIMSTYLE
  2
MXDIMSTYLE
  9
$DIMCLRD
 70
     0
  9
$DIMCLRE
 70
     0
  9
$DIMCLRT
 70
     0
  9
$DIMTFAC
 40
1.0
  9
$DIMGAP
 40
1.0
  9
$LUNITS
 70
     2
  9
$LUPREC
 70
     4
  9
$AXISMODE
 70
     0
  9
$AXISUNIT
 10
0.0
 20
0.0
  9
$SKETCHINC
 40
0.1
  9
$FILLETRAD
 40
0.0
  9
$AUNITS
 70
     0
  9
$AUPREC
 70
     0
  9
$MENU
  1
acad
  9
$ELEVATION
 40
0.0
  9
$PELEVATION
 40
0.0
  9
$THICKNESS
 40
0.0
  9
$LIMCHECK
 70
     0
  9
$BLIPMODE
 70
     1
  9
$CHAMFERA
 40
0.0
  9
$CHAMFERB
 40
0.0
  9
$SKPOLY
 70
     0
  9
$TDCREATE
 40
2453665.670162037
  9
$TDUPDATE
 40
2453665.670162037
  9
$TDINDWG
 40
0.0000000000
  9
$TDUSRTIMER
 40
0.0000000000
  9
$USRTIMER
 70
     1
  9
$ANGBASE
 50
0.0
  9
$ANGDIR
 70
     0
  9
$PDMODE
 70
     0
  9
$PDSIZE
 40
0.0
  9
$PLINEWID
 40
0.0
  9
$COORDS
 70
     1
  9
$SPLFRAME
 70
     0
  9
$SPLINETYPE
 70
     6
  9
$SPLINESEGS
 70
     8
  9
$ATTDIA
 70
     0
  9
$ATTREQ
 70
     1
  9
$HANDLING
 70
     1
  9
$HANDSEED
  5
157
  9
$SURFTAB1
 70
     6
  9
$SURFTAB2
 70
     6
  9
$SURFTYPE
 70
     6
  9
$SURFU
 70
     6
  9
$SURFV
 70
     6
  9
$UCSNAME
  2

  9
$UCSORG
 10
0.0
 20
0.0
 30
0.0
  9
$UCSXDIR
 10
1.0
 20
0.0
 30
0.0
  9
$UCSYDIR
 10
0.0
 20
1.0
 30
0.0
  9
$PUCSNAME
  2

  9
$PUCSORG
 10
0.0
 20
0.0
 30
0.0
  9
$PUCSXDIR
 10
1.0
 20
0.0
 30
0.0
  9
$PUCSYDIR
 10
0.0
 20
1.0
 30
0.0
  9
$USERI1
 70
     0
  9
$USERI2
 70
     0
  9
$USERI3
 70
     0
  9
$USERI4
 70
     0
  9
$USERI5
 70
     0
  9
$USERR1
 40
0.0
  9
$USERR2
 40
0.0
  9
$USERR3
 40
0.0
  9
$USERR4
 40
0.0
  9
$USERR5
 40
0.0
  9
$WORLDVIEW
 70
     1
  9
$SHADEDGE
 70
     3
  9
$SHADEDIF
 70
    70
  9
$TILEMODE
 70
     1
  9
$MAXACTVP
 70
    16
  9
$PINSBASE
 10
0.0
 20
0.0
 30
0.0
  9
$PLIMCHECK
 70
     0
  9
$PEXTMIN
 10
1.000000E+20
 20
1.000000E+20
 30
1.000000E+20
  9
$PEXTMAX
 10
-1.000000E+20
 20
-1.000000E+20
 30
-1.000000E+20
  9
$PLIMMIN
 10
0.0
 20
0.0
  9
$PLIMMAX
 10
12.0
 20
9.0
  9
$UNITMODE
 70
     0
  9
$VISRETAIN
 70
     0
  9
$PLINEGEN
 70
     1
  9
$PSLTSCALE
 70
     0
  9
$TREEDEPTH
 70
  3020
  9
$DWGCODEPAGE
  3
dos932
  0
ENDSEC
  0
SECTION
  2
TABLES
  0
TABLE
  2
VPORT
 70
     1
  0
VPORT
  2
*ACTIVE
 70
     0
 10
0.0
 20
0.0
 11
1.0
 21
1.0
 12
422.887721
 22
14.057183
 13
0.0
 23
0.0
 14
1.0
 24
1.0
 15
0.0
 25
0.0
 16
0.0
 26
0.0
 36
1.0
 17
0.0
 27
0.0
 37
0.0
 40
432.39551
 41
1.732051
 42
50.0
 43
0.0
 44
0.0
 50
0.0
 51
0.0
 71
     0
 72
   100
 73
     1
 74
     1
 75
     0
 76
     0
 77
     0
 78
     0
  0
ENDTAB
  0
TABLE
  2
LTYPE
 70
     3
  0
LTYPE
  2
CONTINUOUS
 70
    64
  3
Solid line
 72
    65
 73
     0
 40
0.0
  0
LTYPE
  2
CENTER
 70
    64
  3
Center ____ _ ____ _ ____ _ ____ _ ____ _ ____
 72
    65
 73
     4
 40
50.8
 49
31.75
 49
-6.35
 49
6.35
 49
-6.35
  0
LTYPE
  2
DASHED
 70
    64
  3
Dashed __ __ __ __ __ __ __ __ __ __ __ __ __ _
 72
    65
 73
     2
 40
19.05
 49
12.7
 49
-6.35
  0
ENDTAB
  0
TABLE
  2
LAYER
 70
     3
  0
LAYER
  2
0
 70
     0
 62
     7
  6
CONTINUOUS
  0
LAYER
  2
LY_1
 70
     0
 62
     7
  6
CONTINUOUS
  0
LAYER
  2
DEFPOINTS
 70
     0
 62
     7
  6
CONTINUOUS
  0
ENDTAB
  0
TABLE
  2
STYLE
 70
     1
  0
STYLE
  2
MX_NOTE_STANDARD
 70
     0
 40
0.0
 41
1.0
 50
0.0
 71
     0
 42
3.15
  3
txt.shx
  4
extfont.shx
  0
ENDTAB
  0
TABLE
  2
VIEW
 70
     0
  0
ENDTAB
  0
TABLE
  2
UCS
 70
     0
  0
ENDTAB
  0
TABLE
  2
APPID
 70
     1
  0
APPID
  2
ACAD
 70
     0
  0
ENDTAB
  0
TABLE
  2
DIMSTYLE
 70
     1
  0
DIMSTYLE
  2
MXDIMSTYLE
 70
     0
  3

  4

  5

  6

  7

 40
1.0
 41
2.5
 42
1.0
 43
3.75
 44
1.5
 45
0.0
 46
0.0
 47
0.0
 48
0.0
 71
     0
 72
     0
 73
     0
 74
     0
 75
     0
 76
     0
 77
     1
 78
     8
140
3.15
141
2.5
142
0.0
143
0.03937
144
1.0
145
0.0
146
1.0
147
1.0
170
     0
171
     4
172
     1
173
     0
174
     0
175
     0
176
     0
177
     0
178
     0
  0
ENDTAB
  0
ENDSEC
  0
SECTION
  2
BLOCKS
  0
ENDSEC
  0
SECTION
  2
ENTITIES
  0
LINE
  8
LY_1
  6
CENTER
 62
     7
  5
20
 10
954.000034
 20
121.54988
 30
0.0
 11
954.000034
 21
88.00001
 31
0.0
  0
LINE
  8
LY_1
  6
CONTINUOUS
 62
   251
  5
21
 10
961.938234
 20
115.33128
 30
0.0
 11
961.300234
 21
115.69963
 31
0.0
  0
LINE
  8
LY_1
  6
CONTINUOUS
 62
   251
  5
22
 10
940.500024
 20
100.00001
 30
0.0
 11
940.500024
 21
88.00001
 31
0.0
  0
LINE
  8
LY_1
  6
CONTINUOUS
 62
   251
  5
23
 10
961.300234
 20
115.69963
 30
0.0
 11
946.700224
 21
115.69963
 31
0.0
  0
LINE
  8
LY_1
  6
CONTINUOUS
 62
   251
  5
24
 10
946.062224
 20
115.33128
 30
0.0
 11
946.700224
 21
115.69963
 31
0.0
  0
LINE
  8
LY_1
  6
CONTINUOUS
 62
   251
  5
25
 10
946.062224
 20
115.33128
 30
0.0
 11
946.062224
 21
102.19963
 31
0.0
  0
LINE
  8
LY_1
  6
CONTINUOUS
 62
   251
  5
26
 10
941.300234
 20
102.19963
 30
0.0
 11
941.300234
 21
100.00001
 31
0.0
  0
LINE
  8
LY_1
  6
CONTINUOUS
 62
   251
  5
27
 10
967.500034
 20
100.00001
 30
0.0
 11
967.500034
 21
88.00001
 31
0.0
  0
LINE
  8
LY_1
  6
CONTINUOUS
 62
   251
  5
28
 10
967.500034
 20
100.00001
 30
0.0
 11
940.500024
 21
100.00001
 31
0.0
  0
LINE
  8
LY_1
  6
CONTINUOUS
 62
   251
  5
29
 10
961.938234
 20
115.33128
 30
0.0
 11
961.938234
 21
102.19963
 31
0.0
  0
LINE
  8
LY_1
  6
CONTINUOUS
 62
   251
  5
2A
 10
966.700234
 20
102.19963
 30
0.0
 11
966.700234
 21
100.00001
 31
0.0
  0
LINE
  8
LY_1
  6
CONTINUOUS
 62
   251
  5
2B
 10
966.700234
 20
102.19963
 30
0.0
 11
941.300234
 21
102.19963
 31
0.0
  0
LINE
  8
LY_1
  6
CONTINUOUS
 62
   251
  5
2C
 10
988.700033
 20
80.09999
 30
0.0
 11
989.700033
 21
81.09999
 31
0.0
  0
LINE
  8
LY_1
  6
CONTINUOUS
 62
   251
  5
2D
 10
934.500024
 20
88.00001
 30
0.0
 11
934.500024
 21
-87.999994
 31
0.0
  0
LINE
  8
LY_1
  6
CONTINUOUS
 62
   251
  5
2E
 10
917.500044
 20
140.172883
 30
0.0
 11
917.500044
 21
121.25001
 31
0.0
  0
LINE
  8
LY_1
  6
CONTINUOUS
 62
   251
  5
2F
 10
879.500044
 20
140.172883
 30
0.0
 11
879.500044
 21
121.25001
 31
0.0
  0
LINE
  8
LY_1
  6
CONTINUOUS
 62
   251
  5
30
 10
984.450033
 20
61.8
 30
0.0
 11
984.450033
 21
58.0
 31
0.0
  0
LINE
  8
LY_1
  6
CONTINUOUS
 62
   251
  5
31
 10
981.500036
 20
88.00001
 30
0.0
 11
981.500036
 21
-87.999994
 31
0.0
  0
LINE
  8
LY_1
  6
CONTINUOUS
 62
   251
  5
32
 10
984.000036
 20
58.0
 30
0.0
 11
984.000036
 21
42.5
 31
0.0
  0
LINE
  8
LY_1
  6
CONTINUOUS
 62
   251
  5
33
 10
996.500036
 20
-42.5
 30
0.0
 11
981.500036
 21
-42.5
 31
0.0
  0
LINE
  8
LY_1
  6
CONTINUOUS
 62
   251
  5
34
 10
996.500036
 20
-27.50366
 30
0.0
 11
981.500036
 21
-27.50366
 31
0.0
  0
LINE
  8
LY_1
  6
CONTINUOUS
 62
   251
  5
35
 10
1020.855925
 20
-39.18428
 30
0.0
 11
996.500036
 21
-40.03481
 31
0.0
  0
LINE
  8
LY_1
  6
CONTINUOUS
 62
   251
  5
36
 10
996.500036
 20
42.5
 30
0.0
 11
996.500036
 21
-42.5
 31
0.0
  0
LINE
  8
LY_1
  6
CONTINUOUS
 62
   251
  5
37
 10
1023.000033
 20
58.0
 30
0.0
 11
1023.000033
 21
-30.0
 31
0.0
  0
LINE
  8
LY_1
  6
CONTINUOUS
 62
   251
  5
38
 10
990.500036
 20
42.5
 30
0.0
 11
990.500036
 21
-42.5
 31
0.0
  0
LINE
  8
LY_1
  6
CONTINUOUS
 62
   251
  5
39
 10
996.500036
 20
27.50348
 30
0.0
 11
981.500036
 21
27.50348
 31
0.0
  0
LINE
  8
LY_1
  6
CONTINUOUS
 62
   251
  5
3A
 10
1023.000033
 20
34.3474
 30
0.0
 11
996.500036
 21
34.3474
 31
0.0
  0
LINE
  8
LY_1
  6
CENTER
 62
     7
  5
3B
 10
1003.500036
 20
87.84276
 30
0.0
 11
1003.500036
 21
54.54082
 31
0.0
  0
LINE
  8
LY_1
  6
CONTINUOUS
 62
   251
  5
3C
 10
996.500036
 20
42.5
 30
0.0
 11
990.500036
 21
42.5
 31
0.0
  0
LINE
  8
LY_1
  6
CONTINUOUS
 62
   251
  5
3D
 10
1018.300032
 20
80.09999
 30
0.0
 11
1018.300032
 21
61.8
 31
0.0
  0
LINE
  8
LY_1
  6
CONTINUOUS
 62
   251
  5
3E
 10
1018.300032
 20
80.09999
 30
0.0
 11
1017.300032
 21
81.09999
 31
0.0
  0
LINE
  8
LY_1
  6
CONTINUOUS
 62
   251
  5
3F
 10
1022.550032
 20
61.8
 30
0.0
 11
984.450033
 21
61.8
 31
0.0
  0
LINE
  8
LY_1
  6
CONTINUOUS
 62
   251
  5
40
 10
1022.550032
 20
61.8
 30
0.0
 11
1022.550032
 21
58.0
 31
0.0
  0
LINE
  8
LY_1
  6
CONTINUOUS
 62
   251
  5
41
 10
1023.000033
 20
58.0
 30
0.0
 11
984.000036
 21
58.0
 31
0.0
  0
LINE
  8
LY_1
  6
CONTINUOUS
 62
   251
  5
42
 10
990.500036
 20
42.5
 30
0.0
 11
981.500036
 21
42.5
 31
0.0
  0
LINE
  8
LY_1
  6
CONTINUOUS
 62
   251
  5
43
 10
988.700033
 20
80.09999
 30
0.0
 11
988.700033
 21
61.8
 31
0.0
  0
LINE
  8
LY_1
  6
CONTINUOUS
 62
   251
  5
44
 10
1017.300032
 20
81.09999
 30
0.0
 11
989.700033
 21
81.09999
 31
0.0
  0
LINE
  8
LY_1
  6
CONTINUOUS
 62
   251
  5
45
 10
981.500036
 20
57.99991
 30
0.0
 11
787.000024
 21
57.99991
 31
0.0
  0
LINE
  8
LY_1
  6
CONTINUOUS
 62
   251
  5
46
 10
981.500036
 20
-58.0001
 30
0.0
 11
787.000024
 21
-58.0001
 31
0.0
  0
LINE
  8
LY_1
  6
CONTINUOUS
 62
   251
  5
47
 10
859.000024
 20
51.0
 30
0.0
 11
787.000024
 21
51.0
 31
0.0
  0
LINE
  8
LY_1
  6
CONTINUOUS
 62
   251
  5
48
 10
859.000024
 20
48.0
 30
0.0
 11
787.000024
 21
48.0
 31
0.0
  0
LINE
  8
LY_1
  6
CONTINUOUS
 62
   251
  5
49
 10
859.000024
 20
45.0
 30
0.0
 11
787.000024
 21
45.0
 31
0.0
  0
LINE
  8
LY_1
  6
CONTINUOUS
 62
   251
  5
4A
 10
859.000024
 20
42.0
 30
0.0
 11
787.000024
 21
42.0
 31
0.0
  0
LINE
  8
LY_1
  6
CONTINUOUS
 62
   251
  5
4B
 10
859.000024
 20
-42.0
 30
0.0
 11
787.000024
 21
-42.0
 31
0.0
  0
LINE
  8
LY_1
  6
CONTINUOUS
 62
   251
  5
4C
 10
859.000024
 20
-45.0
 30
0.0
 11
787.000024
 21
-45.0
 31
0.0
  0
LINE
  8
LY_1
  6
CONTINUOUS
 62
   251
  5
4D
 10
859.000024
 20
-48.0
 30
0.0
 11
787.000024
 21
-48.0
 31
0.0
  0
LINE
  8
LY_1
  6
CONTINUOUS
 62
   251
  5
4E
 10
859.000024
 20
-51.0
 30
0.0
 11
787.000024
 21
-51.0
 31
0.0
  0
LINE
  8
LY_1
  6
CONTINUOUS
 62
   251
  5
4F
 10
924.000024
 20
88.00001
 30
0.0
 11
924.000024
 21
-87.999994
 31
0.0
  0
LINE
  8
LY_1
  6
CONTINUOUS
 62
   251
  5
50
 10
787.000024
 20
88.00001
 30
0.0
 11
787.000024
 21
-87.999994
 31
0.0
  0
LINE
  8
LY_1
  6
CONTINUOUS
 62
   251
  5
51
 10
785.000024
 20
88.00001
 30
0.0
 11
785.000024
 21
-87.999994
 31
0.0
  0
LINE
  8
LY_1
  6
CONTINUOUS
 62
   251
  5
52
 10
924.000024
 20
-51.0
 30
0.0
 11
859.000024
 21
-51.0
 31
0.0
  0
LINE
  8
LY_1
  6
CONTINUOUS
 62
   251
  5
53
 10
924.000024
 20
-48.0
 30
0.0
 11
859.000024
 21
-48.0
 31
0.0
  0
LINE
  8
LY_1
  6
CONTINUOUS
 62
   251
  5
54
 10
924.000024
 20
-45.0
 30
0.0
 11
859.000024
 21
-45.0
 31
0.0
  0
LINE
  8
LY_1
  6
CONTINUOUS
 62
   251
  5
55
 10
924.000024
 20
51.0
 30
0.0
 11
859.000024
 21
51.0
 31
0.0
  0
LINE
  8
LY_1
  6
CONTINUOUS
 62
   251
  5
56
 10
924.000024
 20
48.0
 30
0.0
 11
859.000024
 21
48.0
 31
0.0
  0
LINE
  8
LY_1
  6
CONTINUOUS
 62
   251
  5
57
 10
924.000024
 20
45.0
 30
0.0
 11
859.000024
 21
45.0
 31
0.0
  0
LINE
  8
LY_1
  6
CONTINUOUS
 62
   251
  5
58
 10
924.000024
 20
42.0
 30
0.0
 11
859.000024
 21
42.0
 31
0.0
  0
LINE
  8
LY_1
  6
CONTINUOUS
 62
   251
  5
59
 10
924.000024
 20
-42.0
 30
0.0
 11
859.000024
 21
-42.0
 31
0.0
  0
LINE
  8
LY_1
  6
CENTER
 62
     7
  5
5A
 10
898.500044
 20
147.34105
 30
0.0
 11
898.500044
 21
103.86555
 31
0.0
  0
LINE
  8
LY_1
  6
CONTINUOUS
 62
   251
  5
5B
 10
920.700054
 20
121.25001
 30
0.0
 11
876.300044
 21
121.25001
 31
0.0
  0
LINE
  8
LY_1
  6
CONTINUOUS
 62
   251
  5
5C
 10
876.300044
 20
121.25001
 30
0.0
 11
876.300044
 21
118.00001
 31
0.0
  0
LINE
  8
LY_1
  6
CONTINUOUS
 62
   251
  5
5D
 10
920.700054
 20
121.25001
 30
0.0
 11
920.700054
 21
118.00001
 31
0.0
  0
LINE
  8
LY_1
  6
CONTINUOUS
 62
   251
  5
5E
 10
923.000044
 20
118.00001
 30
0.0
 11
923.000044
 21
88.00001
 31
0.0
  0
LINE
  8
LY_1
  6
CONTINUOUS
 62
   251
  5
5F
 10
861.000044
 20
89.00001
 30
0.0
 11
861.000044
 21
88.00001
 31
0.0
  0
LINE
  8
LY_1
  6
CONTINUOUS
 62
   251
  5
60
 10
923.000044
 20
118.00001
 30
0.0
 11
866.441344
 21
118.00001
 31
0.0
  0
LINE
  8
LY_1
  6
CONTINUOUS
 62
   251
  5
61
 10
881.207151
 20
141.87999
 30
0.0
 11
915.792938
 21
141.87999
 31
0.0
  0
LINE
  8
LY_1
  6
CONTINUOUS
 62
   251
  5
62
 10
915.792938
 20
141.87999
 30
0.0
 11
917.500044
 21
140.172883
 31
0.0
  0
LINE
  8
LY_1
  6
CONTINUOUS
 62
   251
  5
63
 10
881.207151
 20
141.87999
 30
0.0
 11
879.500044
 21
140.172883
 31
0.0
  0
ARC
  8
LY_1
  6
CONTINUOUS
 62
   251
  5
64
 10
1020.821024
 20
-38.18489
 30
0.0
 40
1.0
 50
271.999998
 51
343.6062
  0
ARC
  8
LY_1
  6
CONTINUOUS
 62
   251
  5
65
 10
993.000036
 20
-30.0
 30
0.0
 40
30.0
 50
343.6062
 51
0.00001
  0
ARC
  8
LY_1
  6
CONTINUOUS
 62
   251
  5
66
 10
941.000044
 20
89.00001
 30
0.0
 40
80.0
 50
158.74619
 51
180.0
  0
LINE
  8
LY_1
  6
CONTINUOUS
 62
   251
  5
67
 10
785.000024
 20
-73.806
 30
0.0
 11
767.000024
 21
-73.806
 31
0.0
  0
LINE
  8
LY_1
  6
CONTINUOUS
 62
   251
  5
68
 10
785.000024
 20
73.806
 30
0.0
 11
767.000024
 21
73.806
 31
0.0
  0
LINE
  8
LY_1
  6
CONTINUOUS
 62
   251
  5
69
 10
767.000024
 20
-87.999994
 30
0.0
 11
981.500036
 21
-87.999994
 31
0.0
  0
LINE
  8
LY_1
  6
CONTINUOUS
 62
   251
  5
6A
 10
767.000024
 20
88.00001
 30
0.0
 11
981.500036
 21
88.00001
 31
0.0
  0
LINE
  8
LY_1
  6
CONTINUOUS
 62
   251
  5
6B
 10
658.000018
 20
166.470003
 30
0.0
 11
658.000009
 21
155.470017
 31
0.0
  0
LINE
  8
LY_1
  6
CONTINUOUS
 62
   251
  5
6C
 10
115.650024
 20
-0.000036
 30
0.0
 11
124.65001
 21
0.000012
 31
0.0
  0
CIRCLE
  8
LY_1
  6
CONTINUOUS
 62
   251
  5
6D
 10
0.0
 20
0.0
 30
0.0
 40
7.0
  0
ARC
  8
LY_1
  6
CONTINUOUS
 62
   251
  5
6E
 10
651.000001
 20
48.909248
 30
0.0
 40
5.0
 50
179.999991
 51
270.000001
  0
ARC
  8
LY_1
  6
CONTINUOUS
 62
   251
  5
6F
 10
740.000017
 20
48.909248
 30
0.0
 40
5.0
 50
269.999997
 51
0.0
  0
ARC
  8
LY_1
  6
CONTINUOUS
 62
   251
  5
70
 10
740.000017
 20
-48.909245
 30
0.0
 40
5.0
 50
0.0
 51
90.000003
  0
ARC
  8
LY_1
  6
CONTINUOUS
 62
   251
  5
71
 10
651.000001
 20
-48.909245
 30
0.0
 40
5.0
 50
90.000003
 51
180.000005
  0
ARC
  8
LY_1
  6
CONTINUOUS
 62
   251
  5
72
 10
678.000009
 20
143.000002
 30
0.0
 40
5.0
 50
0.0
 51
90.000003
  0
ARC
  8
LY_1
  6
CONTINUOUS
 62
   251
  5
73
 10
641.000001
 20
100.544732
 30
0.0
 40
5.0
 50
0.0
 51
90.000003
  0
ARC
  8
LY_1
  6
CONTINUOUS
 62
   251
  5
74
 10
628.000009
 20
-115.0
 30
0.0
 40
5.0
 50
90.000003
 51
180.000005
  0
ARC
  8
LY_1
  6
CONTINUOUS
 62
   251
  5
75
 10
641.000001
 20
-105.0
 30
0.0
 40
5.0
 50
269.999997
 51
0.0
  0
ARC
  8
LY_1
  6
CONTINUOUS
 62
   251
  5
76
 10
-9.738388
 20
170.599976
 30
0.0
 40
1.4
 50
101.605676
 51
169.999966
  0
ARC
  8
LY_1
  6
CONTINUOUS
 62
   251
  5
77
 10
-6.400032
 20
165.799961
 30
0.0
 40
1.4
 50
269.999963
 51
0.0
  0
ARC
  8
LY_1
  6
CONTINUOUS
 62
   251
  5
78
 10
6.400032
 20
165.799961
 30
0.0
 40
1.4
 50
179.999978
 51
270.000028
  0
ARC
  8
LY_1
  6
CONTINUOUS
 62
   251
  5
79
 10
0.0
 20
208.999968
 30
0.0
 40
5.0
 50
0.0
 51
179.999964
  0
ARC
  8
LY_1
  6
CONTINUOUS
 62
   251
  5
7A
 10
9.738388
 20
170.599976
 30
0.0
 40
1.4
 50
9.999995
 51
78.394289
  0
ARC
  8
LY_1
  6
CONTINUOUS
 62
   251
  5
7B
 10
571.406381
 20
164.05591
 30
0.0
 40
6.0
 50
126.423865
 51
189.999962
  0
ARC
  8
LY_1
  6
CONTINUOUS
 62
   251
  5
7C
 10
534.593637
 20
164.05591
 30
0.0
 40
6.0
 50
349.863635
 51
53.576154
  0
ARC
  8
LY_1
  6
CONTINUOUS
 62
   251
  5
7D
 10
562.234876
 20
169.999971
 30
0.0
 40
2.0
 50
9.999995
 51
89.999982
  0
ARC
  8
LY_1
  6
CONTINUOUS
 62
   251
  5
7E
 10
543.765142
 20
169.999971
 30
0.0
 40
2.0
 50
89.999982
 51
170.000021
  0
CIRCLE
  8
LY_1
  6
CONTINUOUS
 62
   251
  5
7F
 10
553.000009
 20
188.999968
 30
0.0
 40
15.0
  0
ARC
  8
LY_1
  6
CONTINUOUS
 62
   251
  5
80
 10
553.000009
 20
188.999968
 30
0.0
 40
25.0
 50
306.423846
 51
233.576132
  0
ARC
  8
LY_1
  6
CONTINUOUS
 62
   251
  5
81
 10
0.0
 20
0.0
 30
0.0
 40
150.0
 50
80.405957
 51
99.594089
  0
ARC
  8
LY_1
  6
CONTINUOUS
 62
   251
  5
82
 10
0.0
 20
-31.999998
 30
0.0
 40
180.0
 50
0.0
 51
179.999964
  0
ARC
  8
LY_1
  6
CONTINUOUS
 62
   251
  5
83
 10
379.377439
 20
-101.909676
 30
0.0
 40
70.0
 50
310.673771
 51
353.363179
  0
CIRCLE
  8
LY_1
  6
CONTINUOUS
 62
   251
  5
84
 10
483.000009
 20
-85.0
 30
0.0
 40
7.4
  0
CIRCLE
  8
LY_1
  6
CONTINUOUS
 62
   251
  5
85
 10
484.999998
 20
0.0
 30
0.0
 40
8.50755
  0
ARC
  8
LY_1
  6
CONTINUOUS
 62
   251
  5
86
 10
394.999998
 20
0.0
 30
0.0
 40
10.0
 50
269.999997
 51
90.000003
  0
ARC
  8
LY_1
  6
CONTINUOUS
 62
   251
  5
87
 10
0.0
 20
0.0
 30
0.0
 40
37.5
 50
15.46601
 51
344.53399
  0
CIRCLE
  8
LY_1
  6
CONTINUOUS
 62
   251
  5
88
 10
0.0
 20
0.0
 30
0.0
 40
75.0
  0
CIRCLE
  8
LY_1
  6
CONTINUOUS
 62
     7
  5
89
 10
0.0
 20
0.0
 30
0.0
 40
8.0
  0
ARC
  8
LY_1
  6
CENTER
 62
     7
  5
8A
 10
0.0
 20
0.0
 30
0.0
 40
132.5
 50
287.791971
 51
297.31889
  0
ARC
  8
LY_1
  6
CENTER
 62
     7
  5
8B
 10
0.0
 20
0.0
 30
0.0
 40
95.0
 50
266.41867
 51
274.115405
  0
ARC
  8
LY_1
  6
CENTER
 62
     7
  5
8C
 10
0.0
 20
0.0
 30
0.0
 40
95.0
 50
326.418671
 51
334.115403
  0
ARC
  8
LY_1
  6
CENTER
 62
     7
  5
8D
 10
0.0
 20
0.0
 30
0.0
 40
132.5
 50
332.791972
 51
342.318889
  0
ARC
  8
LY_1
  6
CENTER
 62
     7
  5
8E
 10
0.0
 20
0.0
 30
0.0
 40
132.5
 50
17.791972
 51
27.31889
  0
ARC
  8
LY_1
  6
CENTER
 62
     7
  5
8F
 10
0.0
 20
0.0
 30
0.0
 40
95.0
 50
26.418671
 51
34.115402
  0
ARC
  8
LY_1
  6
CENTER
 62
     7
  5
90
 10
0.0
 20
0.0
 30
0.0
 40
132.5
 50
62.791971
 51
72.31889
  0
ARC
  8
LY_1
  6
CENTER
 62
     7
  5
91
 10
0.0
 20
0.0
 30
0.0
 40
95.0
 50
86.418675
 51
94.115403
  0
ARC
  8
LY_1
  6
CENTER
 62
     7
  5
92
 10
0.0
 20
0.0
 30
0.0
 40
132.5
 50
107.791969
 51
117.318895
  0
ARC
  8
LY_1
  6
CENTER
 62
     7
  5
93
 10
0.0
 20
0.0
 30
0.0
 40
95.0
 50
206.418675
 51
214.115397
  0
ARC
  8
LY_1
  6
CENTER
 62
     7
  5
94
 10
0.0
 20
0.0
 30
0.0
 40
95.0
 50
146.41867
 51
154.115405
  0
ARC
  8
LY_1
  6
CENTER
 62
     7
  5
95
 10
0.0
 20
0.0
 30
0.0
 40
132.5
 50
152.791974
 51
162.318886
  0
ARC
  8
LY_1
  6
CENTER
 62
     7
  5
96
 10
0.0
 20
0.0
 30
0.0
 40
132.5
 50
197.791968
 51
207.318894
  0
ARC
  8
LY_1
  6
CENTER
 62
     7
  5
97
 10
0.0
 20
0.0
 30
0.0
 40
132.5
 50
242.791973
 51
252.318892
  0
ARC
  8
LY_1
  6
CONTINUOUS
 62
   251
  5
98
 10
449.938486
 20
-64.132204
 30
0.0
 40
3.0
 50
355.000103
 51
89.999982
  0
ARC
  8
LY_1
  6
CONTINUOUS
 62
   251
  5
99
 10
625.000017
 20
30.366211
 30
0.0
 40
100.0
 50
179.999978
 51
219.999983
  0
ARC
  8
LY_1
  6
CONTINUOUS
 62
   251
  5
9A
 10
668.65236
 20
-115.0
 30
0.0
 40
40.0
 50
219.999987
 51
270.000018
  0
ARC
  8
LY_1
  6
CONTINUOUS
 62
   251
  5
9B
 10
488.000009
 20
126.194701
 30
0.0
 40
15.0
 50
275.000024
 51
0.0
  0
ARC
  8
LY_1
  6
CONTINUOUS
 62
   251
  5
9C
 10
488.000009
 20
-140.0
 30
0.0
 40
15.0
 50
270.000018
 51
0.0
  0
ARC
  8
LY_1
  6
CONTINUOUS
 62
   251
  5
9D
 10
479.999998
 20
120.475707
 30
0.0
 40
10.0
 50
274.999969
 51
0.0
  0
ARC
  8
LY_1
  6
CONTINUOUS
 62
   251
  5
9E
 10
-115.0
 20
-48.989744
 30
0.0
 40
15.0
 50
0.0
 51
23.073914
  0
ARC
  8
LY_1
  6
CONTINUOUS
 62
   251
  5
9F
 10
115.0
 20
-48.989744
 30
0.0
 40
15.0
 50
156.92611
 51
179.999964
  0
ARC
  8
LY_1
  6
CONTINUOUS
 62
   251
  5
A0
 10
21.735001
 20
110.890017
 30
0.0
 40
3.0
 50
179.999978
 51
258.910424
  0
ARC
  8
LY_1
  6
CONTINUOUS
 62
   251
  5
A1
 10
-21.735001
 20
110.890017
 30
0.0
 40
3.0
 50
281.089554
 51
0.0
  0
ARC
  8
LY_1
  6
CONTINUOUS
 62
   251
  5
A2
 10
-15.734978
 20
144.299197
 30
0.0
 40
3.0
 50
95.100733
 51
179.999964
  0
ARC
  8
LY_1
  6
CONTINUOUS
 62
   251
  5
A3
 10
15.734978
 20
144.299197
 30
0.0
 40
3.0
 50
0.0
 51
84.899286
  0
ARC
  8
LY_1
  6
CONTINUOUS
 62
   251
  5
A4
 10
-66.140556
 20
-106.068001
 30
0.0
 40
15.0
 50
58.053767
 51
170.000021
  0
ARC
  8
LY_1
  6
CONTINUOUS
 62
   251
  5
A5
 10
66.140556
 20
-106.068001
 30
0.0
 40
15.0
 50
9.999968
 51
121.946416
  0
ARC
  8
LY_1
  6
CONTINUOUS
 62
   251
  5
A6
 10
-120.586472
 20
-140.0
 30
0.0
 40
15.0
 50
270.000018
 51
349.999992
  0
ARC
  8
LY_1
  6
CONTINUOUS
 62
   251
  5
A7
 10
120.586548
 20
-140.0
 30
0.0
 40
15.0
 50
189.999979
 51
270.000018
  0
ARC
  8
LY_1
  6
CONTINUOUS
 62
   251
  5
A8
 10
-27.999992
 20
-160.0
 30
0.0
 40
3.0
 50
270.000018
 51
0.0
  0
ARC
  8
LY_1
  6
CONTINUOUS
 62
   251
  5
A9
 10
27.999992
 20
-160.0
 30
0.0
 40
3.0
 50
179.999978
 51
270.000028
  0
ARC
  8
LY_1
  6
CONTINUOUS
 62
   251
  5
AA
 10
85.0
 20
-185.0
 30
0.0
 40
5.0
 50
0.0
 51
89.999982
  0
ARC
  8
LY_1
  6
CONTINUOUS
 62
   251
  5
AB
 10
-85.0
 20
-185.0
 30
0.0
 40
5.0
 50
89.999982
 51
179.999964
  0
ARC
  8
LY_1
  6
CONTINUOUS
 62
   251
  5
AC
 10
82.000008
 20
-155.0
 30
0.0
 40
8.0
 50
270.000018
 51
0.0
  0
ARC
  8
LY_1
  6
CONTINUOUS
 62
   251
  5
AD
 10
-82.000008
 20
-155.0
 30
0.0
 40
8.0
 50
179.999978
 51
270.000028
  0
CIRCLE
  8
LY_1
  6
CONTINUOUS
 62
   251
  5
AE
 10
0.0
 20
0.0
 30
0.0
 40
110.0
  0
LINE
  8
LY_1
  6
CONTINUOUS
 62
   251
  5
AF
 10
395.000001
 20
10.0
 30
0.0
 11
395.000001
 21
-10.0
 31
0.0
  0
LINE
  8
LY_1
  6
CONTINUOUS
 62
   251
  5
B0
 10
42.0
 20
10.0
 30
0.0
 11
42.0
 21
-10.0
 31
0.0
  0
LINE
  8
LY_1
  6
CONTINUOUS
 62
   251
  5
B1
 10
651.000001
 20
43.909249
 30
0.0
 11
740.000017
 21
43.909249
 31
0.0
  0
LINE
  8
LY_1
  6
CONTINUOUS
 62
   251
  5
B2
 10
646.000001
 20
68.721558
 30
0.0
 11
745.000017
 21
68.721558
 31
0.0
  0
LINE
  8
LY_1
  6
CONTINUOUS
 62
   251
  5
B3
 10
646.000001
 20
58.114952
 30
0.0
 11
745.000017
 21
58.114952
 31
0.0
  0
LINE
  8
LY_1
  6
CONTINUOUS
 62
   251
  5
B4
 10
651.000001
 20
-43.909245
 30
0.0
 11
740.000017
 21
-43.909245
 31
0.0
  0
LINE
  8
LY_1
  6
CONTINUOUS
 62
   251
  5
B5
 10
646.000001
 20
-68.721561
 30
0.0
 11
745.000017
 21
-68.721561
 31
0.0
  0
LINE
  8
LY_1
  6
CONTINUOUS
 62
   251
  5
B6
 10
646.000001
 20
-58.114948
 30
0.0
 11
745.000017
 21
-58.114948
 31
0.0
  0
LINE
  8
LY_1
  6
CONTINUOUS
 62
   251
  5
B7
 10
745.000017
 20
88.0
 30
0.0
 11
745.000017
 21
-88.000002
 31
0.0
  0
LINE
  8
LY_1
  6
CONTINUOUS
 62
   251
  5
B8
 10
767.000024
 20
88.0
 30
0.0
 11
767.000024
 21
-88.000002
 31
0.0
  0
LINE
  8
LY_1
  6
CONTINUOUS
 62
     7
  5
B9
 10
658.000018
 20
155.470008
 30
0.0
 11
646.80763
 21
166.470008
 31
0.0
  0
LINE
  8
LY_1
  6
CONTINUOUS
 62
     7
  5
BA
 10
658.000015
 20
166.470007
 30
0.0
 11
669.192403
 21
155.470007
 31
0.0
  0
LINE
  8
LY_1
  6
CONTINUOUS
 62
     7
  5
BB
 10
657.999995
 20
155.469995
 30
0.0
 11
669.192383
 21
166.469995
 31
0.0
  0
LINE
  8
LY_1
  6
CONTINUOUS
 62
     7
  5
BC
 10
646.80761
 20
155.469994
 30
0.0
 11
657.999999
 21
166.469994
 31
0.0
  0
LINE
  8
LY_1
  6
CONTINUOUS
 62
   251
  5
BD
 10
646.807611
 20
166.470003
 30
0.0
 11
646.807611
 21
155.469999
 31
0.0
  0
LINE
  8
LY_1
  6
CONTINUOUS
 62
   251
  5
BE
 10
669.192407
 20
166.470003
 30
0.0
 11
669.192407
 21
155.469999
 31
0.0
  0
LINE
  8
LY_1
  6
CONTINUOUS
 62
   251
  5
BF
 10
644.546575
 20
155.470006
 30
0.0
 11
644.780013
 21
148.000002
 31
0.0
  0
LINE
  8
LY_1
  6
CONTINUOUS
 62
   251
  5
C0
 10
671.453449
 20
155.470002
 30
0.0
 11
671.220012
 21
147.999999
 31
0.0
  0
LINE
  8
LY_1
  6
CONTINUOUS
 62
   251
  5
C1
 10
671.453454
 20
155.469999
 30
0.0
 11
644.546564
 21
155.469999
 31
0.0
  0
LINE
  8
LY_1
  6
CONTINUOUS
 62
   251
  5
C2
 10
669.192407
 20
166.470003
 30
0.0
 11
646.807611
 21
166.470003
 31
0.0
  0
LINE
  8
LY_1
  6
CENTER
 62
     7
  5
C3
 10
658.000009
 20
171.047974
 30
0.0
 11
658.000009
 21
143.879576
 31
0.0
  0
LINE
  8
LY_1
  6
CONTINUOUS
 62
   251
  5
C4
 10
623.000009
 20
105.544732
 30
0.0
 11
641.000001
 21
105.544732
 31
0.0
  0
LINE
  8
LY_1
  6
CONTINUOUS
 62
   251
  5
C5
 10
683.000009
 20
143.000002
 30
0.0
 11
683.000009
 21
68.721558
 31
0.0
  0
LINE
  8
LY_1
  6
CONTINUOUS
 62
   251
  5
C6
 10
628.000009
 20
-110.0
 30
0.0
 11
641.000001
 21
-110.0
 31
0.0
  0
LINE
  8
LY_1
  6
CONTINUOUS
 62
   251
  5
C7
 10
646.000001
 20
100.544732
 30
0.0
 11
646.000001
 21
-105.0
 31
0.0
  0
LINE
  8
LY_1
  6
CONTINUOUS
 62
   251
  5
C8
 10
745.000017
 20
-88.000002
 30
0.0
 11
767.000024
 21
-88.000002
 31
0.0
  0
LINE
  8
LY_1
  6
CONTINUOUS
 62
   251
  5
C9
 10
745.000017
 20
88.0
 30
0.0
 11
767.000024
 21
88.0
 31
0.0
  0
LINE
  8
LY_1
  6
CONTINUOUS
 62
   251
  5
CA
 10
623.000009
 20
142.769561
 30
0.0
 11
623.000009
 21
-122.822723
 31
0.0
  0
LINE
  8
LY_1
  6
CONTINUOUS
 62
   251
  5
CB
 10
603.000009
 20
148.000002
 30
0.0
 11
678.000009
 21
148.000002
 31
0.0
  0
LINE
  8
LY_1
  6
CONTINUOUS
 62
   251
  5
CC
 10
593.269212
 20
-87.390928
 30
0.0
 11
598.000009
 21
-87.390928
 31
0.0
  0
LINE
  8
LY_1
  6
CONTINUOUS
 62
   251
  5
CD
 10
579.492929
 20
-70.973024
 30
0.0
 11
598.000009
 21
-70.973024
 31
0.0
  0
LINE
  8
LY_1
  6
CONTINUOUS
 62
   251
  5
CE
 10
556.236093
 20
-43.256588
 30
0.0
 11
598.000009
 21
-43.256588
 31
0.0
  0
LINE
  8
LY_1
  6
CONTINUOUS
 62
   251
  5
CF
 10
541.337278
 20
-24.411039
 30
0.0
 11
598.000009
 21
-24.411039
 31
0.0
  0
LINE
  8
LY_1
  6
CONTINUOUS
 62
   251
  5
D0
 10
565.500009
 20
162.999973
 30
0.0
 11
565.500009
 21
159.999971
 31
0.0
  0
LINE
  8
LY_1
  6
CONTINUOUS
 62
   251
  5
D1
 10
540.500009
 20
162.999973
 30
0.0
 11
540.500009
 21
159.999971
 31
0.0
  0
LINE
  8
LY_1
  6
CONTINUOUS
 62
   251
  5
D2
 10
12.5
 20
162.999935
 30
0.0
 11
12.5
 21
159.999971
 31
0.0
  0
LINE
  8
LY_1
  6
CONTINUOUS
 62
   251
  5
D3
 10
-12.5
 20
162.999973
 30
0.0
 11
-12.5
 21
159.999971
 31
0.0
  0
LINE
  8
LY_1
  6
CENTER
 62
     7
  5
D4
 10
518.000009
 20
188.999968
 30
0.0
 11
588.000009
 21
188.999968
 31
0.0
  0
LINE
  8
LY_1
  6
CONTINUOUS
 62
   251
  5
D5
 10
-5.0
 20
208.999968
 30
0.0
 11
-5.0
 21
165.799961
 31
0.0
  0
LINE
  8
LY_1
  6
CONTINUOUS
 62
   251
  5
D6
 10
-4.999876
 20
173.002235
 30
0.0
 11
-10.019879
 21
171.971256
 31
0.0
  0
LINE
  8
LY_1
  6
CONTINUOUS
 62
   251
  5
D7
 10
-11.11709
 20
170.843078
 30
0.0
 11
-12.500041
 21
162.999975
 31
0.0
  0
LINE
  8
LY_1
  6
CONTINUOUS
 62
   251
  5
D8
 10
5.0
 20
208.999968
 30
0.0
 11
5.0
 21
165.799961
 31
0.0
  0
LINE
  8
LY_1
  6
CONTINUOUS
 62
   251
  5
D9
 10
4.999995
 20
173.002388
 30
0.0
 11
10.019999
 21
171.971408
 31
0.0
  0
LINE
  8
LY_1
  6
CONTINUOUS
 62
   251
  5
DA
 10
11.116987
 20
170.843025
 30
0.0
 11
12.499942
 21
162.999903
 31
0.0
  0
LINE
  8
LY_1
  6
CONTINUOUS
 62
   251
  5
DB
 10
553.423382
 20
173.954541
 30
0.0
 11
562.658148
 21
171.954561
 31
0.0
  0
LINE
  8
LY_1
  6
CONTINUOUS
 62
   251
  5
DC
 10
543.34188
 20
171.954482
 30
0.0
 11
552.576757
 21
173.954486
 31
0.0
  0
LINE
  8
LY_1
  6
CONTINUOUS
 62
   251
  5
DD
 10
543.765142
 20
171.999969
 30
0.0
 11
562.234876
 21
171.999969
 31
0.0
  0
LINE
  8
LY_1
  6
CONTINUOUS
 62
   251
  5
DE
 10
564.204265
 20
170.347236
 30
0.0
 11
565.499801
 21
162.999887
 31
0.0
  0
LINE
  8
LY_1
  6
CONTINUOUS
 62
   251
  5
DF
 10
540.49971
 20
163.000035
 30
0.0
 11
541.795236
 21
170.347324
 31
0.0
  0
LINE
  8
LY_1
  6
CONTINUOUS
 62
   251
  5
E0
 10
-16.000016
 20
159.999886
 30
0.0
 11
-20.133733
 21
148.64259
 31
0.0
  0
LINE
  8
LY_1
  6
CONTINUOUS
 62
   251
  5
E1
 10
16.000022
 20
159.999971
 30
0.0
 11
20.13374
 21
148.642676
 31
0.0
  0
LINE
  8
LY_1
  6
CONTINUOUS
 62
   251
  5
E2
 10
15.999985
 20
159.999971
 30
0.0
 11
-15.999985
 21
159.999971
 31
0.0
  0
LINE
  8
LY_1
  6
CONTINUOUS
 62
   251
  5
E3
 10
25.000102
 20
147.90195
 30
0.0
 11
25.401747
 21
146.198633
 31
0.0
  0
LINE
  8
LY_1
  6
CONTINUOUS
 62
   251
  5
E4
 10
-25.000152
 20
147.901958
 30
0.0
 11
-25.401797
 21
146.198622
 31
0.0
  0
LINE
  8
LY_1
  6
CENTER
 62
     7
  5
E5
 10
553.000009
 20
228.114367
 30
0.0
 11
553.000009
 21
153.90851
 31
0.0
  0
LINE
  8
LY_1
  6
CONTINUOUS
 62
   251
  5
E6
 10
533.293474
 20
-9.507446
 30
0.0
 11
598.000009
 21
-9.507446
 31
0.0
  0
LINE
  8
LY_1
  6
CONTINUOUS
 62
   251
  5
E7
 10
530.000017
 20
9.507475
 30
0.0
 11
598.000009
 21
9.507475
 31
0.0
  0
LINE
  8
LY_1
  6
CONTINUOUS
 62
   251
  5
E8
 10
530.000017
 20
24.411101
 30
0.0
 11
598.000009
 21
24.411101
 31
0.0
  0
LINE
  8
LY_1
  6
CONTINUOUS
 62
   251
  5
E9
 10
530.000017
 20
43.256621
 30
0.0
 11
598.000009
 21
43.256621
 31
0.0
  0
LINE
  8
LY_1
  6
CONTINUOUS
 62
   251
  5
EA
 10
530.000017
 20
70.972961
 30
0.0
 11
598.000009
 21
70.972961
 31
0.0
  0
LINE
  8
LY_1
  6
CONTINUOUS
 62
   251
  5
EB
 10
530.000017
 20
87.390839
 30
0.0
 11
598.000009
 21
87.390839
 31
0.0
  0
LINE
  8
LY_1
  6
CONTINUOUS
 62
   251
  5
EC
 10
530.000017
 20
99.129913
 30
0.0
 11
598.000009
 21
99.129913
 31
0.0
  0
LINE
  8
LY_1
  6
CONTINUOUS
 62
   251
  5
ED
 10
530.000017
 20
112.575531
 30
0.0
 11
598.000009
 21
112.575531
 31
0.0
  0
LINE
  8
LY_1
  6
CONTINUOUS
 62
   251
  5
EE
 10
530.000017
 20
143.627534
 30
0.0
 11
598.000009
 21
143.627534
 31
0.0
  0
LINE
  8
LY_1
  6
CONTINUOUS
 62
   251
  5
EF
 10
536.999807
 20
159.999934
 30
0.0
 11
533.360155
 21
150.00007
 31
0.0
  0
LINE
  8
LY_1
  6
CONTINUOUS
 62
   251
  5
F0
 10
568.999982
 20
159.999958
 30
0.0
 11
572.639687
 21
149.999952
 31
0.0
  0
LINE
  8
LY_1
  6
CONTINUOUS
 62
   251
  5
F1
 10
569.000013
 20
159.999971
 30
0.0
 11
537.000005
 21
159.999971
 31
0.0
  0
LINE
  8
LY_1
  6
CONTINUOUS
 62
   251
  5
F2
 10
597.999869
 20
149.999959
 30
0.0
 11
602.999942
 21
144.999886
 31
0.0
  0
LINE
  8
LY_1
  6
CONTINUOUS
 62
   251
  5
F3
 10
524.999741
 20
145.000311
 30
0.0
 11
529.999719
 21
150.000289
 31
0.0
  0
LINE
  8
LY_1
  6
CONTINUOUS
 62
   251
  5
F4
 10
530.000017
 20
150.0
 30
0.0
 11
598.000009
 21
150.0
 31
0.0
  0
LINE
  8
LY_1
  6
CONTINUOUS
 62
   251
  5
F5
 10
603.000009
 20
148.000007
 30
0.0
 11
603.000009
 21
-98.987656
 31
0.0
  0
LINE
  8
LY_1
  6
CONTINUOUS
 62
     7
  5
F6
 10
115.649996
 20
0.000004
 30
0.0
 11
124.649998
 21
8.071073
 31
0.0
  0
LINE
  8
LY_1
  6
CONTINUOUS
 62
     7
  5
F7
 10
124.650003
 20
-0.000009
 30
0.0
 11
115.650001
 21
8.07106
 31
0.0
  0
LINE
  8
LY_1
  6
CONTINUOUS
 62
     7
  5
F8
 10
124.649992
 20
-8.071078
 30
0.0
 11
115.649992
 21
-0.000007
 31
0.0
  0
LINE
  8
LY_1
  6
CONTINUOUS
 62
     7
  5
F9
 10
115.650007
 20
-8.071056
 30
0.0
 11
124.65001
 21
0.000012
 31
0.0
  0
LINE
  8
LY_1
  6
CONTINUOUS
 62
   251
  5
FA
 10
124.650002
 20
8.07107
 30
0.0
 11
115.650024
 21
8.07107
 31
0.0
  0
LINE
  8
LY_1
  6
CONTINUOUS
 62
   251
  5
FB
 10
124.650002
 20
-8.071065
 30
0.0
 11
115.650024
 21
-8.071065
 31
0.0
  0
LINE
  8
LY_1
  6
CONTINUOUS
 62
   251
  5
FC
 10
115.65001
 20
8.507561
 30
0.0
 11
109.684828
 21
8.32115
 31
0.0
  0
LINE
  8
LY_1
  6
CONTINUOUS
 62
   251
  5
FD
 10
115.650027
 20
-8.507561
 30
0.0
 11
109.684807
 21
-8.321147
 31
0.0
  0
LINE
  8
LY_1
  6
CONTINUOUS
 62
   251
  5
FE
 10
115.650024
 20
-8.507562
 30
0.0
 11
115.650024
 21
8.507562
 31
0.0
  0
LINE
  8
LY_1
  6
CONTINUOUS
 62
   251
  5
FF
 10
124.650002
 20
-8.07107
 30
0.0
 11
124.650002
 21
8.07107
 31
0.0
  0
LINE
  8
LY_1
  6
DASHED
 62
     7
  5
101
 10
438.999994
 20
-155.0
 30
0.0
 11
438.999994
 21
-185.0
 31
0.0
  0
LINE
  8
LY_1
  6
DASHED
 62
     7
  5
102
 10
461.000001
 20
-155.0
 30
0.0
 11
461.000001
 21
-185.0
 31
0.0
  0
LINE
  8
LY_1
  6
CENTER
 62
     7
  5
103
 10
449.999998
 20
-148.235359
 30
0.0
 11
449.999998
 21
-191.285152
 31
0.0
  0
LINE
  8
LY_1
  6
CONTINUOUS
 62
   251
  5
104
 10
424.999998
 20
-155.0
 30
0.0
 11
424.999998
 21
-185.0
 31
0.0
  0
LINE
  8
LY_1
  6
CONTINUOUS
 62
   251
  5
105
 10
424.999998
 20
-155.0
 30
0.0
 11
488.000009
 21
-155.0
 31
0.0
  0
LINE
  8
LY_1
  6
CONTINUOUS
 62
   251
  5
106
 10
424.999998
 20
-185.0
 30
0.0
 11
724.999979
 21
-185.0
 31
0.0
  0
LINE
  8
LY_1
  6
CONTINUOUS
 62
   251
  5
107
 10
493.484703
 20
0.000507
 30
0.0
 11
484.999422
 21
-8.484772
 31
0.0
  0
LINE
  8
LY_1
  6
CONTINUOUS
 62
   251
  5
108
 10
485.000001
 20
-8.485232
 30
0.0
 11
476.514715
 21
0.000056
 31
0.0
  0
LINE
  8
LY_1
  6
CONTINUOUS
 62
   251
  5
109
 10
484.999524
 20
8.485726
 30
0.0
 11
476.514243
 21
0.000447
 31
0.0
  0
LINE
  8
LY_1
  6
CONTINUOUS
 62
   251
  5
10A
 10
493.485345
 20
-0.000085
 30
0.0
 11
485.000071
 21
8.485188
 31
0.0
  0
LINE
  8
LY_1
  6
CENTER
 62
     7
  5
10B
 10
484.999998
 20
-14.733973
 30
0.0
 11
484.999998
 21
14.48544
 31
0.0
  0
LINE
  8
LY_1
  6
CENTER
 62
     7
  5
10C
 10
483.000009
 20
-75.0
 30
0.0
 11
483.000009
 21
-95.0
 31
0.0
  0
LINE
  8
LY_1
  6
CENTER
 62
     7
  5
10D
 10
473.000009
 20
-85.0
 30
0.0
 11
493.000009
 21
-85.0
 31
0.0
  0
LINE
  8
LY_1
  6
CONTINUOUS
 62
   251
  5
10E
 10
300.0
 20
10.0
 30
0.0
 11
394.999998
 21
10.0
 31
0.0
  0
LINE
  8
LY_1
  6
CONTINUOUS
 62
   251
  5
10F
 10
300.0
 20
-10.0
 30
0.0
 11
394.999998
 21
-10.0
 31
0.0
  0
LINE
  8
LY_1
  6
CONTINUOUS
 62
   251
  5
110
 10
409.999998
 20
-42.5
 30
0.0
 11
416.999996
 21
-42.5
 31
0.0
  0
LINE
  8
LY_1
  6
CONTINUOUS
 62
   251
  5
111
 10
409.999998
 20
42.5
 30
0.0
 11
416.999996
 21
42.5
 31
0.0
  0
LINE
  8
LY_1
  6
CONTINUOUS
 62
   251
  5
112
 10
409.999998
 20
42.5
 30
0.0
 11
409.999998
 21
-42.5
 31
0.0
  0
LINE
  8
LY_1
  6
CONTINUOUS
 62
   251
  5
113
 10
300.0
 20
-37.5
 30
0.0
 11
409.999998
 21
-37.5
 31
0.0
  0
LINE
  8
LY_1
  6
CONTINUOUS
 62
   251
  5
114
 10
300.0
 20
37.5
 30
0.0
 11
409.999998
 21
37.5
 31
0.0
  0
LINE
  8
LY_1
  6
CONTINUOUS
 62
   251
  5
115
 10
300.0
 20
37.5
 30
0.0
 11
300.0
 21
-37.5
 31
0.0
  0
LINE
  8
LY_1
  6
CONTINUOUS
 62
   251
  5
116
 10
427.000005
 20
110.0
 30
0.0
 11
474.999025
 21
110.0
 31
0.0
  0
LINE
  8
LY_1
  6
CONTINUOUS
 62
   251
  5
117
 10
417.000316
 20
74.999471
 30
0.0
 11
427.00033
 21
80.772981
 31
0.0
  0
LINE
  8
LY_1
  6
CONTINUOUS
 62
   251
  5
118
 10
416.999996
 20
75.000123
 30
0.0
 11
416.999996
 21
-75.0
 31
0.0
  0
LINE
  8
LY_1
  6
CONTINUOUS
 62
   251
  5
119
 10
427.000005
 20
-110.0
 30
0.0
 11
448.937013
 21
-110.0
 31
0.0
  0
LINE
  8
LY_1
  6
CONTINUOUS
 62
   251
  5
11A
 10
416.999876
 20
-75.000397
 30
0.0
 11
426.999866
 21
-80.773893
 31
0.0
  0
LINE
  8
LY_1
  6
CONTINUOUS
 62
   251
  5
11B
 10
444.999998
 20
110.0
 30
0.0
 11
444.999998
 21
-110.0
 31
0.0
  0
LINE
  8
LY_1
  6
CONTINUOUS
 62
   251
  5
11C
 10
427.000005
 20
110.0
 30
0.0
 11
427.000005
 21
-110.0
 31
0.0
  0
LINE
  8
LY_1
  6
CONTINUOUS
 62
   251
  5
11D
 10
30.0
 20
10.0
 30
0.0
 11
30.0
 21
-10.0
 31
0.0
  0
LINE
  8
LY_1
  6
CONTINUOUS
 62
   251
  5
11E
 10
42.0
 20
-10.0
 30
0.0
 11
30.0
 21
-10.0
 31
0.0
  0
LINE
  8
LY_1
  6
CONTINUOUS
 62
   251
  5
11F
 10
42.0
 20
10.0
 30
0.0
 11
30.0
 21
10.0
 31
0.0
  0
LINE
  8
LY_1
  6
CENTER
 62
     7
  5
120
 10
47.643074
 20
-115.020505
 30
0.0
 11
53.560416
 21
-129.306234
 31
0.0
  0
LINE
  8
LY_1
  6
CENTER
 62
     7
  5
121
 10
76.444367
 20
-44.13542
 30
0.0
 11
87.303943
 21
-50.4052
 31
0.0
  0
LINE
  8
LY_1
  6
CENTER
 62
     7
  5
122
 10
115.020475
 20
-47.642986
 30
0.0
 11
129.306203
 21
-53.560329
 31
0.0
  0
LINE
  8
LY_1
  6
CENTER
 62
     7
  5
123
 10
115.020457
 20
47.643039
 30
0.0
 11
129.306256
 21
53.56041
 31
0.0
  0
LINE
  8
LY_1
  6
CENTER
 62
     7
  5
124
 10
76.444507
 20
44.135122
 30
0.0
 11
87.304149
 21
50.404939
 31
0.0
  0
LINE
  8
LY_1
  6
CENTER
 62
     7
  5
125
 10
47.642996
 20
115.0206
 30
0.0
 11
53.560343
 21
129.306337
 31
0.0
  0
LINE
  8
LY_1
  6
CENTER
 62
     7
  5
126
 10
-47.643104
 20
115.020508
 30
0.0
 11
-53.560453
 21
129.306254
 31
0.0
  0
LINE
  8
LY_1
  6
CENTER
 62
     7
  5
127
 10
-76.444558
 20
-44.134992
 30
0.0
 11
-87.3042
 21
-50.404809
 31
0.0
  0
LINE
  8
LY_1
  6
CENTER
 62
     7
  5
128
 10
-76.444349
 20
44.135374
 30
0.0
 11
-87.304024
 21
50.405211
 31
0.0
  0
LINE
  8
LY_1
  6
CENTER
 62
     7
  5
129
 10
-115.020564
 20
47.643059
 30
0.0
 11
-129.306292
 21
53.560402
 31
0.0
  0
LINE
  8
LY_1
  6
CENTER
 62
     7
  5
12A
 10
-115.020513
 20
-47.643173
 30
0.0
 11
-129.306277
 21
-53.560529
 31
0.0
  0
LINE
  8
LY_1
  6
CENTER
 62
     7
  5
12B
 10
-47.643046
 20
-115.020533
 30
0.0
 11
-53.560389
 21
-129.306261
 31
0.0
  0
LINE
  8
LY_1
  6
CONTINUOUS
 62
   251
  5
12C
 10
448.937597
 20
-110.000059
 30
0.0
 11
452.927635
 21
-64.393752
 31
0.0
  0
LINE
  8
LY_1
  6
CONTINUOUS
 62
   251
  5
12D
 10
548.395401
 20
-33.912428
 30
0.0
 11
638.01045
 21
-140.711471
 31
0.0
  0
LINE
  8
LY_1
  6
DASHED
 62
     7
  5
12E
 10
688.999994
 20
-155.0
 30
0.0
 11
688.999994
 21
-185.0
 31
0.0
  0
LINE
  8
LY_1
  6
DASHED
 62
     7
  5
12F
 10
711.000001
 20
-155.0
 30
0.0
 11
711.000001
 21
-185.0
 31
0.0
  0
LINE
  8
LY_1
  6
CONTINUOUS
 62
   251
  5
130
 10
668.65236
 20
-155.0
 30
0.0
 11
724.999979
 21
-155.0
 31
0.0
  0
LINE
  8
LY_1
  6
CENTER
 62
     7
  5
131
 10
699.999979
 20
-148.235359
 30
0.0
 11
699.999979
 21
-190.142326
 31
0.0
  0
LINE
  8
LY_1
  6
CONTINUOUS
 62
   251
  5
132
 10
724.999979
 20
-155.0
 30
0.0
 11
724.999979
 21
-185.0
 31
0.0
  0
LINE
  8
LY_1
  6
CONTINUOUS
 62
   251
  5
133
 10
489.999998
 20
148.000002
 30
0.0
 11
489.999998
 21
120.475707
 31
0.0
  0
LINE
  8
LY_1
  6
CONTINUOUS
 62
   251
  5
134
 10
489.999998
 20
148.000002
 30
0.0
 11
524.999998
 21
148.000002
 31
0.0
  0
LINE
  8
LY_1
  6
CONTINUOUS
 62
   251
  5
135
 10
503.000009
 20
148.000002
 30
0.0
 11
503.000009
 21
-140.0
 31
0.0
  0
LINE
  8
LY_1
  6
CONTINUOUS
 62
   251
  5
136
 10
524.999998
 20
148.000002
 30
0.0
 11
524.999998
 21
30.366211
 31
0.0
  0
LINE
  8
LY_1
  6
CONTINUOUS
 62
   251
  5
137
 10
474.999976
 20
109.999541
 30
0.0
 11
489.307506
 21
111.251288
 31
0.0
  0
LINE
  8
LY_1
  6
DASHED
 62
     7
  5
138
 10
-160.999985
 20
-155.0
 30
0.0
 11
-160.999985
 21
-185.0
 31
0.0
  0
LINE
  8
LY_1
  6
DASHED
 62
     7
  5
139
 10
-139.000015
 20
-155.0
 30
0.0
 11
-139.000015
 21
-185.0
 31
0.0
  0
LINE
  8
LY_1
  6
DASHED
 62
     7
  5
13A
 10
160.999985
 20
-155.0
 30
0.0
 11
160.999985
 21
-185.0
 31
0.0
  0
LINE
  8
LY_1
  6
DASHED
 62
     7
  5
13B
 10
139.000015
 20
-155.0
 30
0.0
 11
139.000015
 21
-185.0
 31
0.0
  0
LINE
  8
LY_1
  6
CENTER
 62
     7
  5
13C
 10
85.0
 20
-85.0
 30
0.0
 11
107.118454
 21
-85.0
 31
0.0
  0
LINE
  8
LY_1
  6
CONTINUOUS
 62
   251
  5
13D
 10
18.73497
 20
144.299197
 30
0.0
 11
18.73497
 21
110.890017
 31
0.0
  0
LINE
  8
LY_1
  6
CONTINUOUS
 62
   251
  5
13E
 10
-18.73497
 20
144.299197
 30
0.0
 11
-18.73497
 21
110.890017
 31
0.0
  0
LINE
  8
LY_1
  6
CONTINUOUS
 62
   251
  5
13F
 10
-100.0
 20
-48.989744
 30
0.0
 11
-100.0
 21
-109.629879
 31
0.0
  0
LINE
  8
LY_1
  6
CONTINUOUS
 62
   251
  5
140
 10
100.0
 20
-48.989744
 30
0.0
 11
100.0
 21
-109.629517
 31
0.0
  0
LINE
  8
LY_1
  6
CONTINUOUS
 62
   251
  5
141
 10
105.814479
 20
-142.604759
 30
0.0
 11
100.000067
 21
-109.629567
 31
0.0
  0
LINE
  8
LY_1
  6
CONTINUOUS
 62
   251
  5
142
 10
-105.814332
 20
-142.604706
 30
0.0
 11
-99.999955
 21
-109.62974
 31
0.0
  0
LINE
  8
LY_1
  6
CONTINUOUS
 62
   251
  5
143
 10
-90.000046
 20
-154.999932
 30
0.0
 11
-80.912727
 21
-103.463198
 31
0.0
  0
LINE
  8
LY_1
  6
CONTINUOUS
 62
   251
  5
144
 10
90.000009
 20
-155.000044
 30
0.0
 11
80.912694
 21
-103.46329
 31
0.0
  0
LINE
  8
LY_1
  6
CONTINUOUS
 62
   251
  5
145
 10
27.999992
 20
-162.999992
 30
0.0
 11
82.000008
 21
-162.999992
 31
0.0
  0
LINE
  8
LY_1
  6
CONTINUOUS
 62
   251
  5
146
 10
90.0
 20
-155.0
 30
0.0
 11
180.0
 21
-155.0
 31
0.0
  0
LINE
  8
LY_1
  6
CONTINUOUS
 62
   251
  5
147
 10
90.0
 20
-185.0
 30
0.0
 11
180.0
 21
-185.0
 31
0.0
  0
LINE
  8
LY_1
  6
CONTINUOUS
 62
   251
  5
148
 10
-82.000008
 20
-162.999992
 30
0.0
 11
-27.999992
 21
-162.999992
 31
0.0
  0
LINE
  8
LY_1
  6
CONTINUOUS
 62
   251
  5
149
 10
-85.0
 20
-180.0
 30
0.0
 11
85.0
 21
-180.0
 31
0.0
  0
LINE
  8
LY_1
  6
CONTINUOUS
 62
   251
  5
14A
 10
90.0
 20
-155.0
 30
0.0
 11
90.0
 21
-185.0
 31
0.0
  0
LINE
  8
LY_1
  6
CONTINUOUS
 62
   251
  5
14B
 10
-90.0
 20
-155.0
 30
0.0
 11
-90.0
 21
-185.0
 31
0.0
  0
LINE
  8
LY_1
  6
CENTER
 62
     7
  5
14C
 10
150.0
 20
-149.05859
 30
0.0
 11
150.0
 21
-191.775875
 31
0.0
  0
LINE
  8
LY_1
  6
CENTER
 62
     7
  5
14D
 10
-150.0
 20
-149.05859
 30
0.0
 11
-150.0
 21
-190.589352
 31
0.0
  0
LINE
  8
LY_1
  6
CONTINUOUS
 62
   251
  5
14E
 10
-180.0
 20
-155.0
 30
0.0
 11
-90.0
 21
-155.0
 31
0.0
  0
LINE
  8
LY_1
  6
CONTINUOUS
 62
   251
  5
14F
 10
-180.0
 20
-31.999998
 30
0.0
 11
-180.0
 21
-185.0
 31
0.0
  0
LINE
  8
LY_1
  6
CONTINUOUS
 62
   251
  5
150
 10
180.0
 20
-31.999998
 30
0.0
 11
180.0
 21
-185.0
 31
0.0
  0
LINE
  8
LY_1
  6
CONTINUOUS
 62
   251
  5
151
 10
-180.0
 20
-185.0
 30
0.0
 11
-90.0
 21
-185.0
 31
0.0
  0
LINE
  8
LY_1
  6
CENTER
 62
     7
  5
152
 10
-197.132719
 20
0.0
 30
0.0
 11
197.132719
 21
0.0
 31
0.0
  0
LINE
  8
LY_1
  6
CENTER
 62
     7
  5
153
 10
0.0
 20
223.999968
 30
0.0
 11
0.0
 21
-200.0
 31
0.0
  0
LINE
  8
LY_1
  6
CENTER
 62
     7
  5
154
 10
280.0
 20
0.0
 30
0.0
 11
1042.908161
 21
0.0
 31
0.0
  0
ENDSEC
  0
EOF
