  0
SECTION
  2
HEADER
  9
$ACADVER
  1
AC1009
  9
$DWGCODEPAGE
  3
dos932
  9
$INSBASE
 10
0.0
 20
0.0
 30
0.0
  9
$EXTMIN
 10
-137.5
 20
-152.000132
 30
0.0
  9
$EXTMAX
 10
835.587071
 20
165.917664
 30
0.0
  9
$LIMMIN
 10
-137.5
 20
-152.000132
  9
$LIMMAX
 10
835.587071
 20
165.917664
  9
$ORTHOMODE
 70
     0
  9
$REGENMODE
 70
     1
  9
$FILLMODE
 70
     1
  9
$QTEXTMODE
 70
     0
  9
$MIRRTEXT
 70
     1
  9
$DRAGMODE
 70
     2
  9
$LTSCALE
 40
1.0
  9
$OSMODE
 70
     0
  9
$ATTMODE
 70
     1
  9
$TEXTSIZE
 40
3.15
  9
$TRACEWID
 40
0.05
  9
$TEXTSTYLE
  7
MX_NOTE_STANDARD
  9
$CLAYER
  8
LY_1
  9
$CELTYPE
  6
CONTINUOUS
  9
$CECOLOR
 62
   256
  9
$DIMSCALE
 40
1.0
  9
$DIMASZ
 40
2.5
  9
$DIMEXO
 40
1.0
  9
$DIMDLI
 40
3.75
  9
$DIMRND
 40
0.0
  9
$DIMDLE
 40
0.0
  9
$DIMEXE
 40
1.5
  9
$DIMTP
 40
0.0
  9
$DIMTM
 40
0.0
  9
$DIMTXT
 40
3.15
  9
$DIMCEN
 40
2.5
  9
$DIMTSZ
 40
0.0
  9
$DIMTOL
 70
     0
  9
$DIMLIM
 70
     0
  9
$DIMTIH
 70
     0
  9
$DIMTOH
 70
     0
  9
$DIMSE1
 70
     0
  9
$DIMSE2
 70
     0
  9
$DIMTAD
 70
     1
  9
$DIMZIN
 70
     8
  9
$DIMBLK
  1

  9
$DIMASO
 70
     1
  9
$DIMSHO
 70
     1
  9
$DIMPOST
  1

  9
$DIMAPOST
  1

  9
$DIMALT
 70
     0
  9
$DIMALTD
 70
     4
  9
$DIMALTF
 40
0.03937
  9
$DIMLFAC
 40
1.0
  9
$DIMTOFL
 70
     1
  9
$DIMTVP
 40
0.0
  9
$DIMTIX
 70
     0
  9
$DIMSOXD
 70
     0
  9
$DIMSAH
 70
     0
  9
$DIMBLK1
  1

  9
$DIMBLK2
  1

  9
$DIMSTYLE
  2
MXDIMSTYLE
  9
$DIMCLRD
 70
     0
  9
$DIMCLRE
 70
     0
  9
$DIMCLRT
 70
     0
  9
$DIMTFAC
 40
1.0
  9
$DIMGAP
 40
1.0
  9
$LUNITS
 70
     2
  9
$LUPREC
 70
     4
  9
$AXISMODE
 70
     0
  9
$AXISUNIT
 10
0.0
 20
0.0
  9
$SKETCHINC
 40
0.1
  9
$FILLETRAD
 40
0.0
  9
$AUNITS
 70
     0
  9
$AUPREC
 70
     0
  9
$MENU
  1
acad
  9
$ELEVATION
 40
0.0
  9
$PELEVATION
 40
0.0
  9
$THICKNESS
 40
0.0
  9
$LIMCHECK
 70
     0
  9
$BLIPMODE
 70
     1
  9
$CHAMFERA
 40
0.0
  9
$CHAMFERB
 40
0.0
  9
$SKPOLY
 70
     0
  9
$TDCREATE
 40
2453665.670162037
  9
$TDUPDATE
 40
2453665.670162037
  9
$TDINDWG
 40
0.0000000000
  9
$TDUSRTIMER
 40
0.0000000000
  9
$USRTIMER
 70
     1
  9
$ANGBASE
 50
0.0
  9
$ANGDIR
 70
     0
  9
$PDMODE
 70
     0
  9
$PDSIZE
 40
0.0
  9
$PLINEWID
 40
0.0
  9
$COORDS
 70
     1
  9
$SPLFRAME
 70
     0
  9
$SPLINETYPE
 70
     6
  9
$SPLINESEGS
 70
     8
  9
$ATTDIA
 70
     0
  9
$ATTREQ
 70
     1
  9
$HANDLING
 70
     1
  9
$HANDSEED
  5
195
  9
$SURFTAB1
 70
     6
  9
$SURFTAB2
 70
     6
  9
$SURFTYPE
 70
     6
  9
$SURFU
 70
     6
  9
$SURFV
 70
     6
  9
$UCSNAME
  2

  9
$UCSORG
 10
0.0
 20
0.0
 30
0.0
  9
$UCSXDIR
 10
1.0
 20
0.0
 30
0.0
  9
$UCSYDIR
 10
0.0
 20
1.0
 30
0.0
  9
$PUCSNAME
  2

  9
$PUCSORG
 10
0.0
 20
0.0
 30
0.0
  9
$PUCSXDIR
 10
1.0
 20
0.0
 30
0.0
  9
$PUCSYDIR
 10
0.0
 20
1.0
 30
0.0
  9
$USERI1
 70
     0
  9
$USERI2
 70
     0
  9
$USERI3
 70
     0
  9
$USERI4
 70
     0
  9
$USERI5
 70
     0
  9
$USERR1
 40
0.0
  9
$USERR2
 40
0.0
  9
$USERR3
 40
0.0
  9
$USERR4
 40
0.0
  9
$USERR5
 40
0.0
  9
$WORLDVIEW
 70
     1
  9
$SHADEDGE
 70
     3
  9
$SHADEDIF
 70
    70
  9
$TILEMODE
 70
     1
  9
$MAXACTVP
 70
    16
  9
$PINSBASE
 10
0.0
 20
0.0
 30
0.0
  9
$PLIMCHECK
 70
     0
  9
$PEXTMIN
 10
1.000000E+20
 20
1.000000E+20
 30
1.000000E+20
  9
$PEXTMAX
 10
-1.000000E+20
 20
-1.000000E+20
 30
-1.000000E+20
  9
$PLIMMIN
 10
0.0
 20
0.0
  9
$PLIMMAX
 10
12.0
 20
9.0
  9
$UNITMODE
 70
     0
  9
$VISRETAIN
 70
     0
  9
$PLINEGEN
 70
     1
  9
$PSLTSCALE
 70
     0
  9
$TREEDEPTH
 70
  3020
  9
$DWGCODEPAGE
  3
dos932
  0
ENDSEC
  0
SECTION
  2
TABLES
  0
TABLE
  2
VPORT
 70
     1
  0
VPORT
  2
*ACTIVE
 70
     0
 10
0.0
 20
0.0
 11
1.0
 21
1.0
 12
349.043536
 22
6.958766
 13
0.0
 23
0.0
 14
1.0
 24
1.0
 15
0.0
 25
0.0
 16
0.0
 26
0.0
 36
1.0
 17
0.0
 27
0.0
 37
0.0
 40
321.096973
 41
1.732051
 42
50.0
 43
0.0
 44
0.0
 50
0.0
 51
0.0
 71
     0
 72
   100
 73
     1
 74
     1
 75
     0
 76
     0
 77
     0
 78
     0
  0
ENDTAB
  0
TABLE
  2
LTYPE
 70
     3
  0
LTYPE
  2
CONTINUOUS
 70
    64
  3
Solid line
 72
    65
 73
     0
 40
0.0
  0
LTYPE
  2
CENTER
 70
    64
  3
Center ____ _ ____ _ ____ _ ____ _ ____ _ ____
 72
    65
 73
     4
 40
50.8
 49
31.75
 49
-6.35
 49
6.35
 49
-6.35
  0
LTYPE
  2
DASHED
 70
    64
  3
Dashed __ __ __ __ __ __ __ __ __ __ __ __ __ _
 72
    65
 73
     2
 40
19.05
 49
12.7
 49
-6.35
  0
ENDTAB
  0
TABLE
  2
LAYER
 70
     3
  0
LAYER
  2
0
 70
     0
 62
     7
  6
CONTINUOUS
  0
LAYER
  2
LY_1
 70
     0
 62
     7
  6
CONTINUOUS
  0
LAYER
  2
DEFPOINTS
 70
     0
 62
     7
  6
CONTINUOUS
  0
ENDTAB
  0
TABLE
  2
STYLE
 70
     1
  0
STYLE
  2
MX_NOTE_STANDARD
 70
     0
 40
0.0
 41
1.0
 50
0.0
 71
     0
 42
3.15
  3
txt.shx
  4
extfont.shx
  0
ENDTAB
  0
TABLE
  2
VIEW
 70
     0
  0
ENDTAB
  0
TABLE
  2
UCS
 70
     0
  0
ENDTAB
  0
TABLE
  2
APPID
 70
     1
  0
APPID
  2
ACAD
 70
     0
  0
ENDTAB
  0
TABLE
  2
DIMSTYLE
 70
     1
  0
DIMSTYLE
  2
MXDIMSTYLE
 70
     0
  3

  4

  5

  6

  7

 40
1.0
 41
2.5
 42
1.0
 43
3.75
 44
1.5
 45
0.0
 46
0.0
 47
0.0
 48
0.0
 71
     0
 72
     0
 73
     0
 74
     0
 75
     0
 76
     0
 77
     1
 78
     8
140
3.15
141
2.5
142
0.0
143
0.03937
144
1.0
145
0.0
146
1.0
147
1.0
170
     0
171
     4
172
     1
173
     0
174
     0
175
     0
176
     0
177
     0
178
     0
  0
ENDTAB
  0
ENDSEC
  0
SECTION
  2
BLOCKS
  0
ENDSEC
  0
SECTION
  2
ENTITIES
  0
LINE
  8
LY_1
  6
CONTINUOUS
 62
   251
  5
1F
 10
761.500019
 20
141.87999
 30
0.0
 11
762.500019
 21
140.87999
 31
0.0
  0
LINE
  8
LY_1
  6
CONTINUOUS
 62
   251
  5
20
 10
762.500019
 20
140.87999
 30
0.0
 11
762.500019
 21
121.25002
 31
0.0
  0
LINE
  8
LY_1
  6
CONTINUOUS
 62
   251
  5
21
 10
724.500019
 20
140.87999
 30
0.0
 11
724.500019
 21
121.25002
 31
0.0
  0
LINE
  8
LY_1
  6
CONTINUOUS
 62
   251
  5
22
 10
781.449999
 20
61.80001
 30
0.0
 11
781.449999
 21
59.00002
 31
0.0
  0
LINE
  8
LY_1
  6
CONTINUOUS
 62
   251
  5
23
 10
780.999999
 20
59.00002
 30
0.0
 11
780.999999
 21
42.5
 31
0.0
  0
LINE
  8
LY_1
  6
CONTINUOUS
 62
   251
  5
24
 10
780.499999
 20
88.00002
 30
0.0
 11
780.499999
 21
-88.0
 31
0.0
  0
LINE
  8
LY_1
  6
CONTINUOUS
 62
   251
  5
25
 10
793.500001
 20
-42.5
 30
0.0
 11
780.499999
 21
-42.5
 31
0.0
  0
LINE
  8
LY_1
  6
CONTINUOUS
 62
   251
  5
26
 10
793.500001
 20
-27.50367
 30
0.0
 11
780.499999
 21
-27.50367
 31
0.0
  0
LINE
  8
LY_1
  6
CONTINUOUS
 62
   251
  5
27
 10
817.855889
 20
-39.18428
 30
0.0
 11
793.500001
 21
-40.0348
 31
0.0
  0
LINE
  8
LY_1
  6
CONTINUOUS
 62
   251
  5
28
 10
793.500001
 20
42.5
 30
0.0
 11
793.500001
 21
-42.5
 31
0.0
  0
LINE
  8
LY_1
  6
CONTINUOUS
 62
   251
  5
29
 10
820.000001
 20
58.00002
 30
0.0
 11
820.000001
 21
-30.0
 31
0.0
  0
LINE
  8
LY_1
  6
CONTINUOUS
 62
   251
  5
2A
 10
787.499999
 20
42.5
 30
0.0
 11
787.499999
 21
-42.5
 31
0.0
  0
LINE
  8
LY_1
  6
CONTINUOUS
 62
   251
  5
2B
 10
793.500001
 20
27.50347
 30
0.0
 11
780.499999
 21
27.50347
 31
0.0
  0
LINE
  8
LY_1
  6
CONTINUOUS
 62
   251
  5
2C
 10
820.000001
 20
34.34738
 30
0.0
 11
793.500001
 21
34.34738
 31
0.0
  0
LINE
  8
LY_1
  6
CONTINUOUS
 62
     7
  5
2D
 10
800.500001
 20
87.84276
 30
0.0
 11
800.500001
 21
54.54082
 31
0.0
  0
LINE
  8
LY_1
  6
CONTINUOUS
 62
   251
  5
2E
 10
793.500001
 20
42.5
 30
0.0
 11
787.499999
 21
42.5
 31
0.0
  0
LINE
  8
LY_1
  6
CONTINUOUS
 62
   251
  5
2F
 10
815.299996
 20
80.09999
 30
0.0
 11
815.299996
 21
61.80001
 31
0.0
  0
LINE
  8
LY_1
  6
CONTINUOUS
 62
   251
  5
30
 10
785.700006
 20
80.09999
 30
0.0
 11
786.700006
 21
81.09999
 31
0.0
  0
LINE
  8
LY_1
  6
CONTINUOUS
 62
   251
  5
31
 10
819.549996
 20
61.80001
 30
0.0
 11
781.449999
 21
61.80001
 31
0.0
  0
LINE
  8
LY_1
  6
CONTINUOUS
 62
   251
  5
32
 10
819.549996
 20
59.00002
 30
0.0
 11
780.999999
 21
59.00002
 31
0.0
  0
LINE
  8
LY_1
  6
CONTINUOUS
 62
   251
  5
33
 10
819.549996
 20
61.80001
 30
0.0
 11
819.549996
 21
58.00002
 31
0.0
  0
LINE
  8
LY_1
  6
CONTINUOUS
 62
   251
  5
34
 10
815.299996
 20
64.80001
 30
0.0
 11
785.699999
 21
64.80001
 31
0.0
  0
LINE
  8
LY_1
  6
CONTINUOUS
 62
   251
  5
35
 10
820.000001
 20
58.00002
 30
0.0
 11
780.999999
 21
58.00002
 31
0.0
  0
LINE
  8
LY_1
  6
CONTINUOUS
 62
   251
  5
36
 10
787.499999
 20
42.5
 30
0.0
 11
780.499999
 21
42.5
 31
0.0
  0
LINE
  8
LY_1
  6
CONTINUOUS
 62
   251
  5
37
 10
785.699999
 20
80.09999
 30
0.0
 11
785.699999
 21
61.80001
 31
0.0
  0
LINE
  8
LY_1
  6
CONTINUOUS
 62
   251
  5
38
 10
814.299996
 20
81.09999
 30
0.0
 11
786.700006
 21
81.09999
 31
0.0
  0
LINE
  8
LY_1
  6
CONTINUOUS
 62
   251
  5
39
 10
780.499999
 20
57.9999
 30
0.0
 11
629.999989
 21
57.9999
 31
0.0
  0
LINE
  8
LY_1
  6
CONTINUOUS
 62
   251
  5
3A
 10
780.499999
 20
-58.0001
 30
0.0
 11
629.999989
 21
-58.0001
 31
0.0
  0
LINE
  8
LY_1
  6
CONTINUOUS
 62
   251
  5
3B
 10
703.999989
 20
51.0
 30
0.0
 11
631.999989
 21
51.0
 31
0.0
  0
LINE
  8
LY_1
  6
CONTINUOUS
 62
   251
  5
3C
 10
703.999989
 20
48.0
 30
0.0
 11
631.999989
 21
48.0
 31
0.0
  0
LINE
  8
LY_1
  6
CONTINUOUS
 62
   251
  5
3D
 10
703.999989
 20
45.0
 30
0.0
 11
631.999989
 21
45.0
 31
0.0
  0
LINE
  8
LY_1
  6
CONTINUOUS
 62
   251
  5
3E
 10
703.999989
 20
42.0
 30
0.0
 11
631.999989
 21
42.0
 31
0.0
  0
LINE
  8
LY_1
  6
CONTINUOUS
 62
   251
  5
3F
 10
703.999989
 20
-42.0
 30
0.0
 11
631.999989
 21
-42.0
 31
0.0
  0
LINE
  8
LY_1
  6
CONTINUOUS
 62
   251
  5
40
 10
703.999989
 20
-45.0
 30
0.0
 11
631.999989
 21
-45.0
 31
0.0
  0
LINE
  8
LY_1
  6
CONTINUOUS
 62
   251
  5
41
 10
703.999989
 20
-48.0
 30
0.0
 11
631.999989
 21
-48.0
 31
0.0
  0
LINE
  8
LY_1
  6
CONTINUOUS
 62
   251
  5
42
 10
703.999989
 20
-51.0
 30
0.0
 11
631.999989
 21
-51.0
 31
0.0
  0
LINE
  8
LY_1
  6
CONTINUOUS
 62
   251
  5
43
 10
768.999999
 20
88.00002
 30
0.0
 11
768.999999
 21
-88.0
 31
0.0
  0
LINE
  8
LY_1
  6
CONTINUOUS
 62
   251
  5
44
 10
631.999989
 20
88.00002
 30
0.0
 11
631.999989
 21
-88.0
 31
0.0
  0
LINE
  8
LY_1
  6
CONTINUOUS
 62
   251
  5
45
 10
629.999989
 20
88.00002
 30
0.0
 11
629.999989
 21
-88.0
 31
0.0
  0
LINE
  8
LY_1
  6
CONTINUOUS
 62
   251
  5
46
 10
768.999999
 20
-51.0
 30
0.0
 11
703.999989
 21
-51.0
 31
0.0
  0
LINE
  8
LY_1
  6
CONTINUOUS
 62
   251
  5
47
 10
768.999999
 20
-48.0
 30
0.0
 11
703.999989
 21
-48.0
 31
0.0
  0
LINE
  8
LY_1
  6
CONTINUOUS
 62
   251
  5
48
 10
768.999999
 20
-45.0
 30
0.0
 11
703.999989
 21
-45.0
 31
0.0
  0
LINE
  8
LY_1
  6
CONTINUOUS
 62
   251
  5
49
 10
768.999999
 20
51.0
 30
0.0
 11
703.999989
 21
51.0
 31
0.0
  0
LINE
  8
LY_1
  6
CONTINUOUS
 62
   251
  5
4A
 10
768.999999
 20
48.0
 30
0.0
 11
703.999989
 21
48.0
 31
0.0
  0
LINE
  8
LY_1
  6
CONTINUOUS
 62
   251
  5
4B
 10
768.999999
 20
45.0
 30
0.0
 11
703.999989
 21
45.0
 31
0.0
  0
LINE
  8
LY_1
  6
CONTINUOUS
 62
   251
  5
4C
 10
768.999999
 20
42.0
 30
0.0
 11
703.999989
 21
42.0
 31
0.0
  0
LINE
  8
LY_1
  6
CONTINUOUS
 62
   251
  5
4D
 10
768.999999
 20
-42.0
 30
0.0
 11
703.999989
 21
-42.0
 31
0.0
  0
LINE
  8
LY_1
  6
CONTINUOUS
 62
     7
  5
4E
 10
743.500019
 20
147.34105
 30
0.0
 11
743.500019
 21
103.86556
 31
0.0
  0
LINE
  8
LY_1
  6
CONTINUOUS
 62
   251
  5
4F
 10
725.500019
 20
141.87999
 30
0.0
 11
724.500019
 21
140.87999
 31
0.0
  0
LINE
  8
LY_1
  6
CONTINUOUS
 62
   251
  5
50
 10
762.500019
 20
124.30001
 30
0.0
 11
724.500019
 21
124.30001
 31
0.0
  0
LINE
  8
LY_1
  6
CONTINUOUS
 62
   251
  5
51
 10
765.700009
 20
121.25002
 30
0.0
 11
721.300009
 21
121.25002
 31
0.0
  0
LINE
  8
LY_1
  6
CONTINUOUS
 62
   251
  5
52
 10
721.300009
 20
121.25002
 30
0.0
 11
721.300009
 21
118.00002
 31
0.0
  0
LINE
  8
LY_1
  6
CONTINUOUS
 62
   251
  5
53
 10
765.700009
 20
121.25002
 30
0.0
 11
765.700009
 21
118.00002
 31
0.0
  0
LINE
  8
LY_1
  6
CONTINUOUS
 62
   251
  5
54
 10
768.000019
 20
118.00002
 30
0.0
 11
768.000019
 21
88.00002
 31
0.0
  0
LINE
  8
LY_1
  6
CONTINUOUS
 62
   251
  5
55
 10
706.000019
 20
89.00002
 30
0.0
 11
706.000019
 21
88.00002
 31
0.0
  0
LINE
  8
LY_1
  6
CONTINUOUS
 62
   251
  5
56
 10
768.000019
 20
118.00002
 30
0.0
 11
711.441309
 21
118.00002
 31
0.0
  0
LINE
  8
LY_1
  6
CONTINUOUS
 62
   251
  5
57
 10
815.299996
 20
80.09999
 30
0.0
 11
814.299996
 21
81.09999
 31
0.0
  0
LINE
  8
LY_1
  6
CONTINUOUS
 62
   251
  5
58
 10
725.500019
 20
141.87999
 30
0.0
 11
761.500019
 21
141.87999
 31
0.0
  0
ARC
  8
LY_1
  6
CONTINUOUS
 62
   251
  5
59
 10
817.820992
 20
-38.18489
 30
0.0
 40
1.0
 50
271.999998
 51
343.6062
  0
ARC
  8
LY_1
  6
CONTINUOUS
 62
   251
  5
5A
 10
789.999999
 20
-30.0
 30
0.0
 40
30.0
 50
343.6062
 51
0.00001
  0
ARC
  8
LY_1
  6
CONTINUOUS
 62
   251
  5
5B
 10
786.000019
 20
89.00002
 30
0.0
 40
80.0
 50
158.74619
 51
180.0
  0
LINE
  8
LY_1
  6
CONTINUOUS
 62
   251
  5
5C
 10
629.999989
 20
-73.806
 30
0.0
 11
611.999989
 21
-73.806
 31
0.0
  0
LINE
  8
LY_1
  6
CONTINUOUS
 62
   251
  5
5D
 10
629.999989
 20
73.80602
 30
0.0
 11
611.999989
 21
73.80602
 31
0.0
  0
LINE
  8
LY_1
  6
CONTINUOUS
 62
   251
  5
5E
 10
611.999989
 20
88.00002
 30
0.0
 11
780.499999
 21
88.00002
 31
0.0
  0
LINE
  8
LY_1
  6
CONTINUOUS
 62
   251
  5
5F
 10
611.999989
 20
-88.0
 30
0.0
 11
780.499999
 21
-88.0
 31
0.0
  0
LINE
  8
LY_1
  6
CONTINUOUS
 62
   251
  5
60
 10
9.700317
 20
119.20001
 30
0.0
 11
23.0
 21
119.20001
 31
0.0
  0
LINE
  8
LY_1
  6
CONTINUOUS
 62
   251
  5
61
 10
9.030276
 20
123.0
 30
0.0
 11
23.0
 21
123.0
 31
0.0
  0
LINE
  8
LY_1
  6
CONTINUOUS
 62
   251
  5
62
 10
4.000015
 20
142.0
 30
0.0
 11
16.3999
 21
142.0
 31
0.0
  0
LINE
  8
LY_1
  6
CONTINUOUS
 62
   251
  5
63
 10
-23.0
 20
119.20001
 30
0.0
 11
-9.700173
 21
119.20001
 31
0.0
  0
LINE
  8
LY_1
  6
CONTINUOUS
 62
   251
  5
64
 10
16.3999
 20
142.00001
 30
0.0
 11
17.3999
 21
141.00001
 31
0.0
  0
LINE
  8
LY_1
  6
CONTINUOUS
 62
   251
  5
65
 10
-17.40003
 20
140.99998
 30
0.0
 11
-16.40003
 21
142.00001
 31
0.0
  0
LINE
  8
LY_1
  6
CONTINUOUS
 62
   251
  5
66
 10
-16.40003
 20
142.0
 30
0.0
 11
-3.999939
 21
142.0
 31
0.0
  0
LINE
  8
LY_1
  6
CONTINUOUS
 62
   251
  5
67
 10
-17.40003
 20
141.0
 30
0.0
 11
-17.40003
 21
123.0
 31
0.0
  0
LINE
  8
LY_1
  6
CONTINUOUS
 62
   251
  5
68
 10
17.3999
 20
123.0
 30
0.0
 11
17.3999
 21
141.0
 31
0.0
  0
LINE
  8
LY_1
  6
CONTINUOUS
 62
   251
  5
69
 10
-23.0
 20
123.0
 30
0.0
 11
-9.030132
 21
123.0
 31
0.0
  0
LINE
  8
LY_1
  6
CONTINUOUS
 62
   251
  5
6A
 10
23.0
 20
115.22695
 30
0.0
 11
23.0
 21
123.0
 31
0.0
  0
LINE
  8
LY_1
  6
CONTINUOUS
 62
   251
  5
6B
 10
-23.0
 20
112.676528
 30
0.0
 11
-23.0
 21
123.0
 31
0.0
  0
LINE
  8
LY_1
  6
CONTINUOUS
 62
   251
  5
6C
 10
525.999997
 20
129.650003
 30
0.0
 11
525.999997
 21
120.650004
 31
0.0
  0
LINE
  8
LY_1
  6
CONTINUOUS
 62
   251
  5
6D
 10
137.5
 20
-114.000082
 30
0.0
 11
113.161682
 21
20.480084
 31
0.0
  0
LINE
  8
LY_1
  6
CONTINUOUS
 62
   251
  5
6E
 10
-137.5
 20
-114.000082
 30
0.0
 11
-113.161682
 21
20.480084
 31
0.0
  0
LINE
  8
LY_1
  6
CONTINUOUS
 62
   251
  5
6F
 10
-137.5
 20
-114.000082
 30
0.0
 11
-137.5
 21
-140.000162
 31
0.0
  0
LINE
  8
LY_1
  6
CONTINUOUS
 62
   251
  5
70
 10
-72.5
 20
-114.000082
 30
0.0
 11
-137.5
 21
-114.000082
 31
0.0
  0
LINE
  8
LY_1
  6
CONTINUOUS
 62
   251
  5
71
 10
-72.5
 20
-140.000162
 30
0.0
 11
-137.5
 21
-140.000162
 31
0.0
  0
ARC
  8
LY_1
  6
CONTINUOUS
 62
   251
  5
72
 10
59.553146
 20
-85.000153
 30
0.0
 40
5.0
 50
14.999992
 51
90.000003
  0
ARC
  8
LY_1
  6
CONTINUOUS
 62
   251
  5
73
 10
-59.55307
 20
-85.000153
 30
0.0
 40
5.0
 50
90.000003
 51
164.999994
  0
ARC
  8
LY_1
  6
CENTER
 62
     7
  5
75
 10
0.0
 20
0.0
 30
0.0
 40
75.0
 50
204.950143
 51
215.413365
  0
ARC
  8
LY_1
  6
CENTER
 62
     7
  5
76
 10
0.0
 20
0.0
 30
0.0
 40
75.0
 50
264.950138
 51
275.41336
  0
ARC
  8
LY_1
  6
CENTER
 62
     7
  5
77
 10
0.0
 20
0.0
 30
0.0
 40
75.0
 50
324.95014
 51
335.413358
  0
ARC
  8
LY_1
  6
CENTER
 62
     7
  5
78
 10
0.0
 20
0.0
 30
0.0
 40
75.0
 50
24.95014
 51
35.413359
  0
ARC
  8
LY_1
  6
CENTER
 62
     7
  5
79
 10
0.0
 20
0.0
 30
0.0
 40
75.0
 50
84.950136
 51
95.413358
  0
ARC
  8
LY_1
  6
CENTER
 62
     7
  5
7A
 10
0.0
 20
0.0
 30
0.0
 40
75.0
 50
144.950138
 51
155.413359
  0
ARC
  8
LY_1
  6
CENTER
 62
     7
  5
7B
 10
0.0
 20
0.0
 30
0.0
 40
105.0
 50
107.946646
 51
117.234719
  0
ARC
  8
LY_1
  6
CENTER
 62
     7
  5
7C
 10
0.0
 20
0.0
 30
0.0
 40
105.0
 50
17.946648
 51
27.234724
  0
ARC
  8
LY_1
  6
CENTER
 62
     7
  5
7D
 10
0.0
 20
0.0
 30
0.0
 40
105.0
 50
332.946649
 51
342.234724
  0
ARC
  8
LY_1
  6
CENTER
 62
     7
  5
7E
 10
0.0
 20
0.0
 30
0.0
 40
105.0
 50
287.946647
 51
297.234721
  0
ARC
  8
LY_1
  6
CENTER
 62
     7
  5
7F
 10
0.0
 20
0.0
 30
0.0
 40
105.0
 50
242.94665
 51
252.234723
  0
ARC
  8
LY_1
  6
CENTER
 62
     7
  5
80
 10
0.0
 20
0.0
 30
0.0
 40
105.0
 50
197.946645
 51
207.234719
  0
ARC
  8
LY_1
  6
CENTER
 62
     7
  5
81
 10
0.0
 20
0.0
 30
0.0
 40
105.0
 50
152.94665
 51
162.234724
  0
ARC
  8
LY_1
  6
CENTER
 62
     7
  5
82
 10
0.0
 20
0.0
 30
0.0
 40
105.0
 50
62.946648
 51
72.234721
  0
ARC
  8
LY_1
  6
CONTINUOUS
 62
   251
  5
83
 10
-64.951859
 20
-37.5
 30
0.0
 40
13.0
 50
285.541137
 51
134.45894
  0
CIRCLE
  8
LY_1
  6
CONTINUOUS
 62
   251
  5
84
 10
0.0
 20
0.0
 30
0.0
 40
55.0
  0
ARC
  8
LY_1
  6
CONTINUOUS
 62
   251
  5
85
 10
0.0
 20
-75.000153
 30
0.0
 40
13.0
 50
345.540978
 51
194.458983
  0
ARC
  8
LY_1
  6
CONTINUOUS
 62
   251
  5
86
 10
64.951935
 20
-37.5
 30
0.0
 40
13.0
 50
45.541075
 51
254.458834
  0
ARC
  8
LY_1
  6
CONTINUOUS
 62
   251
  5
87
 10
64.951935
 20
37.499999
 30
0.0
 40
13.0
 50
105.541169
 51
314.458904
  0
ARC
  8
LY_1
  6
CONTINUOUS
 62
   251
  5
88
 10
0.0
 20
75.0
 30
0.0
 40
13.0
 50
165.541014
 51
14.459029
  0
ARC
  8
LY_1
  6
CONTINUOUS
 62
   251
  5
89
 10
-64.951859
 20
37.499999
 30
0.0
 40
13.0
 50
225.54106
 51
74.45885
  0
CIRCLE
  8
LY_1
  6
CONTINUOUS
 62
   251
  5
8A
 10
0.0
 20
0.0
 30
0.0
 40
87.5
  0
ARC
  8
LY_1
  6
CONTINUOUS
 62
   251
  5
8B
 10
90.336685
 20
-109.000082
 30
0.0
 40
5.0
 50
194.999951
 51
270.000018
  0
ARC
  8
LY_1
  6
CONTINUOUS
 62
   251
  5
8C
 10
-90.336456
 20
-109.000082
 30
0.0
 40
5.0
 50
270.000018
 51
344.999938
  0
ARC
  8
LY_1
  6
CONTINUOUS
 62
   251
  5
8D
 10
75.463638
 20
-53.493042
 30
0.0
 40
5.0
 50
144.668734
 51
194.999934
  0
ARC
  8
LY_1
  6
CONTINUOUS
 62
   251
  5
8E
 10
56.418762
 20
-73.302155
 30
0.0
 40
5.0
 50
15.000146
 51
127.584724
  0
ARC
  8
LY_1
  6
CONTINUOUS
 62
   251
  5
8F
 10
-75.463486
 20
-53.493042
 30
0.0
 40
5.0
 50
345.000035
 51
35.331428
  0
ARC
  8
LY_1
  6
CONTINUOUS
 62
   251
  5
90
 10
-56.418533
 20
-73.302155
 30
0.0
 40
5.0
 50
52.415288
 51
164.999871
  0
ARC
  8
LY_1
  6
CONTINUOUS
 62
   251
  5
91
 10
-69.499969
 20
-140.000162
 30
0.0
 40
3.0
 50
89.999982
 51
179.999964
  0
ARC
  8
LY_1
  6
CONTINUOUS
 62
   251
  5
92
 10
69.500046
 20
-140.000162
 30
0.0
 40
3.0
 50
0.0
 51
89.999982
  0
ARC
  8
LY_1
  6
CONTINUOUS
 62
   251
  5
93
 10
0.0
 20
0.0
 30
0.0
 40
115.0
 50
10.258393
 51
169.741607
  0
ARC
  8
LY_1
  6
CONTINUOUS
 62
   251
  5
94
 10
0.0
 20
0.0
 30
0.0
 40
27.5
 50
16.912124
 51
343.087544
  0
ARC
  8
LY_1
  6
CONTINUOUS
 62
   251
  5
95
 10
-7.758789
 20
123.299866
 30
0.0
 40
1.2
 50
100.941911
 51
169.999966
  0
ARC
  8
LY_1
  6
CONTINUOUS
 62
   251
  5
96
 10
-5.199966
 20
119.899902
 30
0.0
 40
1.2
 50
269.999963
 51
0.0
  0
ARC
  8
LY_1
  6
CONTINUOUS
 62
   251
  5
97
 10
5.200043
 20
119.899902
 30
0.0
 40
1.2
 50
179.999978
 51
270.000028
  0
ARC
  8
LY_1
  6
CONTINUOUS
 62
   251
  5
98
 10
0.0
 20
154.999847
 30
0.0
 40
4.0
 50
0.0
 51
179.999964
  0
ARC
  8
LY_1
  6
CONTINUOUS
 62
   251
  5
99
 10
7.758865
 20
123.299866
 30
0.0
 40
1.2
 50
10.000001
 51
79.058053
  0
ARC
  8
LY_1
  6
CONTINUOUS
 62
   251
  5
9A
 10
0.0
 20
0.0
 30
0.0
 40
117.5
 50
26.561084
 51
31.438797
  0
ARC
  8
LY_1
  6
CONTINUOUS
 62
   251
  5
9B
 10
0.0
 20
0.0
 30
0.0
 40
117.5
 50
129.628275
 51
140.371753
  0
ARC
  8
LY_1
  6
CONTINUOUS
 62
   251
  5
9C
 10
0.0
 20
0.0
 30
0.0
 40
117.5
 50
116.561167
 51
121.438878
  0
ARC
  8
LY_1
  6
CONTINUOUS
 62
   251
  5
9D
 10
0.0
 20
0.0
 30
0.0
 40
117.5
 50
103.561159
 51
108.43887
  0
ARC
  8
LY_1
  6
CONTINUOUS
 62
   251
  5
9E
 10
0.0
 20
0.0
 30
0.0
 40
117.5
 50
174.628266
 51
181.581881
  0
ARC
  8
LY_1
  6
CONTINUOUS
 62
   251
  5
9F
 10
0.0
 20
0.0
 30
0.0
 40
117.5
 50
161.561158
 51
166.438869
  0
ARC
  8
LY_1
  6
CONTINUOUS
 62
   251
  5
A0
 10
0.0
 20
0.0
 30
0.0
 40
117.5
 50
148.56115
 51
153.438861
  0
ARC
  8
LY_1
  6
CONTINUOUS
 62
   251
  5
A1
 10
0.0
 20
0.0
 30
0.0
 40
117.5
 50
358.418184
 51
5.371741
  0
ARC
  8
LY_1
  6
CONTINUOUS
 62
   251
  5
A2
 10
0.0
 20
0.0
 30
0.0
 40
117.5
 50
39.628372
 51
95.371741
  0
ARC
  8
LY_1
  6
CONTINUOUS
 62
   251
  5
A3
 10
0.0
 20
0.0
 30
0.0
 40
117.5
 50
13.561172
 51
18.438903
  0
ARC
  8
LY_1
  6
CONTINUOUS
 62
   251
  5
A4
 10
503.999997
 20
77.500004
 30
0.0
 40
5.0
 50
0.0
 51
90.000003
  0
ARC
  8
LY_1
  6
CONTINUOUS
 62
   251
  5
A5
 10
496.99999
 20
87.500013
 30
0.0
 40
5.0
 50
179.999995
 51
269.999997
  0
ARC
  8
LY_1
  6
CONTINUOUS
 62
   251
  5
A6
 10
503.999998
 20
77.499999
 30
0.0
 40
5.0
 50
0.0
 51
90.000003
  0
ARC
  8
LY_1
  6
CONTINUOUS
 62
   251
  5
A7
 10
541.999999
 20
113.000004
 30
0.0
 40
2.0
 50
0.0
 51
90.0
  0
ARC
  8
LY_1
  6
CONTINUOUS
 62
   251
  5
A8
 10
503.999997
 20
77.5
 30
0.0
 40
5.0
 50
0.0
 51
90.000003
  0
ARC
  8
LY_1
  6
CONTINUOUS
 62
   251
  5
A9
 10
589.0
 20
49.772076
 30
0.0
 40
5.0
 50
269.999997
 51
0.0
  0
ARC
  8
LY_1
  6
CONTINUOUS
 62
   251
  5
AA
 10
503.999997
 20
77.5
 30
0.0
 40
5.0
 50
0.0
 51
90.000003
  0
ARC
  8
LY_1
  6
CONTINUOUS
 62
   251
  5
AB
 10
549.014874
 20
73.392479
 30
0.0
 40
5.0
 50
179.999991
 51
258.246599
  0
ARC
  8
LY_1
  6
CONTINUOUS
 62
   251
  5
AC
 10
503.999997
 20
77.499999
 30
0.0
 40
5.0
 50
0.0
 51
90.000003
  0
ARC
  8
LY_1
  6
CONTINUOUS
 62
   251
  5
AD
 10
503.999997
 20
77.499999
 30
0.0
 40
5.0
 50
0.0
 51
90.000003
  0
ARC
  8
LY_1
  6
CONTINUOUS
 62
   251
  5
AE
 10
513.999997
 20
73.499999
 30
0.0
 40
5.0
 50
179.999991
 51
270.000001
  0
ARC
  8
LY_1
  6
CONTINUOUS
 62
   251
  5
AF
 10
503.999997
 20
77.499999
 30
0.0
 40
5.0
 50
0.0
 51
90.000003
  0
ARC
  8
LY_1
  6
CONTINUOUS
 62
   251
  5
B0
 10
503.999997
 20
77.499999
 30
0.0
 40
5.0
 50
0.0
 51
90.000003
  0
ARC
  8
LY_1
  6
CONTINUOUS
 62
   251
  5
B1
 10
513.999997
 20
73.499999
 30
0.0
 40
5.0
 50
179.999991
 51
270.000001
  0
ARC
  8
LY_1
  6
CONTINUOUS
 62
   251
  5
B2
 10
502.914525
 20
118.334774
 30
0.0
 40
4.0
 50
124.606679
 51
192.045781
  0
CIRCLE
  8
LY_1
  6
CONTINUOUS
 62
   251
  5
B3
 10
488.999996
 20
138.500008
 30
0.0
 40
12.5
  0
ARC
  8
LY_1
  6
CONTINUOUS
 62
   251
  5
B4
 10
475.085487
 20
118.334774
 30
0.0
 40
4.0
 50
347.954189
 51
55.393343
  0
ARC
  8
LY_1
  6
CONTINUOUS
 62
   251
  5
B5
 10
488.999996
 20
138.500008
 30
0.0
 40
20.5
 50
304.60665
 51
235.393317
  0
ARC
  8
LY_1
  6
CONTINUOUS
 62
   251
  5
B6
 10
503.999996
 20
77.499998
 30
0.0
 40
5.0
 50
0.0
 51
90.000003
  0
ARC
  8
LY_1
  6
CONTINUOUS
 62
   251
  5
B7
 10
588.999996
 20
-49.772081
 30
0.0
 40
5.0
 50
0.0
 51
90.000003
  0
ARC
  8
LY_1
  6
CONTINUOUS
 62
   251
  5
B8
 10
513.999996
 20
-49.772081
 30
0.0
 40
5.0
 50
90.000003
 51
180.000005
  0
ARC
  8
LY_1
  6
CONTINUOUS
 62
   251
  5
B9
 10
513.999996
 20
49.772074
 30
0.0
 40
5.0
 50
179.999991
 51
270.000001
  0
ARC
  8
LY_1
  6
CONTINUOUS
 62
   251
  5
BA
 10
513.999996
 20
-73.500004
 30
0.0
 40
5.0
 50
90.000003
 51
180.000005
  0
ARC
  8
LY_1
  6
CONTINUOUS
 62
   251
  5
BB
 10
588.999996
 20
-73.500004
 30
0.0
 40
5.0
 50
0.0
 51
90.000003
  0
ARC
  8
LY_1
  6
CONTINUOUS
 62
   251
  5
BC
 10
496.999989
 20
-87.50001
 30
0.0
 40
5.0
 50
90.000003
 51
180.000005
  0
ARC
  8
LY_1
  6
CONTINUOUS
 62
   251
  5
BD
 10
503.999996
 20
-77.5
 30
0.0
 40
5.0
 50
269.999997
 51
0.0
  0
ARC
  8
LY_1
  6
CONTINUOUS
 62
   251
  5
BE
 10
513.999996
 20
73.499998
 30
0.0
 40
5.0
 50
179.999991
 51
270.000001
  0
ARC
  8
LY_1
  6
CONTINUOUS
 62
   251
  5
BF
 10
588.999996
 20
73.499998
 30
0.0
 40
5.0
 50
269.999997
 51
0.0
  0
CIRCLE
  8
LY_1
  6
CONTINUOUS
 62
   251
  5
C0
 10
390.0
 20
-65.000153
 30
0.0
 40
5.5
  0
ARC
  8
LY_1
  6
CONTINUOUS
 62
   251
  5
C1
 10
316.999989
 20
0.0
 30
0.0
 40
8.0
 50
269.999997
 51
90.000003
  0
ARC
  8
LY_1
  6
CONTINUOUS
 62
   251
  5
C2
 10
398.999996
 20
-109.000082
 30
0.0
 40
5.0
 50
269.999997
 51
0.0
  0
ARC
  8
LY_1
  6
CONTINUOUS
 62
   251
  5
C3
 10
503.694153
 20
-79.000092
 30
0.0
 40
35.0
 50
219.000006
 51
269.999997
  0
CIRCLE
  8
LY_1
  6
CONTINUOUS
 62
   251
  5
C4
 10
390.0
 20
0.0
 30
0.0
 40
6.735938
  0
ARC
  8
LY_1
  6
CONTINUOUS
 62
   251
  5
C5
 10
360.418339
 20
-109.000082
 30
0.0
 40
5.0
 50
269.999997
 51
354.999997
  0
ARC
  8
LY_1
  6
CONTINUOUS
 62
   251
  5
C6
 10
365.090084
 20
-55.601501
 30
0.0
 40
5.0
 50
355.000048
 51
89.999982
  0
ARC
  8
LY_1
  6
CONTINUOUS
 62
   251
  5
C7
 10
398.999996
 20
93.502502
 30
0.0
 40
5.0
 50
273.00009
 51
0.0
  0
ARC
  8
LY_1
  6
CONTINUOUS
 62
   251
  5
C8
 10
370.0
 20
-40.443726
 30
0.0
 40
5.0
 50
0.0
 51
89.999982
  0
ARC
  8
LY_1
  6
CONTINUOUS
 62
   251
  5
C9
 10
380.0
 20
-75.000153
 30
0.0
 40
5.0
 50
179.999978
 51
270.000028
  0
LINE
  8
LY_1
  6
CONTINUOUS
 62
     7
  5
CA
 10
92.49
 20
5.949747
 30
0.0
 11
100.49
 21
0.0
 31
0.0
  0
LINE
  8
LY_1
  6
CONTINUOUS
 62
     7
  5
CB
 10
92.49
 20
0.0
 30
0.0
 11
100.49
 21
5.949747
 31
0.0
  0
LINE
  8
LY_1
  6
CONTINUOUS
 62
     7
  5
CC
 10
100.49
 20
0.0
 30
0.0
 11
92.49
 21
-5.949747
 31
0.0
  0
LINE
  8
LY_1
  6
CONTINUOUS
 62
     7
  5
CD
 10
100.49
 20
-5.949747
 30
0.0
 11
92.49
 21
0.0
 31
0.0
  0
LINE
  8
LY_1
  6
CONTINUOUS
 62
   251
  5
CE
 10
100.49
 20
0.0
 30
0.0
 11
92.49
 21
0.0
 31
0.0
  0
LINE
  8
LY_1
  6
CONTINUOUS
 62
   251
  5
CF
 10
100.49
 20
5.949747
 30
0.0
 11
92.49
 21
5.949747
 31
0.0
  0
LINE
  8
LY_1
  6
CONTINUOUS
 62
   251
  5
D0
 10
100.49
 20
-5.949747
 30
0.0
 11
92.49
 21
-5.949747
 31
0.0
  0
LINE
  8
LY_1
  6
CONTINUOUS
 62
   251
  5
D1
 10
92.49
 20
6.735937
 30
0.0
 11
87.252823
 21
6.572276
 31
0.0
  0
LINE
  8
LY_1
  6
CONTINUOUS
 62
   251
  5
D2
 10
92.49
 20
-6.735937
 30
0.0
 11
87.252823
 21
-6.572276
 31
0.0
  0
LINE
  8
LY_1
  6
CONTINUOUS
 62
   251
  5
D3
 10
92.49
 20
-6.735938
 30
0.0
 11
92.49
 21
6.735938
 31
0.0
  0
LINE
  8
LY_1
  6
CONTINUOUS
 62
   251
  5
D4
 10
100.49
 20
-5.949747
 30
0.0
 11
100.49
 21
5.949747
 31
0.0
  0
LINE
  8
LY_1
  6
CONTINUOUS
 62
   251
  5
D5
 10
21.500015
 20
7.999878
 30
0.0
 11
21.500015
 21
-8.000031
 31
0.0
  0
LINE
  8
LY_1
  6
CONTINUOUS
 62
   251
  5
D6
 10
31.500015
 20
7.999878
 30
0.0
 11
21.500015
 21
7.999878
 31
0.0
  0
LINE
  8
LY_1
  6
CONTINUOUS
 62
   251
  5
D7
 10
31.500015
 20
-8.000031
 30
0.0
 11
21.500015
 21
-8.000031
 31
0.0
  0
LINE
  8
LY_1
  6
CONTINUOUS
 62
   251
  5
D8
 10
9.200058
 20
117.5
 30
0.0
 11
9.200058
 21
117.139273
 31
0.0
  0
LINE
  8
LY_1
  6
CONTINUOUS
 62
   251
  5
D9
 10
-9.199982
 20
117.5
 30
0.0
 11
-9.199982
 21
117.139273
 31
0.0
  0
LINE
  8
LY_1
  6
CONTINUOUS
 62
   251
  5
DA
 10
-10.0
 20
117.5
 30
0.0
 11
10.0
 21
117.5
 31
0.0
  0
LINE
  8
LY_1
  6
CONTINUOUS
 62
   251
  5
DB
 10
-3.999939
 20
154.999847
 30
0.0
 11
-3.999939
 21
119.899902
 31
0.0
  0
LINE
  8
LY_1
  6
CONTINUOUS
 62
   251
  5
DC
 10
-3.999992
 20
125.248829
 30
0.0
 11
-7.986576
 21
124.478106
 31
0.0
  0
LINE
  8
LY_1
  6
CONTINUOUS
 62
   251
  5
DD
 10
-8.940499
 20
123.508333
 30
0.0
 11
-9.99994
 21
117.499948
 31
0.0
  0
LINE
  8
LY_1
  6
CONTINUOUS
 62
   251
  5
DE
 10
4.000015
 20
154.999847
 30
0.0
 11
4.000015
 21
119.899902
 31
0.0
  0
LINE
  8
LY_1
  6
CONTINUOUS
 62
   251
  5
DF
 10
8.940641
 20
123.508342
 30
0.0
 11
10.000082
 21
117.499957
 31
0.0
  0
LINE
  8
LY_1
  6
CONTINUOUS
 62
   251
  5
E0
 10
4.000064
 20
125.248835
 30
0.0
 11
7.986685
 21
124.478106
 31
0.0
  0
LINE
  8
LY_1
  6
CENTER
 62
     7
  5
E1
 10
-4.405717
 20
125.17039
 30
0.0
 11
-8.071002
 21
129.649985
 31
0.0
  0
LINE
  8
LY_1
  6
CONTINUOUS
 62
   251
  5
E2
 10
-3.999939
 20
129.649869
 30
0.0
 11
-8.070999
 21
129.649869
 31
0.0
  0
LINE
  8
LY_1
  6
CENTER
 62
     7
  5
E3
 10
8.071169
 20
129.649924
 30
0.0
 11
4.405919
 21
125.170372
 31
0.0
  0
LINE
  8
LY_1
  6
CONTINUOUS
 62
   251
  5
E4
 10
-8.070999
 20
129.649872
 30
0.0
 11
-8.070999
 21
124.458539
 31
0.0
  0
LINE
  8
LY_1
  6
CONTINUOUS
 62
   251
  5
E5
 10
8.071121
 20
129.649871
 30
0.0
 11
8.071121
 21
124.458527
 31
0.0
  0
LINE
  8
LY_1
  6
CONTINUOUS
 62
   251
  5
E6
 10
8.071121
 20
129.649869
 30
0.0
 11
4.000015
 21
129.649869
 31
0.0
  0
LINE
  8
LY_1
  6
CONTINUOUS
 62
   251
  5
E7
 10
35.443649
 20
-80.000153
 30
0.0
 11
59.553146
 21
-80.000153
 31
0.0
  0
LINE
  8
LY_1
  6
CONTINUOUS
 62
   251
  5
E8
 10
-59.55307
 20
-80.000153
 30
0.0
 11
-35.443573
 21
-80.000153
 31
0.0
  0
LINE
  8
LY_1
  6
CENTER
 62
     7
  5
E9
 10
-59.496822
 20
-34.35051
 30
0.0
 11
-70.592575
 21
-40.756645
 31
0.0
  0
LINE
  8
LY_1
  6
CENTER
 62
     7
  5
EA
 10
59.496925
 20
-34.350724
 30
0.0
 11
70.592611
 21
-40.756822
 31
0.0
  0
LINE
  8
LY_1
  6
CENTER
 62
     7
  5
EB
 10
59.496839
 20
34.3505
 30
0.0
 11
70.592592
 21
40.756635
 31
0.0
  0
LINE
  8
LY_1
  6
CENTER
 62
     7
  5
EC
 10
-59.496859
 20
34.350379
 30
0.0
 11
-70.592545
 21
40.756477
 31
0.0
  0
LINE
  8
LY_1
  6
CENTER
 62
     7
  5
ED
 10
90.030259
 20
37.292416
 30
0.0
 11
102.658112
 21
42.523042
 31
0.0
  0
LINE
  8
LY_1
  6
CENTER
 62
     7
  5
EE
 10
-90.030129
 20
-37.29267
 30
0.0
 11
-102.658053
 21
-42.523325
 31
0.0
  0
LINE
  8
LY_1
  6
CENTER
 62
     7
  5
EF
 10
-37.291006
 20
-90.030889
 30
0.0
 11
-42.521635
 21
-102.658742
 31
0.0
  0
LINE
  8
LY_1
  6
CENTER
 62
     7
  5
F0
 10
37.292614
 20
-90.030287
 30
0.0
 11
42.523269
 21
-102.658209
 31
0.0
  0
LINE
  8
LY_1
  6
CENTER
 62
     7
  5
F1
 10
90.030848
 20
-37.291179
 30
0.0
 11
102.658771
 21
-42.521837
 31
0.0
  0
LINE
  8
LY_1
  6
CENTER
 62
     7
  5
F2
 10
-37.292491
 20
90.030051
 30
0.0
 11
-42.523147
 21
102.657975
 31
0.0
  0
LINE
  8
LY_1
  6
CENTER
 62
     7
  5
F3
 10
37.291167
 20
90.030746
 30
0.0
 11
42.521767
 21
102.658528
 31
0.0
  0
LINE
  8
LY_1
  6
DASHED
 62
     7
  5
F5
 10
-121.999969
 20
-114.000082
 30
0.0
 11
-121.999969
 21
-140.000162
 31
0.0
  0
LINE
  8
LY_1
  6
DASHED
 62
     7
  5
F6
 10
103.000031
 20
-114.000082
 30
0.0
 11
103.000031
 21
-140.000162
 31
0.0
  0
LINE
  8
LY_1
  6
DASHED
 62
     7
  5
F7
 10
122.000046
 20
-114.000082
 30
0.0
 11
122.000046
 21
-140.000162
 31
0.0
  0
LINE
  8
LY_1
  6
CENTER
 62
     7
  5
F8
 10
74.28894
 20
-65.000153
 30
0.0
 11
85.927925
 21
-65.000153
 31
0.0
  0
LINE
  8
LY_1
  6
CENTER
 62
     7
  5
F9
 10
-90.030758
 20
37.291065
 30
0.0
 11
-102.658681
 21
42.521723
 31
0.0
  0
LINE
  8
LY_1
  6
CONTINUOUS
 62
   251
  5
FA
 10
77.389832
 20
-80.000153
 30
0.0
 11
80.0
 21
-80.000153
 31
0.0
  0
LINE
  8
LY_1
  6
CONTINUOUS
 62
   251
  5
FB
 10
85.506997
 20
-110.294179
 30
0.0
 11
70.633953
 21
-54.787195
 31
0.0
  0
LINE
  8
LY_1
  6
CONTINUOUS
 62
   251
  5
FC
 10
-79.999924
 20
-80.000153
 30
0.0
 11
-77.389603
 21
-80.000153
 31
0.0
  0
LINE
  8
LY_1
  6
CONTINUOUS
 62
   251
  5
FD
 10
-79.999924
 20
-35.443726
 30
0.0
 11
-79.999924
 21
-80.000153
 31
0.0
  0
LINE
  8
LY_1
  6
CONTINUOUS
 62
   251
  5
FE
 10
80.0
 20
-35.443726
 30
0.0
 11
80.0
 21
-80.000153
 31
0.0
  0
LINE
  8
LY_1
  6
DASHED
 62
     7
  5
FF
 10
-102.999954
 20
-114.000082
 30
0.0
 11
-102.999954
 21
-140.000162
 31
0.0
  0
LINE
  8
LY_1
  6
CONTINUOUS
 62
   251
  5
100
 10
-72.500017
 20
-114.000104
 30
0.0
 11
-61.248282
 21
-72.008065
 31
0.0
  0
LINE
  8
LY_1
  6
CONTINUOUS
 62
   251
  5
101
 10
72.5
 20
-114.000082
 30
0.0
 11
137.5
 21
-114.000082
 31
0.0
  0
LINE
  8
LY_1
  6
CONTINUOUS
 62
   251
  5
102
 10
-69.499969
 20
-137.000132
 30
0.0
 11
69.500046
 21
-137.000132
 31
0.0
  0
LINE
  8
LY_1
  6
CONTINUOUS
 62
   251
  5
103
 10
-85.507011
 20
-110.294205
 30
0.0
 11
-70.633958
 21
-54.787223
 31
0.0
  0
LINE
  8
LY_1
  6
CONTINUOUS
 62
   251
  5
104
 10
72.500041
 20
-114.000223
 30
0.0
 11
61.248274
 21
-72.008035
 31
0.0
  0
LINE
  8
LY_1
  6
CENTER
 62
     7
  5
105
 10
112.5
 20
-108.086843
 30
0.0
 11
112.5
 21
-147.657938
 31
0.0
  0
LINE
  8
LY_1
  6
CONTINUOUS
 62
   251
  5
106
 10
72.5
 20
-140.000162
 30
0.0
 11
137.5
 21
-140.000162
 31
0.0
  0
LINE
  8
LY_1
  6
CENTER
 62
     7
  5
107
 10
-112.499924
 20
-106.504049
 30
0.0
 11
-112.499924
 21
-147.657938
 31
0.0
  0
LINE
  8
LY_1
  6
CONTINUOUS
 62
   251
  5
108
 10
72.5
 20
-114.000082
 30
0.0
 11
72.5
 21
-140.000162
 31
0.0
  0
LINE
  8
LY_1
  6
CONTINUOUS
 62
   251
  5
109
 10
-72.5
 20
-114.000082
 30
0.0
 11
-72.5
 21
-140.000162
 31
0.0
  0
LINE
  8
LY_1
  6
CONTINUOUS
 62
   251
  5
10A
 10
137.5
 20
-114.000082
 30
0.0
 11
137.5
 21
-140.000162
 31
0.0
  0
LINE
  8
LY_1
  6
CENTER
 62
     7
  5
10B
 10
-134.999924
 20
0.0
 30
0.0
 11
135.0
 21
0.0
 31
0.0
  0
LINE
  8
LY_1
  6
CONTINUOUS
 62
   251
  5
10C
 10
90.497979
 20
74.942405
 30
0.0
 11
89.199017
 21
72.58467
 31
0.0
  0
LINE
  8
LY_1
  6
CONTINUOUS
 62
   251
  5
10D
 10
100.250693
 20
61.286723
 30
0.0
 11
97.799862
 21
60.499505
 31
0.0
  0
LINE
  8
LY_1
  6
CONTINUOUS
 62
   251
  5
10E
 10
105.098805
 20
52.540333
 30
0.0
 11
103.132511
 21
50.879105
 31
0.0
  0
LINE
  8
LY_1
  6
CONTINUOUS
 62
   251
  5
10F
 10
-90.495959
 20
74.943594
 30
0.0
 11
-89.197421
 21
72.586628
 31
0.0
  0
LINE
  8
LY_1
  6
CONTINUOUS
 62
   251
  5
110
 10
-74.941058
 20
90.500155
 30
0.0
 11
-72.582555
 21
89.200769
 31
0.0
  0
LINE
  8
LY_1
  6
CENTER
 62
     7
  5
111
 10
0.0
 20
165.917664
 30
0.0
 11
0.0
 21
-152.000132
 31
0.0
  0
LINE
  8
LY_1
  6
CONTINUOUS
 62
   251
  5
112
 10
-61.284747
 20
100.251549
 30
0.0
 11
-60.497627
 21
97.801006
 31
0.0
  0
LINE
  8
LY_1
  6
CONTINUOUS
 62
   251
  5
113
 10
-52.539546
 20
105.09958
 30
0.0
 11
-50.878088
 21
103.133005
 31
0.0
  0
LINE
  8
LY_1
  6
CONTINUOUS
 62
   251
  5
114
 10
-27.550315
 20
114.224989
 30
0.0
 11
-26.373745
 21
111.934918
 31
0.0
  0
LINE
  8
LY_1
  6
CONTINUOUS
 62
   251
  5
115
 10
-37.163986
 20
111.467732
 30
0.0
 11
-36.948282
 21
108.902819
 31
0.0
  0
LINE
  8
LY_1
  6
CONTINUOUS
 62
   251
  5
116
 10
-116.984415
 20
11.00148
 30
0.0
 11
-114.760594
 21
11.645372
 31
0.0
  0
LINE
  8
LY_1
  6
CONTINUOUS
 62
   251
  5
117
 10
-114.223015
 20
27.554297
 30
0.0
 11
-111.93388
 21
26.378201
 31
0.0
  0
LINE
  8
LY_1
  6
CONTINUOUS
 62
   251
  5
118
 10
-111.467642
 20
37.165737
 30
0.0
 11
-108.902235
 21
36.949987
 31
0.0
  0
LINE
  8
LY_1
  6
CONTINUOUS
 62
   251
  5
119
 10
-100.250198
 20
61.288
 30
0.0
 11
-97.799076
 21
60.500688
 31
0.0
  0
LINE
  8
LY_1
  6
CONTINUOUS
 62
   251
  5
11A
 10
-105.098254
 20
52.541025
 30
0.0
 11
-103.13212
 21
50.879932
 31
0.0
  0
LINE
  8
LY_1
  6
CONTINUOUS
 62
   251
  5
11B
 10
116.983864
 20
10.999431
 30
0.0
 11
114.761054
 21
11.64303
 31
0.0
  0
LINE
  8
LY_1
  6
CONTINUOUS
 62
   251
  5
11C
 10
114.223991
 20
27.552024
 30
0.0
 11
111.934448
 21
26.375734
 31
0.0
  0
LINE
  8
LY_1
  6
CONTINUOUS
 62
   251
  5
11D
 10
111.46775
 20
37.164623
 30
0.0
 11
108.902613
 21
36.948895
 31
0.0
  0
LINE
  8
LY_1
  6
CONTINUOUS
 62
   251
  5
11E
 10
-10.999458
 20
116.98416
 30
0.0
 11
-11.748166
 21
114.398338
 31
0.0
  0
LINE
  8
LY_1
  6
CONTINUOUS
 62
   251
  5
11F
 10
31.500015
 20
7.999878
 30
0.0
 11
31.500015
 21
-8.000031
 31
0.0
  0
LINE
  8
LY_1
  6
CONTINUOUS
 62
   251
  5
120
 10
497.634182
 20
115.000004
 30
0.0
 11
501.000004
 21
115.000004
 31
0.0
  0
LINE
  8
LY_1
  6
CENTER
 62
     7
  5
121
 10
525.999997
 20
133.387362
 30
0.0
 11
525.999997
 21
110.322752
 31
0.0
  0
LINE
  8
LY_1
  6
CONTINUOUS
 62
   251
  5
122
 10
534.071066
 20
129.650004
 30
0.0
 11
517.928927
 21
129.650004
 31
0.0
  0
LINE
  8
LY_1
  6
CONTINUOUS
 62
     7
  5
123
 10
534.071066
 20
129.650005
 30
0.0
 11
525.999996
 21
120.650004
 31
0.0
  0
LINE
  8
LY_1
  6
CONTINUOUS
 62
     7
  5
124
 10
525.999996
 20
129.650004
 30
0.0
 11
534.071066
 21
120.650003
 31
0.0
  0
LINE
  8
LY_1
  6
CONTINUOUS
 62
     7
  5
125
 10
517.928927
 20
120.650004
 30
0.0
 11
525.999996
 21
129.650004
 31
0.0
  0
LINE
  8
LY_1
  6
CONTINUOUS
 62
     7
  5
126
 10
517.928927
 20
129.650004
 30
0.0
 11
525.999996
 21
120.650004
 31
0.0
  0
LINE
  8
LY_1
  6
CONTINUOUS
 62
   251
  5
127
 10
517.928927
 20
129.650004
 30
0.0
 11
517.928927
 21
120.650004
 31
0.0
  0
LINE
  8
LY_1
  6
CONTINUOUS
 62
   251
  5
128
 10
534.071066
 20
129.650004
 30
0.0
 11
534.071066
 21
120.650004
 31
0.0
  0
LINE
  8
LY_1
  6
CONTINUOUS
 62
   251
  5
129
 10
517.492434
 20
120.650004
 30
0.0
 11
517.677124
 21
114.739914
 31
0.0
  0
LINE
  8
LY_1
  6
CONTINUOUS
 62
   251
  5
12A
 10
534.50756
 20
120.650004
 30
0.0
 11
534.330998
 21
115.000004
 31
0.0
  0
LINE
  8
LY_1
  6
CONTINUOUS
 62
   251
  5
12B
 10
534.507561
 20
120.650004
 30
0.0
 11
517.492433
 21
120.650004
 31
0.0
  0
LINE
  8
LY_1
  6
CONTINUOUS
 62
   251
  5
12C
 10
473.999996
 20
115.000005
 30
0.0
 11
541.999999
 21
115.000005
 31
0.0
  0
LINE
  8
LY_1
  6
CONTINUOUS
 62
   251
  5
12D
 10
496.99999
 20
82.500001
 30
0.0
 11
503.999998
 21
82.500001
 31
0.0
  0
LINE
  8
LY_1
  6
CONTINUOUS
 62
   251
  5
12E
 10
508.999998
 20
64.153889
 30
0.0
 11
508.999998
 21
-61.871843
 31
0.0
  0
LINE
  8
LY_1
  6
CONTINUOUS
 62
   251
  5
12F
 10
508.999998
 20
77.499999
 30
0.0
 11
508.999998
 21
64.153889
 31
0.0
  0
LINE
  8
LY_1
  6
CONTINUOUS
 62
   251
  5
130
 10
508.999997
 20
54.800777
 30
0.0
 11
508.999997
 21
-54.800779
 31
0.0
  0
LINE
  8
LY_1
  6
CONTINUOUS
 62
   251
  5
131
 10
508.999997
 20
77.5
 30
0.0
 11
508.999997
 21
61.871845
 31
0.0
  0
LINE
  8
LY_1
  6
CONTINUOUS
 62
   251
  5
132
 10
544.014873
 20
112.99143
 30
0.0
 11
544.014873
 21
73.392479
 31
0.0
  0
LINE
  8
LY_1
  6
CONTINUOUS
 62
   251
  5
133
 10
497.69579
 20
115.000003
 30
0.0
 11
501.000005
 21
115.000003
 31
0.0
  0
LINE
  8
LY_1
  6
CONTINUOUS
 62
   251
  5
134
 10
497.634182
 20
115.000004
 30
0.0
 11
501.000004
 21
115.000004
 31
0.0
  0
LINE
  8
LY_1
  6
CONTINUOUS
 62
   251
  5
135
 10
479.000007
 20
117.5
 30
0.0
 11
479.942879
 21
122.847293
 31
0.0
  0
LINE
  8
LY_1
  6
CONTINUOUS
 62
   251
  5
136
 10
491.999989
 20
104.225401
 30
0.0
 11
491.999989
 21
-111.98867
 31
0.0
  0
LINE
  8
LY_1
  6
CONTINUOUS
 62
   251
  5
137
 10
508.999997
 20
77.499999
 30
0.0
 11
508.999997
 21
61.871844
 31
0.0
  0
LINE
  8
LY_1
  6
CONTINUOUS
 62
   251
  5
138
 10
508.999997
 20
54.800776
 30
0.0
 11
508.999997
 21
-54.800778
 31
0.0
  0
LINE
  8
LY_1
  6
CONTINUOUS
 62
   251
  5
139
 10
491.999989
 20
104.225401
 30
0.0
 11
491.999989
 21
-111.98867
 31
0.0
  0
LINE
  8
LY_1
  6
CONTINUOUS
 62
   251
  5
13A
 10
513.999997
 20
68.499999
 30
0.0
 11
588.999998
 21
68.499999
 31
0.0
  0
LINE
  8
LY_1
  6
CONTINUOUS
 62
   251
  5
13B
 10
508.999997
 20
77.499999
 30
0.0
 11
508.999997
 21
61.871844
 31
0.0
  0
LINE
  8
LY_1
  6
CONTINUOUS
 62
   251
  5
13C
 10
508.999997
 20
54.800776
 30
0.0
 11
508.999997
 21
-54.800778
 31
0.0
  0
LINE
  8
LY_1
  6
CONTINUOUS
 62
   251
  5
13D
 10
479.799996
 20
117.500004
 30
0.0
 11
479.799996
 21
115.000004
 31
0.0
  0
LINE
  8
LY_1
  6
CONTINUOUS
 62
   251
  5
13E
 10
478.999996
 20
117.500004
 30
0.0
 11
499.002599
 21
117.500004
 31
0.0
  0
LINE
  8
LY_1
  6
CONTINUOUS
 62
   251
  5
13F
 10
473.999996
 20
115.000002
 30
0.0
 11
473.999996
 21
-97.946617
 31
0.0
  0
LINE
  8
LY_1
  6
CENTER
 62
     7
  5
140
 10
488.999996
 20
164.242404
 30
0.0
 11
488.999996
 21
108.429401
 31
0.0
  0
LINE
  8
LY_1
  6
CONTINUOUS
 62
   251
  5
141
 10
479.942915
 20
122.847305
 30
0.0
 11
498.05713
 21
122.847305
 31
0.0
  0
LINE
  8
LY_1
  6
CONTINUOUS
 62
   251
  5
142
 10
479.942879
 20
122.847293
 30
0.0
 11
488.999996
 21
126.000008
 31
0.0
  0
LINE
  8
LY_1
  6
CONTINUOUS
 62
   251
  5
143
 10
498.05713
 20
122.847305
 30
0.0
 11
499.000005
 21
117.500001
 31
0.0
  0
LINE
  8
LY_1
  6
CONTINUOUS
 62
   251
  5
144
 10
498.199997
 20
117.500004
 30
0.0
 11
498.199997
 21
115.000004
 31
0.0
  0
LINE
  8
LY_1
  6
CONTINUOUS
 62
   251
  5
145
 10
497.634163
 20
115.000002
 30
0.0
 11
500.999985
 21
115.000002
 31
0.0
  0
LINE
  8
LY_1
  6
CENTER
 62
     7
  5
146
 10
463.514423
 20
138.499911
 30
0.0
 11
513.942509
 21
138.499911
 31
0.0
  0
LINE
  8
LY_1
  6
CONTINUOUS
 62
   251
  5
147
 10
488.999996
 20
126.000008
 30
0.0
 11
498.05713
 21
122.847305
 31
0.0
  0
LINE
  8
LY_1
  6
CONTINUOUS
 62
   251
  5
148
 10
313.000001
 20
7.999878
 30
0.0
 11
313.000001
 21
-8.000031
 31
0.0
  0
LINE
  8
LY_1
  6
CONTINUOUS
 62
   251
  5
149
 10
467.967873
 20
-90.497446
 30
0.0
 11
470.000019
 21
-90.497446
 31
0.0
  0
LINE
  8
LY_1
  6
CONTINUOUS
 62
   251
  5
14A
 10
455.370445
 20
-74.94092
 30
0.0
 11
470.000019
 21
-74.94092
 31
0.0
  0
LINE
  8
LY_1
  6
CONTINUOUS
 62
   251
  5
14B
 10
444.313278
 20
-61.28644
 30
0.0
 11
470.000019
 21
-61.28644
 31
0.0
  0
LINE
  8
LY_1
  6
CONTINUOUS
 62
   251
  5
14C
 10
437.23093
 20
-52.540464
 30
0.0
 11
470.000019
 21
-52.540464
 31
0.0
  0
LINE
  8
LY_1
  6
CONTINUOUS
 62
   251
  5
14D
 10
426.000004
 20
-37.163944
 30
0.0
 11
470.000019
 21
-37.163944
 31
0.0
  0
LINE
  8
LY_1
  6
CONTINUOUS
 62
   251
  5
14E
 10
426.000004
 20
-27.55167
 30
0.0
 11
470.000019
 21
-27.55167
 31
0.0
  0
LINE
  8
LY_1
  6
CONTINUOUS
 62
   251
  5
14F
 10
426.000004
 20
-11.000309
 30
0.0
 11
470.000019
 21
-11.000309
 31
0.0
  0
LINE
  8
LY_1
  6
CONTINUOUS
 62
   251
  5
150
 10
426.000004
 20
10.999479
 30
0.0
 11
470.000019
 21
10.999479
 31
0.0
  0
LINE
  8
LY_1
  6
CONTINUOUS
 62
   251
  5
151
 10
426.000004
 20
27.552004
 30
0.0
 11
470.000019
 21
27.552004
 31
0.0
  0
LINE
  8
LY_1
  6
CONTINUOUS
 62
   251
  5
152
 10
426.000004
 20
37.164702
 30
0.0
 11
470.000019
 21
37.164702
 31
0.0
  0
LINE
  8
LY_1
  6
CONTINUOUS
 62
   251
  5
153
 10
426.000004
 20
52.540345
 30
0.0
 11
470.000019
 21
52.540345
 31
0.0
  0
LINE
  8
LY_1
  6
CONTINUOUS
 62
   251
  5
154
 10
426.000004
 20
61.286743
 30
0.0
 11
470.000019
 21
61.286743
 31
0.0
  0
LINE
  8
LY_1
  6
CONTINUOUS
 62
   251
  5
155
 10
426.000004
 20
74.942169
 30
0.0
 11
470.000019
 21
74.942169
 31
0.0
  0
LINE
  8
LY_1
  6
CONTINUOUS
 62
   251
  5
156
 10
470.000082
 20
117.50008
 30
0.0
 11
474.000095
 21
113.500067
 31
0.0
  0
LINE
  8
LY_1
  6
CONTINUOUS
 62
   251
  5
157
 10
422.00001
 20
113.499995
 30
0.0
 11
426.000017
 21
117.499986
 31
0.0
  0
LINE
  8
LY_1
  6
CONTINUOUS
 62
   251
  5
158
 10
426.000023
 20
117.5
 30
0.0
 11
470.000019
 21
117.5
 31
0.0
  0
LINE
  8
LY_1
  6
CONTINUOUS
 62
   251
  5
159
 10
513.999996
 20
-44.772081
 30
0.0
 11
588.999996
 21
-44.772081
 31
0.0
  0
LINE
  8
LY_1
  6
CONTINUOUS
 62
   251
  5
15A
 10
508.999996
 20
-61.871843
 30
0.0
 11
593.999996
 21
-61.871843
 31
0.0
  0
LINE
  8
LY_1
  6
CONTINUOUS
 62
   251
  5
15B
 10
508.999996
 20
-54.800777
 30
0.0
 11
593.999996
 21
-54.800777
 31
0.0
  0
LINE
  8
LY_1
  6
CONTINUOUS
 62
   251
  5
15C
 10
508.999996
 20
54.800775
 30
0.0
 11
508.999996
 21
-54.800777
 31
0.0
  0
LINE
  8
LY_1
  6
CONTINUOUS
 62
   251
  5
15D
 10
513.999996
 20
44.772074
 30
0.0
 11
588.999996
 21
44.772074
 31
0.0
  0
LINE
  8
LY_1
  6
CONTINUOUS
 62
   251
  5
15E
 10
508.999996
 20
61.871843
 30
0.0
 11
593.999996
 21
61.871843
 31
0.0
  0
LINE
  8
LY_1
  6
CONTINUOUS
 62
   251
  5
15F
 10
508.999996
 20
54.800775
 30
0.0
 11
593.999996
 21
54.800775
 31
0.0
  0
LINE
  8
LY_1
  6
CONTINUOUS
 62
   251
  5
160
 10
496.999989
 20
-82.50001
 30
0.0
 11
503.999996
 21
-82.50001
 31
0.0
  0
LINE
  8
LY_1
  6
CONTINUOUS
 62
   251
  5
161
 10
508.999996
 20
-77.5
 30
0.0
 11
508.999996
 21
-61.871843
 31
0.0
  0
LINE
  8
LY_1
  6
CONTINUOUS
 62
   251
  5
162
 10
513.999996
 20
-68.500004
 30
0.0
 11
588.999996
 21
-68.500004
 31
0.0
  0
LINE
  8
LY_1
  6
CONTINUOUS
 62
   251
  5
163
 10
593.999996
 20
-88.000002
 30
0.0
 11
611.999989
 21
-88.000002
 31
0.0
  0
LINE
  8
LY_1
  6
CONTINUOUS
 62
   251
  5
164
 10
508.999996
 20
77.499998
 30
0.0
 11
508.999996
 21
61.871843
 31
0.0
  0
LINE
  8
LY_1
  6
CONTINUOUS
 62
   251
  5
165
 10
593.999996
 20
87.999998
 30
0.0
 11
611.999989
 21
87.999998
 31
0.0
  0
LINE
  8
LY_1
  6
CONTINUOUS
 62
   251
  5
166
 10
491.999989
 20
104.225399
 30
0.0
 11
491.999989
 21
-111.988668
 31
0.0
  0
LINE
  8
LY_1
  6
CONTINUOUS
 62
   251
  5
167
 10
593.999996
 20
87.999998
 30
0.0
 11
593.999996
 21
-88.000002
 31
0.0
  0
LINE
  8
LY_1
  6
CONTINUOUS
 62
   251
  5
168
 10
611.999989
 20
87.999998
 30
0.0
 11
611.999989
 21
-88.000002
 31
0.0
  0
LINE
  8
LY_1
  6
CENTER
 62
     7
  5
169
 10
382.049427
 20
-65.000153
 30
0.0
 11
398.248711
 21
-65.000153
 31
0.0
  0
LINE
  8
LY_1
  6
CONTINUOUS
 62
   251
  5
16A
 10
250.0
 20
-8.000031
 30
0.0
 11
316.999989
 21
-8.000031
 31
0.0
  0
LINE
  8
LY_1
  6
CONTINUOUS
 62
   251
  5
16B
 10
250.0
 20
7.999878
 30
0.0
 11
316.999989
 21
7.999878
 31
0.0
  0
LINE
  8
LY_1
  6
CONTINUOUS
 62
   251
  5
16C
 10
503.694153
 20
-114.000082
 30
0.0
 11
544.999943
 21
-114.000082
 31
0.0
  0
LINE
  8
LY_1
  6
CONTINUOUS
 62
   251
  5
16D
 10
335.999997
 20
-54.999998
 30
0.0
 11
347.999997
 21
-87.499996
 31
0.0
  0
LINE
  8
LY_1
  6
CONTINUOUS
 62
   251
  5
16E
 10
348.000036
 20
87.499872
 30
0.0
 11
336.000049
 21
54.999876
 31
0.0
  0
LINE
  8
LY_1
  6
CONTINUOUS
 62
   251
  5
16F
 10
421.999985
 20
-33.731825
 30
0.0
 11
476.493967
 21
-101.026291
 31
0.0
  0
LINE
  8
LY_1
  6
CONTINUOUS
 62
   251
  5
170
 10
396.364076
 20
0.000142
 30
0.0
 11
390.000117
 21
6.3641
 31
0.0
  0
LINE
  8
LY_1
  6
CONTINUOUS
 62
   251
  5
171
 10
389.99981
 20
-6.36381
 30
0.0
 11
396.363779
 21
0.000158
 31
0.0
  0
LINE
  8
LY_1
  6
CONTINUOUS
 62
   251
  5
172
 10
383.636156
 20
0.000067
 30
0.0
 11
390.000182
 21
-6.363958
 31
0.0
  0
LINE
  8
LY_1
  6
CONTINUOUS
 62
   251
  5
173
 10
389.999847
 20
6.364046
 30
0.0
 11
383.635876
 21
0.000074
 31
0.0
  0
LINE
  8
LY_1
  6
CONTINUOUS
 62
   251
  5
174
 10
345.0
 20
-114.000082
 30
0.0
 11
398.999996
 21
-114.000082
 31
0.0
  0
LINE
  8
LY_1
  6
DASHED
 62
     7
  5
175
 10
529.499989
 20
-114.000082
 30
0.0
 11
529.499989
 21
-140.000162
 31
0.0
  0
LINE
  8
LY_1
  6
DASHED
 62
     7
  5
176
 10
510.499973
 20
-114.000082
 30
0.0
 11
510.499973
 21
-140.000162
 31
0.0
  0
LINE
  8
LY_1
  6
DASHED
 62
     7
  5
177
 10
379.499989
 20
-114.000082
 30
0.0
 11
379.499989
 21
-140.000162
 31
0.0
  0
LINE
  8
LY_1
  6
DASHED
 62
     7
  5
178
 10
360.499992
 20
-114.000082
 30
0.0
 11
360.499992
 21
-140.000162
 31
0.0
  0
LINE
  8
LY_1
  6
CONTINUOUS
 62
   251
  5
179
 10
330.0
 20
32.5
 30
0.0
 11
330.0
 21
-32.5
 31
0.0
  0
LINE
  8
LY_1
  6
CONTINUOUS
 62
   251
  5
17A
 10
330.0
 20
-32.5
 30
0.0
 11
336.000004
 21
-32.5
 31
0.0
  0
LINE
  8
LY_1
  6
CONTINUOUS
 62
   251
  5
17B
 10
330.0
 20
32.5
 30
0.0
 11
336.000004
 21
32.5
 31
0.0
  0
LINE
  8
LY_1
  6
CONTINUOUS
 62
   251
  5
17C
 10
250.0
 20
-27.5
 30
0.0
 11
330.0
 21
-27.5
 31
0.0
  0
LINE
  8
LY_1
  6
CONTINUOUS
 62
   251
  5
17D
 10
250.0
 20
27.5
 30
0.0
 11
330.0
 21
27.5
 31
0.0
  0
LINE
  8
LY_1
  6
CONTINUOUS
 62
   251
  5
17E
 10
250.0
 20
27.5
 30
0.0
 11
250.0
 21
-27.5
 31
0.0
  0
LINE
  8
LY_1
  6
CENTER
 62
     7
  5
17F
 10
519.999981
 20
-108.547506
 30
0.0
 11
519.999981
 21
-146.033182
 31
0.0
  0
LINE
  8
LY_1
  6
CENTER
 62
     7
  5
180
 10
370.0
 20
-108.012075
 30
0.0
 11
370.0
 21
-146.033182
 31
0.0
  0
LINE
  8
LY_1
  6
CONTINUOUS
 62
   251
  5
181
 10
422.000008
 20
115.0
 30
0.0
 11
422.000008
 21
-33.731689
 31
0.0
  0
LINE
  8
LY_1
  6
CONTINUOUS
 62
   251
  5
182
 10
403.999996
 20
115.0
 30
0.0
 11
422.000008
 21
115.0
 31
0.0
  0
LINE
  8
LY_1
  6
CONTINUOUS
 62
   251
  5
183
 10
403.999996
 20
115.0
 30
0.0
 11
403.999996
 21
-109.000082
 31
0.0
  0
LINE
  8
LY_1
  6
CONTINUOUS
 62
   251
  5
184
 10
379.999973
 20
87.500354
 30
0.0
 11
399.261679
 21
88.509817
 31
0.0
  0
LINE
  8
LY_1
  6
CONTINUOUS
 62
   251
  5
185
 10
347.999992
 20
87.5
 30
0.0
 11
379.999943
 21
87.5
 31
0.0
  0
LINE
  8
LY_1
  6
CONTINUOUS
 62
   251
  5
186
 10
360.0
 20
87.5
 30
0.0
 11
360.0
 21
-87.500143
 31
0.0
  0
LINE
  8
LY_1
  6
CONTINUOUS
 62
   251
  5
187
 10
347.999992
 20
-87.500143
 30
0.0
 11
367.31842
 21
-87.500143
 31
0.0
  0
LINE
  8
LY_1
  6
CONTINUOUS
 62
   251
  5
188
 10
347.999992
 20
87.5
 30
0.0
 11
347.999992
 21
-87.500143
 31
0.0
  0
LINE
  8
LY_1
  6
CONTINUOUS
 62
   251
  5
189
 10
336.000004
 20
54.999845
 30
0.0
 11
336.000004
 21
-55.0
 31
0.0
  0
LINE
  8
LY_1
  6
CENTER
 62
     7
  5
18A
 10
390.0
 20
-57.329865
 30
0.0
 11
390.0
 21
-73.324127
 31
0.0
  0
LINE
  8
LY_1
  6
CONTINUOUS
 62
   251
  5
18B
 10
375.0
 20
-40.443726
 30
0.0
 11
375.0
 21
-75.000153
 31
0.0
  0
LINE
  8
LY_1
  6
CENTER
 62
     7
  5
18C
 10
390.0
 20
10.0
 30
0.0
 11
390.0
 21
-10.0
 31
0.0
  0
LINE
  8
LY_1
  6
CONTINUOUS
 62
   251
  5
18D
 10
365.399492
 20
-109.435841
 30
0.0
 11
370.071257
 21
-56.037358
 31
0.0
  0
LINE
  8
LY_1
  6
CONTINUOUS
 62
   251
  5
18E
 10
380.0
 20
-80.000143
 30
0.0
 11
397.401066
 21
-80.000143
 31
0.0
  0
LINE
  8
LY_1
  6
CONTINUOUS
 62
   251
  5
18F
 10
544.999943
 20
-114.000082
 30
0.0
 11
544.999943
 21
-140.000162
 31
0.0
  0
LINE
  8
LY_1
  6
CONTINUOUS
 62
   251
  5
190
 10
345.0
 20
-114.000082
 30
0.0
 11
345.0
 21
-140.000162
 31
0.0
  0
LINE
  8
LY_1
  6
CONTINUOUS
 62
   251
  5
191
 10
345.0
 20
-140.000162
 30
0.0
 11
544.999943
 21
-140.000162
 31
0.0
  0
LINE
  8
LY_1
  6
CENTER
 62
     7
  5
192
 10
235.0
 20
0.0
 30
0.0
 11
835.587071
 21
0.0
 31
0.0
  0
ENDSEC
  0
EOF
