  0
SECTION
  2
HEADER
  9
$ACADVER
  1
AC1009
  9
$DWGCODEPAGE
  3
dos932
  9
$INSBASE
 10
0.0
 20
0.0
 30
0.0
  9
$EXTMIN
 10
-137.500007
 20
-152.000132
 30
0.0
  9
$EXTMAX
 10
753.796594
 20
165.917664
 30
0.0
  9
$LIMMIN
 10
-137.500007
 20
-152.000132
  9
$LIMMAX
 10
753.796594
 20
165.917664
  9
$ORTHOMODE
 70
     0
  9
$REGENMODE
 70
     1
  9
$FILLMODE
 70
     1
  9
$QTEXTMODE
 70
     0
  9
$MIRRTEXT
 70
     1
  9
$DRAGMODE
 70
     2
  9
$LTSCALE
 40
1.0
  9
$OSMODE
 70
     0
  9
$ATTMODE
 70
     1
  9
$TEXTSIZE
 40
3.15
  9
$TRACEWID
 40
0.05
  9
$TEXTSTYLE
  7
MX_NOTE_STANDARD
  9
$CLAYER
  8
LY_1
  9
$CELTYPE
  6
CONTINUOUS
  9
$CECOLOR
 62
   256
  9
$DIMSCALE
 40
1.0
  9
$DIMASZ
 40
2.5
  9
$DIMEXO
 40
1.0
  9
$DIMDLI
 40
3.75
  9
$DIMRND
 40
0.0
  9
$DIMDLE
 40
0.0
  9
$DIMEXE
 40
1.5
  9
$DIMTP
 40
0.0
  9
$DIMTM
 40
0.0
  9
$DIMTXT
 40
3.15
  9
$DIMCEN
 40
2.5
  9
$DIMTSZ
 40
0.0
  9
$DIMTOL
 70
     0
  9
$DIMLIM
 70
     0
  9
$DIMTIH
 70
     0
  9
$DIMTOH
 70
     0
  9
$DIMSE1
 70
     0
  9
$DIMSE2
 70
     0
  9
$DIMTAD
 70
     1
  9
$DIMZIN
 70
     8
  9
$DIMBLK
  1

  9
$DIMASO
 70
     1
  9
$DIMSHO
 70
     1
  9
$DIMPOST
  1

  9
$DIMAPOST
  1

  9
$DIMALT
 70
     0
  9
$DIMALTD
 70
     4
  9
$DIMALTF
 40
0.03937
  9
$DIMLFAC
 40
1.0
  9
$DIMTOFL
 70
     1
  9
$DIMTVP
 40
0.0
  9
$DIMTIX
 70
     0
  9
$DIMSOXD
 70
     0
  9
$DIMSAH
 70
     0
  9
$DIMBLK1
  1

  9
$DIMBLK2
  1

  9
$DIMSTYLE
  2
MXDIMSTYLE
  9
$DIMCLRD
 70
     0
  9
$DIMCLRE
 70
     0
  9
$DIMCLRT
 70
     0
  9
$DIMTFAC
 40
1.0
  9
$DIMGAP
 40
1.0
  9
$LUNITS
 70
     2
  9
$LUPREC
 70
     4
  9
$AXISMODE
 70
     0
  9
$AXISUNIT
 10
0.0
 20
0.0
  9
$SKETCHINC
 40
0.1
  9
$FILLETRAD
 40
0.0
  9
$AUNITS
 70
     0
  9
$AUPREC
 70
     0
  9
$MENU
  1
acad
  9
$ELEVATION
 40
0.0
  9
$PELEVATION
 40
0.0
  9
$THICKNESS
 40
0.0
  9
$LIMCHECK
 70
     0
  9
$BLIPMODE
 70
     1
  9
$CHAMFERA
 40
0.0
  9
$CHAMFERB
 40
0.0
  9
$SKPOLY
 70
     0
  9
$TDCREATE
 40
2453665.670162037
  9
$TDUPDATE
 40
2453665.670162037
  9
$TDINDWG
 40
0.0000000000
  9
$TDUSRTIMER
 40
0.0000000000
  9
$USRTIMER
 70
     1
  9
$ANGBASE
 50
0.0
  9
$ANGDIR
 70
     0
  9
$PDMODE
 70
     0
  9
$PDSIZE
 40
0.0
  9
$PLINEWID
 40
0.0
  9
$COORDS
 70
     1
  9
$SPLFRAME
 70
     0
  9
$SPLINETYPE
 70
     6
  9
$SPLINESEGS
 70
     8
  9
$ATTDIA
 70
     0
  9
$ATTREQ
 70
     1
  9
$HANDLING
 70
     1
  9
$HANDSEED
  5
16A
  9
$SURFTAB1
 70
     6
  9
$SURFTAB2
 70
     6
  9
$SURFTYPE
 70
     6
  9
$SURFU
 70
     6
  9
$SURFV
 70
     6
  9
$UCSNAME
  2

  9
$UCSORG
 10
0.0
 20
0.0
 30
0.0
  9
$UCSXDIR
 10
1.0
 20
0.0
 30
0.0
  9
$UCSYDIR
 10
0.0
 20
1.0
 30
0.0
  9
$PUCSNAME
  2

  9
$PUCSORG
 10
0.0
 20
0.0
 30
0.0
  9
$PUCSXDIR
 10
1.0
 20
0.0
 30
0.0
  9
$PUCSYDIR
 10
0.0
 20
1.0
 30
0.0
  9
$USERI1
 70
     0
  9
$USERI2
 70
     0
  9
$USERI3
 70
     0
  9
$USERI4
 70
     0
  9
$USERI5
 70
     0
  9
$USERR1
 40
0.0
  9
$USERR2
 40
0.0
  9
$USERR3
 40
0.0
  9
$USERR4
 40
0.0
  9
$USERR5
 40
0.0
  9
$WORLDVIEW
 70
     1
  9
$SHADEDGE
 70
     3
  9
$SHADEDIF
 70
    70
  9
$TILEMODE
 70
     1
  9
$MAXACTVP
 70
    16
  9
$PINSBASE
 10
0.0
 20
0.0
 30
0.0
  9
$PLIMCHECK
 70
     0
  9
$PEXTMIN
 10
1.000000E+20
 20
1.000000E+20
 30
1.000000E+20
  9
$PEXTMAX
 10
-1.000000E+20
 20
-1.000000E+20
 30
-1.000000E+20
  9
$PLIMMIN
 10
0.0
 20
0.0
  9
$PLIMMAX
 10
12.0
 20
9.0
  9
$UNITMODE
 70
     0
  9
$VISRETAIN
 70
     0
  9
$PLINEGEN
 70
     1
  9
$PSLTSCALE
 70
     0
  9
$TREEDEPTH
 70
  3020
  9
$DWGCODEPAGE
  3
dos932
  0
ENDSEC
  0
SECTION
  2
TABLES
  0
TABLE
  2
VPORT
 70
     1
  0
VPORT
  2
*ACTIVE
 70
     0
 10
0.0
 20
0.0
 11
1.0
 21
1.0
 12
308.148294
 22
6.958766
 13
0.0
 23
0.0
 14
1.0
 24
1.0
 15
0.0
 25
0.0
 16
0.0
 26
0.0
 36
1.0
 17
0.0
 27
0.0
 37
0.0
 40
321.096973
 41
1.732051
 42
50.0
 43
0.0
 44
0.0
 50
0.0
 51
0.0
 71
     0
 72
   100
 73
     1
 74
     1
 75
     0
 76
     0
 77
     0
 78
     0
  0
ENDTAB
  0
TABLE
  2
LTYPE
 70
     3
  0
LTYPE
  2
CONTINUOUS
 70
    64
  3
Solid line
 72
    65
 73
     0
 40
0.0
  0
LTYPE
  2
CENTER
 70
    64
  3
Center ____ _ ____ _ ____ _ ____ _ ____ _ ____
 72
    65
 73
     4
 40
50.8
 49
31.75
 49
-6.35
 49
6.35
 49
-6.35
  0
LTYPE
  2
DASHED
 70
    64
  3
Dashed __ __ __ __ __ __ __ __ __ __ __ __ __ _
 72
    65
 73
     2
 40
19.05
 49
12.7
 49
-6.35
  0
ENDTAB
  0
TABLE
  2
LAYER
 70
     3
  0
LAYER
  2
0
 70
     0
 62
     7
  6
CONTINUOUS
  0
LAYER
  2
LY_1
 70
     0
 62
     7
  6
CONTINUOUS
  0
LAYER
  2
DEFPOINTS
 70
     0
 62
     7
  6
CONTINUOUS
  0
ENDTAB
  0
TABLE
  2
STYLE
 70
     1
  0
STYLE
  2
MX_NOTE_STANDARD
 70
     0
 40
0.0
 41
1.0
 50
0.0
 71
     0
 42
3.15
  3
txt.shx
  4
extfont.shx
  0
ENDTAB
  0
TABLE
  2
VIEW
 70
     0
  0
ENDTAB
  0
TABLE
  2
UCS
 70
     0
  0
ENDTAB
  0
TABLE
  2
APPID
 70
     1
  0
APPID
  2
ACAD
 70
     0
  0
ENDTAB
  0
TABLE
  2
DIMSTYLE
 70
     1
  0
DIMSTYLE
  2
MXDIMSTYLE
 70
     0
  3

  4

  5

  6

  7

 40
1.0
 41
2.5
 42
1.0
 43
3.75
 44
1.5
 45
0.0
 46
0.0
 47
0.0
 48
0.0
 71
     0
 72
     0
 73
     0
 74
     0
 75
     0
 76
     0
 77
     1
 78
     8
140
3.15
141
2.5
142
0.0
143
0.03937
144
1.0
145
0.0
146
1.0
147
1.0
170
     0
171
     4
172
     1
173
     0
174
     0
175
     0
176
     0
177
     0
178
     0
  0
ENDTAB
  0
ENDSEC
  0
SECTION
  2
BLOCKS
  0
ENDSEC
  0
SECTION
  2
ENTITIES
  0
LINE
  8
LY_1
  6
CONTINUOUS
 62
   251
  5
1F
 10
687.900058
 20
92.0001
 30
0.0
 11
687.900058
 21
110.0001
 31
0.0
  0
LINE
  8
LY_1
  6
CONTINUOUS
 62
   251
  5
20
 10
687.900088
 20
110.00013
 30
0.0
 11
686.900088
 21
111.00013
 31
0.0
  0
LINE
  8
LY_1
  6
CONTINUOUS
 62
   251
  5
21
 10
686.900058
 20
111.0001
 30
0.0
 11
654.100068
 21
111.0001
 31
0.0
  0
LINE
  8
LY_1
  6
CONTINUOUS
 62
   251
  5
22
 10
654.100128
 20
111.0001
 30
0.0
 11
653.100128
 21
110.0001
 31
0.0
  0
LINE
  8
LY_1
  6
CONTINUOUS
 62
   251
  5
23
 10
653.100068
 20
110.0001
 30
0.0
 11
653.100068
 21
92.0001
 31
0.0
  0
LINE
  8
LY_1
  6
CONTINUOUS
 62
   251
  5
24
 10
653.100068
 20
92.0001
 30
0.0
 11
653.100068
 21
95.0001
 31
0.0
  0
LINE
  8
LY_1
  6
CONTINUOUS
 62
   251
  5
25
 10
650.000028
 20
88.20011
 30
0.0
 11
650.000028
 21
92.0001
 31
0.0
  0
LINE
  8
LY_1
  6
CONTINUOUS
 62
   251
  5
26
 10
650.000028
 20
92.0001
 30
0.0
 11
691.000028
 21
92.0001
 31
0.0
  0
LINE
  8
LY_1
  6
CONTINUOUS
 62
   251
  5
27
 10
691.000028
 20
92.0001
 30
0.0
 11
691.000028
 21
88.20011
 31
0.0
  0
LINE
  8
LY_1
  6
CONTINUOUS
 62
   251
  5
28
 10
648.000158
 20
88.19918
 30
0.0
 11
693.000028
 21
88.19918
 31
0.0
  0
LINE
  8
LY_1
  6
CONTINUOUS
 62
   251
  5
29
 10
605.999998
 20
65.0
 30
0.0
 11
605.999998
 21
-65.0
 31
0.0
  0
LINE
  8
LY_1
  6
CONTINUOUS
 62
   251
  5
2A
 10
734.300018
 20
62.19998
 30
0.0
 11
734.300018
 21
80.49998
 31
0.0
  0
LINE
  8
LY_1
  6
CONTINUOUS
 62
   251
  5
2B
 10
734.300048
 20
80.50001
 30
0.0
 11
733.300048
 21
81.50001
 31
0.0
  0
LINE
  8
LY_1
  6
CONTINUOUS
 62
   251
  5
2C
 10
733.300018
 20
81.49998
 30
0.0
 11
705.700048
 21
81.49998
 31
0.0
  0
LINE
  8
LY_1
  6
CONTINUOUS
 62
   251
  5
2D
 10
705.700108
 20
81.5
 30
0.0
 11
704.700108
 21
80.5
 31
0.0
  0
LINE
  8
LY_1
  6
CONTINUOUS
 62
   251
  5
2E
 10
704.700048
 20
80.49998
 30
0.0
 11
704.700048
 21
62.19998
 31
0.0
  0
LINE
  8
LY_1
  6
CENTER
 62
     7
  5
30
 10
719.500028
 20
54.94079
 30
0.0
 11
719.500028
 21
88.24273
 31
0.0
  0
LINE
  8
LY_1
  6
CONTINUOUS
 62
   251
  5
31
 10
693.000028
 20
65.02215
 30
0.0
 11
693.000028
 21
88.20011
 31
0.0
  0
LINE
  8
LY_1
  6
CONTINUOUS
 62
   251
  5
32
 10
609.999998
 20
28.0
 30
0.0
 11
694.991858
 21
28.0
 31
0.0
  0
LINE
  8
LY_1
  6
CONTINUOUS
 62
   251
  5
33
 10
609.999998
 20
25.0
 30
0.0
 11
694.991858
 21
25.0
 31
0.0
  0
LINE
  8
LY_1
  6
CONTINUOUS
 62
   251
  5
34
 10
609.999998
 20
22.0
 30
0.0
 11
694.991858
 21
22.0
 31
0.0
  0
LINE
  8
LY_1
  6
CONTINUOUS
 62
   251
  5
35
 10
609.999998
 20
19.0
 30
0.0
 11
694.991858
 21
19.0
 31
0.0
  0
LINE
  8
LY_1
  6
CONTINUOUS
 62
   251
  5
36
 10
609.999998
 20
-19.0
 30
0.0
 11
694.991858
 21
-19.0
 31
0.0
  0
LINE
  8
LY_1
  6
CONTINUOUS
 62
   251
  5
37
 10
609.999998
 20
-22.0
 30
0.0
 11
694.991858
 21
-22.0
 31
0.0
  0
LINE
  8
LY_1
  6
CONTINUOUS
 62
   251
  5
38
 10
699.500028
 20
-65.0
 30
0.0
 11
699.500028
 21
65.0
 31
0.0
  0
LINE
  8
LY_1
  6
CONTINUOUS
 62
   251
  5
39
 10
700.450048
 20
58.39999
 30
0.0
 11
700.450048
 21
62.19998
 31
0.0
  0
LINE
  8
LY_1
  6
CONTINUOUS
 62
   251
  5
3A
 10
700.450048
 20
62.19998
 30
0.0
 11
738.550048
 21
62.19998
 31
0.0
  0
LINE
  8
LY_1
  6
CONTINUOUS
 62
   251
  5
3B
 10
738.550048
 20
62.19998
 30
0.0
 11
738.550048
 21
58.39999
 31
0.0
  0
LINE
  8
LY_1
  6
CONTINUOUS
 62
   251
  5
3C
 10
739.000058
 20
58.39999
 30
0.0
 11
700.000028
 21
58.39999
 31
0.0
  0
LINE
  8
LY_1
  6
CONTINUOUS
 62
   251
  5
3D
 10
739.000158
 20
34.34738
 30
0.0
 11
712.500028
 21
34.34738
 31
0.0
  0
LINE
  8
LY_1
  6
CONTINUOUS
 62
   251
  5
3E
 10
712.500028
 20
42.5
 30
0.0
 11
605.999998
 21
42.5
 31
0.0
  0
LINE
  8
LY_1
  6
CONTINUOUS
 62
   251
  5
3F
 10
712.500028
 20
27.50344
 30
0.0
 11
699.500028
 21
27.50344
 31
0.0
  0
LINE
  8
LY_1
  6
CONTINUOUS
 62
   251
  5
40
 10
638.000028
 20
65.78405
 30
0.0
 11
638.000028
 21
64.93396
 31
0.0
  0
LINE
  8
LY_1
  6
CONTINUOUS
 62
   251
  5
41
 10
739.000158
 20
-29.99308
 30
0.0
 11
739.000158
 21
58.39999
 31
0.0
  0
LINE
  8
LY_1
  6
CONTINUOUS
 62
   251
  5
42
 10
712.500058
 20
-40.00004
 30
0.0
 11
736.855958
 21
-39.18433
 31
0.0
  0
LINE
  8
LY_1
  6
CONTINUOUS
 62
   251
  5
43
 10
695.000028
 20
-65.0
 30
0.0
 11
695.000028
 21
65.0
 31
0.0
  0
LINE
  8
LY_1
  6
CONTINUOUS
 62
   251
  5
44
 10
609.999998
 20
-25.0
 30
0.0
 11
694.991858
 21
-25.0
 31
0.0
  0
LINE
  8
LY_1
  6
CONTINUOUS
 62
   251
  5
45
 10
609.999998
 20
-28.0
 30
0.0
 11
694.991858
 21
-28.0
 31
0.0
  0
LINE
  8
LY_1
  6
CONTINUOUS
 62
   251
  5
46
 10
699.500028
 20
-27.5037
 30
0.0
 11
712.500028
 21
-27.5037
 31
0.0
  0
LINE
  8
LY_1
  6
CONTINUOUS
 62
   251
  5
47
 10
712.500028
 20
-42.5
 30
0.0
 11
712.500028
 21
42.5
 31
0.0
  0
LINE
  8
LY_1
  6
CONTINUOUS
 62
   251
  5
48
 10
706.500028
 20
42.5
 30
0.0
 11
706.500028
 21
-42.5
 31
0.0
  0
LINE
  8
LY_1
  6
CONTINUOUS
 62
   251
  5
49
 10
712.500028
 20
-42.5
 30
0.0
 11
605.999998
 21
-42.5
 31
0.0
  0
LINE
  8
LY_1
  6
CONTINUOUS
 62
   251
  5
4A
 10
609.999998
 20
-65.0
 30
0.0
 11
609.999998
 21
65.0
 31
0.0
  0
LINE
  8
LY_1
  6
CONTINUOUS
 62
   251
  5
4B
 10
700.000028
 20
42.5
 30
0.0
 11
700.000028
 21
58.39999
 31
0.0
  0
LINE
  8
LY_1
  6
CENTER
 62
     7
  5
4C
 10
670.500028
 20
117.94021
 30
0.0
 11
670.500028
 21
81.06565
 31
0.0
  0
ARC
  8
LY_1
  6
CONTINUOUS
 62
   251
  5
4D
 10
736.820898
 20
-38.18476
 30
0.0
 40
1.00016
 50
272.007395
 51
343.59498
  0
ARC
  8
LY_1
  6
CONTINUOUS
 62
   251
  5
4E
 10
708.952088
 20
-29.99308
 30
0.0
 40
30.047937
 50
343.61918
 51
359.98682
  0
ARC
  8
LY_1
  6
CONTINUOUS
 62
   251
  5
4F
 10
696.635958
 20
53.06289
 30
0.0
 40
60.0
 50
144.15427
 51
167.75929
  0
LINE
  8
LY_1
  6
CONTINUOUS
 62
   251
  5
50
 10
605.999998
 20
-50.806
 30
0.0
 11
593.999998
 21
-50.806
 31
0.0
  0
LINE
  8
LY_1
  6
CONTINUOUS
 62
   251
  5
51
 10
593.999998
 20
65.0
 30
0.0
 11
699.500028
 21
65.0
 31
0.0
  0
LINE
  8
LY_1
  6
CONTINUOUS
 62
   251
  5
52
 10
699.500028
 20
-65.0
 30
0.0
 11
593.999998
 21
-65.0
 31
0.0
  0
LINE
  8
LY_1
  6
CONTINUOUS
 62
   251
  5
53
 10
605.999998
 20
50.80599
 30
0.0
 11
593.999998
 21
50.80599
 31
0.0
  0
ARC
  8
LY_1
  6
CONTINUOUS
 62
   251
  5
54
 10
580.999998
 20
-63.000001
 30
0.0
 40
2.0
 50
180.0
 51
270.0
  0
ARC
  8
LY_1
  6
CONTINUOUS
 62
   251
  5
55
 10
541.999997
 20
113.000002
 30
0.0
 40
2.0
 50
0.0
 51
90.0
  0
ARC
  8
LY_1
  6
CONTINUOUS
 62
   251
  5
56
 10
548.999997
 20
62.500001
 30
0.0
 40
5.0
 50
180.0
 51
270.0
  0
ARC
  8
LY_1
  6
CONTINUOUS
 62
   251
  5
57
 10
573.999998
 20
41.969098
 30
0.0
 40
5.0
 50
269.999997
 51
0.0
  0
ARC
  8
LY_1
  6
CONTINUOUS
 62
   251
  5
58
 10
513.999997
 20
41.969098
 30
0.0
 40
5.0
 50
179.999995
 51
269.999997
  0
ARC
  8
LY_1
  6
CONTINUOUS
 62
   251
  5
59
 10
513.999997
 20
-62.500001
 30
0.0
 40
5.0
 50
90.000003
 51
180.000005
  0
ARC
  8
LY_1
  6
CONTINUOUS
 62
   251
  5
5A
 10
573.999998
 20
-41.969098
 30
0.0
 40
5.0
 50
0.0
 51
90.000003
  0
ARC
  8
LY_1
  6
CONTINUOUS
 62
   251
  5
5B
 10
496.999997
 20
-87.500001
 30
0.0
 40
5.0
 50
90.000003
 51
180.000005
  0
ARC
  8
LY_1
  6
CONTINUOUS
 62
   251
  5
5C
 10
513.999997
 20
-41.969098
 30
0.0
 40
5.0
 50
90.000003
 51
180.000005
  0
ARC
  8
LY_1
  6
CONTINUOUS
 62
   251
  5
5D
 10
503.999997
 20
-77.500001
 30
0.0
 40
5.0
 50
269.999997
 51
0.0
  0
ARC
  8
LY_1
  6
CONTINUOUS
 62
   251
  5
5E
 10
513.999997
 20
62.500001
 30
0.0
 40
5.0
 50
179.999995
 51
269.999997
  0
ARC
  8
LY_1
  6
CONTINUOUS
 62
   251
  5
5F
 10
503.999997
 20
77.500001
 30
0.0
 40
5.0
 50
0.0
 51
90.000003
  0
ARC
  8
LY_1
  6
CONTINUOUS
 62
   251
  5
60
 10
489.999996
 20
113.000002
 30
0.0
 40
2.0
 50
0.0
 51
90.0
  0
ARC
  8
LY_1
  6
CONTINUOUS
 62
   251
  5
61
 10
488.999996
 20
138.500002
 30
0.0
 40
20.5
 50
304.60665
 51
235.393317
  0
ARC
  8
LY_1
  6
CONTINUOUS
 62
   251
  5
62
 10
496.999997
 20
87.500001
 30
0.0
 40
5.0
 50
180.0
 51
270.0
  0
ARC
  8
LY_1
  6
CONTINUOUS
 62
   251
  5
63
 10
580.999998
 20
63.000001
 30
0.0
 40
2.0
 50
90.0
 51
180.0
  0
CIRCLE
  8
LY_1
  6
CONTINUOUS
 62
   251
  5
64
 10
488.999996
 20
138.500002
 30
0.0
 40
12.5
  0
ARC
  8
LY_1
  6
CONTINUOUS
 62
   251
  5
65
 10
481.912484
 20
122.500002
 30
0.0
 40
2.0
 50
89.999982
 51
170.000021
  0
ARC
  8
LY_1
  6
CONTINUOUS
 62
   251
  5
66
 10
496.087509
 20
122.500002
 30
0.0
 40
2.0
 50
10.0
 51
89.999982
  0
ARC
  8
LY_1
  6
CONTINUOUS
 62
   251
  5
67
 10
475.085484
 20
118.334777
 30
0.0
 40
4.0
 50
347.954189
 51
55.393343
  0
ARC
  8
LY_1
  6
CONTINUOUS
 62
   251
  5
68
 10
502.914509
 20
118.334777
 30
0.0
 40
4.0
 50
124.606679
 51
192.045781
  0
CIRCLE
  8
LY_1
  6
CONTINUOUS
 62
   251
  5
69
 10
390.489311
 20
-65.000153
 30
0.0
 40
5.5
  0
CIRCLE
  8
LY_1
  6
CONTINUOUS
 62
   251
  5
6A
 10
390.0
 20
0.0
 30
0.0
 40
6.735938
  0
ARC
  8
LY_1
  6
CONTINUOUS
 62
   251
  5
6B
 10
0.0
 20
0.0
 30
0.0
 40
117.5
 50
26.561084
 51
31.438797
  0
ARC
  8
LY_1
  6
CONTINUOUS
 62
   251
  5
6C
 10
0.0
 20
0.0
 30
0.0
 40
117.5
 50
129.628275
 51
140.371753
  0
ARC
  8
LY_1
  6
CONTINUOUS
 62
   251
  5
6D
 10
0.0
 20
0.0
 30
0.0
 40
117.5
 50
116.561167
 51
121.438878
  0
ARC
  8
LY_1
  6
CONTINUOUS
 62
   251
  5
6E
 10
0.0
 20
0.0
 30
0.0
 40
117.5
 50
103.561159
 51
108.43887
  0
ARC
  8
LY_1
  6
CONTINUOUS
 62
   251
  5
6F
 10
0.0
 20
0.0
 30
0.0
 40
117.5
 50
174.628266
 51
181.581836
  0
ARC
  8
LY_1
  6
CONTINUOUS
 62
   251
  5
70
 10
0.0
 20
0.0
 30
0.0
 40
117.5
 50
161.561158
 51
166.438869
  0
ARC
  8
LY_1
  6
CONTINUOUS
 62
   251
  5
71
 10
0.0
 20
0.0
 30
0.0
 40
117.5
 50
148.56115
 51
153.438861
  0
ARC
  8
LY_1
  6
CONTINUOUS
 62
   251
  5
72
 10
0.0
 20
0.0
 30
0.0
 40
117.5
 50
358.418184
 51
5.371741
  0
ARC
  8
LY_1
  6
CONTINUOUS
 62
   251
  5
73
 10
0.0
 20
0.0
 30
0.0
 40
117.5
 50
39.628372
 51
95.371741
  0
ARC
  8
LY_1
  6
CONTINUOUS
 62
   251
  5
74
 10
0.0
 20
0.0
 30
0.0
 40
117.5
 50
13.561172
 51
18.438903
  0
ARC
  8
LY_1
  6
CONTINUOUS
 62
   251
  5
75
 10
0.0
 20
0.0
 30
0.0
 40
27.5
 50
16.912124
 51
343.087544
  0
ARC
  8
LY_1
  6
CONTINUOUS
 62
   251
  5
76
 10
-7.758789
 20
123.299866
 30
0.0
 40
1.2
 50
100.941911
 51
169.999966
  0
ARC
  8
LY_1
  6
CONTINUOUS
 62
   251
  5
77
 10
-5.199966
 20
119.899902
 30
0.0
 40
1.2
 50
269.999963
 51
0.0
  0
ARC
  8
LY_1
  6
CONTINUOUS
 62
   251
  5
78
 10
5.200043
 20
119.899902
 30
0.0
 40
1.2
 50
179.999978
 51
270.000028
  0
ARC
  8
LY_1
  6
CONTINUOUS
 62
   251
  5
79
 10
0.0
 20
154.999847
 30
0.0
 40
4.0
 50
0.0
 51
179.999964
  0
ARC
  8
LY_1
  6
CONTINUOUS
 62
   251
  5
7A
 10
7.758865
 20
123.299866
 30
0.0
 40
1.2
 50
10.000001
 51
79.058053
  0
ARC
  8
LY_1
  6
CONTINUOUS
 62
   251
  5
7B
 10
59.553146
 20
-85.000153
 30
0.0
 40
5.0
 50
14.999992
 51
90.000003
  0
ARC
  8
LY_1
  6
CONTINUOUS
 62
   251
  5
7C
 10
-59.55307
 20
-85.000153
 30
0.0
 40
5.0
 50
90.000003
 51
164.999994
  0
ARC
  8
LY_1
  6
CENTER
 62
     7
  5
7D
 10
0.0
 20
0.0
 30
0.0
 40
75.0
 50
204.950143
 51
215.413365
  0
ARC
  8
LY_1
  6
CENTER
 62
     7
  5
7E
 10
0.0
 20
0.0
 30
0.0
 40
75.0
 50
264.950138
 51
275.41336
  0
ARC
  8
LY_1
  6
CENTER
 62
     7
  5
7F
 10
0.0
 20
0.0
 30
0.0
 40
75.0
 50
324.95014
 51
335.413358
  0
ARC
  8
LY_1
  6
CENTER
 62
     7
  5
80
 10
0.0
 20
0.0
 30
0.0
 40
75.0
 50
24.95014
 51
35.413359
  0
ARC
  8
LY_1
  6
CENTER
 62
     7
  5
81
 10
0.0
 20
0.0
 30
0.0
 40
75.0
 50
84.950136
 51
95.413358
  0
ARC
  8
LY_1
  6
CENTER
 62
     7
  5
82
 10
0.0
 20
0.0
 30
0.0
 40
75.0
 50
144.950138
 51
155.413359
  0
ARC
  8
LY_1
  6
CENTER
 62
     7
  5
83
 10
0.0
 20
0.0
 30
0.0
 40
105.0
 50
107.946646
 51
117.234719
  0
ARC
  8
LY_1
  6
CENTER
 62
     7
  5
84
 10
0.0
 20
0.0
 30
0.0
 40
105.0
 50
17.946648
 51
27.234724
  0
ARC
  8
LY_1
  6
CENTER
 62
     7
  5
85
 10
0.0
 20
0.0
 30
0.0
 40
105.0
 50
332.946649
 51
342.234724
  0
ARC
  8
LY_1
  6
CENTER
 62
     7
  5
86
 10
0.0
 20
0.0
 30
0.0
 40
105.0
 50
287.946647
 51
297.234721
  0
ARC
  8
LY_1
  6
CENTER
 62
     7
  5
87
 10
0.0
 20
0.0
 30
0.0
 40
105.0
 50
242.94665
 51
252.234723
  0
ARC
  8
LY_1
  6
CENTER
 62
     7
  5
88
 10
0.0
 20
0.0
 30
0.0
 40
105.0
 50
197.946645
 51
207.234719
  0
ARC
  8
LY_1
  6
CENTER
 62
     7
  5
89
 10
0.0
 20
0.0
 30
0.0
 40
105.0
 50
152.94665
 51
162.234724
  0
ARC
  8
LY_1
  6
CENTER
 62
     7
  5
8A
 10
0.0
 20
0.0
 30
0.0
 40
105.0
 50
62.946648
 51
72.234721
  0
ARC
  8
LY_1
  6
CONTINUOUS
 62
   251
  5
8B
 10
316.999989
 20
0.0
 30
0.0
 40
8.0
 50
269.999997
 51
90.000003
  0
ARC
  8
LY_1
  6
CONTINUOUS
 62
   251
  5
8C
 10
-64.951859
 20
-37.5
 30
0.0
 40
13.0
 50
285.541137
 51
134.45894
  0
CIRCLE
  8
LY_1
  6
CONTINUOUS
 62
   251
  5
8D
 10
0.0
 20
0.0
 30
0.0
 40
55.0
  0
ARC
  8
LY_1
  6
CONTINUOUS
 62
   251
  5
8E
 10
0.0
 20
-75.000153
 30
0.0
 40
13.0
 50
345.540978
 51
194.458983
  0
ARC
  8
LY_1
  6
CONTINUOUS
 62
   251
  5
8F
 10
64.951935
 20
-37.5
 30
0.0
 40
13.0
 50
45.541075
 51
254.458834
  0
ARC
  8
LY_1
  6
CONTINUOUS
 62
   251
  5
90
 10
64.951935
 20
37.499999
 30
0.0
 40
13.0
 50
105.541169
 51
314.458904
  0
ARC
  8
LY_1
  6
CONTINUOUS
 62
   251
  5
91
 10
0.0
 20
75.0
 30
0.0
 40
13.0
 50
165.541014
 51
14.459029
  0
ARC
  8
LY_1
  6
CONTINUOUS
 62
   251
  5
92
 10
-64.951859
 20
37.499999
 30
0.0
 40
13.0
 50
225.54106
 51
74.45885
  0
CIRCLE
  8
LY_1
  6
CONTINUOUS
 62
   251
  5
93
 10
0.0
 20
0.0
 30
0.0
 40
87.5
  0
ARC
  8
LY_1
  6
CONTINUOUS
 62
   251
  5
94
 10
90.336685
 20
-109.000082
 30
0.0
 40
5.0
 50
194.999951
 51
270.000018
  0
ARC
  8
LY_1
  6
CONTINUOUS
 62
   251
  5
95
 10
-90.336456
 20
-109.000082
 30
0.0
 40
5.0
 50
270.000018
 51
344.999938
  0
ARC
  8
LY_1
  6
CONTINUOUS
 62
   251
  5
96
 10
75.463638
 20
-53.493042
 30
0.0
 40
5.0
 50
144.668734
 51
194.999934
  0
ARC
  8
LY_1
  6
CONTINUOUS
 62
   251
  5
97
 10
56.418762
 20
-73.302155
 30
0.0
 40
5.0
 50
15.000146
 51
127.584724
  0
ARC
  8
LY_1
  6
CONTINUOUS
 62
   251
  5
98
 10
-75.463486
 20
-53.493042
 30
0.0
 40
5.0
 50
345.000035
 51
35.331428
  0
ARC
  8
LY_1
  6
CONTINUOUS
 62
   251
  5
99
 10
-56.418533
 20
-73.302155
 30
0.0
 40
5.0
 50
52.415288
 51
164.999871
  0
ARC
  8
LY_1
  6
CONTINUOUS
 62
   251
  5
9A
 10
-69.499969
 20
-140.000162
 30
0.0
 40
3.0
 50
89.999982
 51
179.999964
  0
ARC
  8
LY_1
  6
CONTINUOUS
 62
   251
  5
9B
 10
69.500046
 20
-140.000162
 30
0.0
 40
3.0
 50
0.0
 51
89.999982
  0
ARC
  8
LY_1
  6
CONTINUOUS
 62
   251
  5
9C
 10
0.0
 20
0.0
 30
0.0
 40
115.0
 50
10.258394
 51
169.741621
  0
ARC
  8
LY_1
  6
CONTINUOUS
 62
   251
  5
9D
 10
398.999996
 20
-109.000082
 30
0.0
 40
5.0
 50
269.999997
 51
0.0
  0
ARC
  8
LY_1
  6
CONTINUOUS
 62
   251
  5
9E
 10
503.694172
 20
-79.000092
 30
0.0
 40
35.0
 50
219.000006
 51
269.999997
  0
ARC
  8
LY_1
  6
CONTINUOUS
 62
   251
  5
9F
 10
360.418339
 20
-109.000082
 30
0.0
 40
5.0
 50
269.999997
 51
354.999997
  0
ARC
  8
LY_1
  6
CONTINUOUS
 62
   251
  5
A0
 10
365.090084
 20
-55.601501
 30
0.0
 40
5.0
 50
355.000048
 51
89.999982
  0
ARC
  8
LY_1
  6
CONTINUOUS
 62
   251
  5
A1
 10
398.999996
 20
93.502502
 30
0.0
 40
5.0
 50
273.00009
 51
0.0
  0
ARC
  8
LY_1
  6
CONTINUOUS
 62
   251
  5
A2
 10
370.0
 20
-40.443726
 30
0.0
 40
5.0
 50
0.0
 51
89.999982
  0
ARC
  8
LY_1
  6
CONTINUOUS
 62
   251
  5
A3
 10
380.0
 20
-75.000153
 30
0.0
 40
5.0
 50
179.999978
 51
270.000028
  0
LINE
  8
LY_1
  6
CONTINUOUS
 62
   251
  5
A4
 10
-3.999939
 20
129.649869
 30
0.0
 11
-8.070999
 21
129.649869
 31
0.0
  0
LINE
  8
LY_1
  6
CENTER
 62
     7
  5
A5
 10
525.999997
 20
133.105138
 30
0.0
 11
525.999997
 21
104.853391
 31
0.0
  0
LINE
  8
LY_1
  6
CONTINUOUS
 62
   251
  5
A6
 10
593.999998
 20
-64.500001
 30
0.0
 11
593.499998
 21
-65.000001
 31
0.0
  0
LINE
  8
LY_1
  6
CONTINUOUS
 62
   251
  5
A7
 10
593.499998
 20
65.000001
 30
0.0
 11
593.999998
 21
64.500001
 31
0.0
  0
LINE
  8
LY_1
  6
CONTINUOUS
 62
   251
  5
A8
 10
543.999997
 20
113.000002
 30
0.0
 11
543.999997
 21
62.500001
 31
0.0
  0
LINE
  8
LY_1
  6
CONTINUOUS
 62
   251
  5
A9
 10
508.999997
 20
-42.644818
 30
0.0
 11
578.999998
 21
-42.644818
 31
0.0
  0
LINE
  8
LY_1
  6
CONTINUOUS
 62
   251
  5
AA
 10
508.999997
 20
-49.715886
 30
0.0
 11
578.999998
 21
-49.715886
 31
0.0
  0
LINE
  8
LY_1
  6
CONTINUOUS
 62
   251
  5
AB
 10
513.999997
 20
-36.969098
 30
0.0
 11
573.999998
 21
-36.969098
 31
0.0
  0
LINE
  8
LY_1
  6
CONTINUOUS
 62
   251
  5
AC
 10
593.999998
 20
64.500001
 30
0.0
 11
593.999998
 21
-64.500001
 31
0.0
  0
LINE
  8
LY_1
  6
CONTINUOUS
 62
   251
  5
AD
 10
513.999997
 20
-57.500001
 30
0.0
 11
578.999998
 21
-57.500001
 31
0.0
  0
LINE
  8
LY_1
  6
CONTINUOUS
 62
   251
  5
AE
 10
580.999998
 20
-65.000001
 30
0.0
 11
593.499998
 21
-65.000001
 31
0.0
  0
LINE
  8
LY_1
  6
CONTINUOUS
 62
   251
  5
AF
 10
508.999997
 20
42.644818
 30
0.0
 11
578.999998
 21
42.644818
 31
0.0
  0
LINE
  8
LY_1
  6
CONTINUOUS
 62
   251
  5
B0
 10
496.999997
 20
-82.500001
 30
0.0
 11
503.999997
 21
-82.500001
 31
0.0
  0
LINE
  8
LY_1
  6
CONTINUOUS
 62
   251
  5
B1
 10
496.999997
 20
82.500001
 30
0.0
 11
503.999997
 21
82.500001
 31
0.0
  0
LINE
  8
LY_1
  6
CONTINUOUS
 62
   251
  5
B2
 10
491.999996
 20
-111.988669
 30
0.0
 11
491.999996
 21
0.0
 31
0.0
  0
LINE
  8
LY_1
  6
CONTINUOUS
 62
   251
  5
B3
 10
508.999997
 20
77.500001
 30
0.0
 11
508.999997
 21
-77.500001
 31
0.0
  0
LINE
  8
LY_1
  6
CONTINUOUS
 62
   251
  5
B4
 10
513.999997
 20
57.500001
 30
0.0
 11
578.999998
 21
57.500001
 31
0.0
  0
LINE
  8
LY_1
  6
CONTINUOUS
 62
   251
  5
B5
 10
513.999997
 20
36.969098
 30
0.0
 11
573.999998
 21
36.969098
 31
0.0
  0
LINE
  8
LY_1
  6
CONTINUOUS
 62
   251
  5
B6
 10
498.199996
 20
117.500002
 30
0.0
 11
498.199996
 21
115.000002
 31
0.0
  0
LINE
  8
LY_1
  6
CENTER
 62
     7
  5
B7
 10
465.516842
 20
138.500002
 30
0.0
 11
511.797543
 21
138.500002
 31
0.0
  0
LINE
  8
LY_1
  6
CONTINUOUS
 62
   251
  5
B8
 10
508.999997
 20
49.715886
 30
0.0
 11
578.999998
 21
49.715886
 31
0.0
  0
LINE
  8
LY_1
  6
CONTINUOUS
 62
     7
  5
B9
 10
534.071066
 20
129.650002
 30
0.0
 11
525.999996
 21
120.650001
 31
0.0
  0
LINE
  8
LY_1
  6
CONTINUOUS
 62
   251
  5
BA
 10
489.414103
 20
125.956661
 30
0.0
 11
496.501615
 21
124.456661
 31
0.0
  0
LINE
  8
LY_1
  6
CONTINUOUS
 62
   251
  5
BB
 10
488.999996
 20
115.000002
 30
0.0
 11
486.499996
 21
117.500002
 31
0.0
  0
LINE
  8
LY_1
  6
CONTINUOUS
 62
   251
  5
BC
 10
488.999996
 20
117.500002
 30
0.0
 11
491.499996
 21
115.000002
 31
0.0
  0
LINE
  8
LY_1
  6
CONTINUOUS
 62
   251
  5
BD
 10
491.999996
 20
113.000002
 30
0.0
 11
491.999996
 21
0.0
 31
0.0
  0
LINE
  8
LY_1
  6
CONTINUOUS
 62
   251
  5
BE
 10
578.999998
 20
63.000001
 30
0.0
 11
578.999998
 21
-63.000001
 31
0.0
  0
LINE
  8
LY_1
  6
CONTINUOUS
 62
   251
  5
BF
 10
478.997408
 20
117.500002
 30
0.0
 11
498.999998
 21
117.500002
 31
0.0
  0
LINE
  8
LY_1
  6
CENTER
 62
     7
  5
C0
 10
488.999996
 20
161.616274
 30
0.0
 11
488.999996
 21
104.557802
 31
0.0
  0
LINE
  8
LY_1
  6
CONTINUOUS
 62
     7
  5
C1
 10
525.999996
 20
129.650001
 30
0.0
 11
534.071066
 21
120.650001
 31
0.0
  0
LINE
  8
LY_1
  6
CONTINUOUS
 62
   251
  5
C2
 10
481.498378
 20
124.456661
 30
0.0
 11
488.58589
 21
125.956661
 31
0.0
  0
LINE
  8
LY_1
  6
CONTINUOUS
 62
   251
  5
C3
 10
481.912484
 20
124.500002
 30
0.0
 11
496.087509
 21
124.500002
 31
0.0
  0
LINE
  8
LY_1
  6
CONTINUOUS
 62
   251
  5
C4
 10
498.057124
 20
122.847298
 30
0.0
 11
498.999997
 21
117.500001
 31
0.0
  0
LINE
  8
LY_1
  6
CONTINUOUS
 62
   251
  5
C5
 10
525.999996
 20
129.650002
 30
0.0
 11
525.999996
 21
120.650001
 31
0.0
  0
LINE
  8
LY_1
  6
CONTINUOUS
 62
   251
  5
C6
 10
534.507561
 20
120.650001
 30
0.0
 11
517.492433
 21
120.650001
 31
0.0
  0
LINE
  8
LY_1
  6
CONTINUOUS
 62
   251
  5
C7
 10
534.50756
 20
120.650001
 30
0.0
 11
534.330998
 21
115.000002
 31
0.0
  0
LINE
  8
LY_1
  6
CONTINUOUS
 62
   251
  5
C8
 10
478.999996
 20
117.500001
 30
0.0
 11
479.942869
 21
122.847298
 31
0.0
  0
LINE
  8
LY_1
  6
CONTINUOUS
 62
   251
  5
C9
 10
479.799996
 20
117.500002
 30
0.0
 11
479.799996
 21
115.000002
 31
0.0
  0
LINE
  8
LY_1
  6
CONTINUOUS
 62
   251
  5
CA
 10
534.071066
 20
129.650002
 30
0.0
 11
517.928927
 21
129.650002
 31
0.0
  0
LINE
  8
LY_1
  6
CONTINUOUS
 62
   251
  5
CB
 10
473.999996
 20
115.000002
 30
0.0
 11
541.999997
 21
115.000002
 31
0.0
  0
LINE
  8
LY_1
  6
CONTINUOUS
 62
   251
  5
CC
 10
517.492434
 20
120.650001
 30
0.0
 11
517.668996
 21
115.000002
 31
0.0
  0
LINE
  8
LY_1
  6
CONTINUOUS
 62
   251
  5
CD
 10
517.928927
 20
129.650002
 30
0.0
 11
517.928927
 21
120.650001
 31
0.0
  0
LINE
  8
LY_1
  6
CONTINUOUS
 62
   251
  5
CE
 10
534.071066
 20
129.650002
 30
0.0
 11
534.071066
 21
120.650001
 31
0.0
  0
LINE
  8
LY_1
  6
CONTINUOUS
 62
     7
  5
CF
 10
517.928927
 20
129.650002
 30
0.0
 11
525.999996
 21
120.650002
 31
0.0
  0
LINE
  8
LY_1
  6
CONTINUOUS
 62
     7
  5
D0
 10
517.928927
 20
120.650001
 30
0.0
 11
525.999996
 21
129.650001
 31
0.0
  0
LINE
  8
LY_1
  6
CONTINUOUS
 62
   251
  5
D1
 10
580.999998
 20
65.000001
 30
0.0
 11
593.499998
 21
65.000001
 31
0.0
  0
LINE
  8
LY_1
  6
CONTINUOUS
 62
   251
  5
D2
 10
313.000001
 20
7.999878
 30
0.0
 11
313.000001
 21
-8.000031
 31
0.0
  0
LINE
  8
LY_1
  6
CONTINUOUS
 62
   251
  5
D3
 10
31.500015
 20
7.999878
 30
0.0
 11
31.500015
 21
-8.000031
 31
0.0
  0
LINE
  8
LY_1
  6
CENTER
 62
     7
  5
D4
 10
390.0
 20
8.735933
 30
0.0
 11
390.0
 21
-8.735943
 31
0.0
  0
LINE
  8
LY_1
  6
CONTINUOUS
 62
   251
  5
D5
 10
396.363957
 20
0.000007
 30
0.0
 11
389.999998
 21
6.363965
 31
0.0
  0
LINE
  8
LY_1
  6
CONTINUOUS
 62
   251
  5
D6
 10
390.0
 20
-6.363965
 30
0.0
 11
396.363959
 21
-0.000007
 31
0.0
  0
LINE
  8
LY_1
  6
CONTINUOUS
 62
   251
  5
D7
 10
383.636045
 20
0.0
 30
0.0
 11
390.000017
 21
-6.363972
 31
0.0
  0
LINE
  8
LY_1
  6
CONTINUOUS
 62
   251
  5
D8
 10
389.999998
 20
6.363965
 30
0.0
 11
383.636033
 21
0.0
 31
0.0
  0
LINE
  8
LY_1
  6
CONTINUOUS
 62
     7
  5
D9
 10
92.489987
 20
5.949744
 30
0.0
 11
100.489996
 21
-0.00001
 31
0.0
  0
LINE
  8
LY_1
  6
CONTINUOUS
 62
     7
  5
DA
 10
92.490003
 20
-0.000007
 30
0.0
 11
100.489981
 21
5.949724
 31
0.0
  0
LINE
  8
LY_1
  6
CONTINUOUS
 62
     7
  5
DB
 10
100.489995
 20
-0.000009
 30
0.0
 11
92.489987
 21
-5.949762
 31
0.0
  0
LINE
  8
LY_1
  6
CONTINUOUS
 62
     7
  5
DC
 10
100.489997
 20
-5.949754
 30
0.0
 11
92.489988
 21
0.0
 31
0.0
  0
LINE
  8
LY_1
  6
CONTINUOUS
 62
   251
  5
DD
 10
100.489998
 20
0.0
 30
0.0
 11
92.490005
 21
0.0
 31
0.0
  0
LINE
  8
LY_1
  6
CONTINUOUS
 62
   251
  5
DE
 10
100.489998
 20
5.949745
 30
0.0
 11
92.490005
 21
5.949745
 31
0.0
  0
LINE
  8
LY_1
  6
CONTINUOUS
 62
   251
  5
DF
 10
100.489998
 20
-5.94975
 30
0.0
 11
92.490005
 21
-5.94975
 31
0.0
  0
LINE
  8
LY_1
  6
CONTINUOUS
 62
   251
  5
E0
 10
92.490011
 20
6.735935
 30
0.0
 11
87.252813
 21
6.572273
 31
0.0
  0
LINE
  8
LY_1
  6
CONTINUOUS
 62
   251
  5
E1
 10
92.489983
 20
-6.735942
 30
0.0
 11
87.252824
 21
-6.57228
 31
0.0
  0
LINE
  8
LY_1
  6
CONTINUOUS
 62
   251
  5
E2
 10
92.490005
 20
-6.73594
 30
0.0
 11
92.490005
 21
6.735935
 31
0.0
  0
LINE
  8
LY_1
  6
CONTINUOUS
 62
   251
  5
E3
 10
100.489998
 20
-5.94975
 30
0.0
 11
100.489998
 21
5.949745
 31
0.0
  0
LINE
  8
LY_1
  6
CONTINUOUS
 62
   251
  5
E4
 10
90.497979
 20
74.942405
 30
0.0
 11
89.199017
 21
72.58467
 31
0.0
  0
LINE
  8
LY_1
  6
CONTINUOUS
 62
   251
  5
E5
 10
100.250693
 20
61.286723
 30
0.0
 11
97.799862
 21
60.499505
 31
0.0
  0
LINE
  8
LY_1
  6
CONTINUOUS
 62
   251
  5
E6
 10
105.098805
 20
52.540333
 30
0.0
 11
103.132511
 21
50.879105
 31
0.0
  0
LINE
  8
LY_1
  6
CONTINUOUS
 62
   251
  5
E7
 10
-90.495959
 20
74.943594
 30
0.0
 11
-89.197421
 21
72.586628
 31
0.0
  0
LINE
  8
LY_1
  6
CONTINUOUS
 62
   251
  5
E8
 10
-74.941058
 20
90.500155
 30
0.0
 11
-72.582555
 21
89.200769
 31
0.0
  0
LINE
  8
LY_1
  6
CONTINUOUS
 62
   251
  5
E9
 10
-61.284747
 20
100.251549
 30
0.0
 11
-60.497627
 21
97.801006
 31
0.0
  0
LINE
  8
LY_1
  6
CONTINUOUS
 62
   251
  5
EA
 10
-52.539546
 20
105.09958
 30
0.0
 11
-50.878088
 21
103.133005
 31
0.0
  0
LINE
  8
LY_1
  6
CONTINUOUS
 62
   251
  5
EB
 10
-27.550315
 20
114.224989
 30
0.0
 11
-26.373745
 21
111.934918
 31
0.0
  0
LINE
  8
LY_1
  6
CONTINUOUS
 62
   251
  5
EC
 10
-37.163986
 20
111.467732
 30
0.0
 11
-36.948282
 21
108.902819
 31
0.0
  0
LINE
  8
LY_1
  6
CONTINUOUS
 62
   251
  5
ED
 10
-116.984415
 20
11.00148
 30
0.0
 11
-114.398117
 21
11.750325
 31
0.0
  0
LINE
  8
LY_1
  6
CONTINUOUS
 62
   251
  5
EE
 10
-114.223015
 20
27.554297
 30
0.0
 11
-111.93388
 21
26.378201
 31
0.0
  0
LINE
  8
LY_1
  6
CONTINUOUS
 62
   251
  5
EF
 10
-111.467642
 20
37.165737
 30
0.0
 11
-108.902235
 21
36.949987
 31
0.0
  0
LINE
  8
LY_1
  6
CONTINUOUS
 62
   251
  5
F0
 10
-100.250198
 20
61.288
 30
0.0
 11
-97.799076
 21
60.500688
 31
0.0
  0
LINE
  8
LY_1
  6
CONTINUOUS
 62
   251
  5
F1
 10
-105.098254
 20
52.541025
 30
0.0
 11
-103.13212
 21
50.879932
 31
0.0
  0
LINE
  8
LY_1
  6
CONTINUOUS
 62
   251
  5
F2
 10
116.983864
 20
10.999431
 30
0.0
 11
114.761054
 21
11.64303
 31
0.0
  0
LINE
  8
LY_1
  6
CONTINUOUS
 62
   251
  5
F3
 10
114.223991
 20
27.552024
 30
0.0
 11
112.081057
 21
26.451057
 31
0.0
  0
LINE
  8
LY_1
  6
CONTINUOUS
 62
   251
  5
F4
 10
111.46775
 20
37.164623
 30
0.0
 11
110.162011
 21
37.054811
 31
0.0
  0
LINE
  8
LY_1
  6
CONTINUOUS
 62
   251
  5
F5
 10
-10.999458
 20
116.98416
 30
0.0
 11
-11.748166
 21
114.398338
 31
0.0
  0
LINE
  8
LY_1
  6
CONTINUOUS
 62
   251
  5
F6
 10
467.967873
 20
-90.497437
 30
0.0
 11
470.000019
 21
-90.497437
 31
0.0
  0
LINE
  8
LY_1
  6
CONTINUOUS
 62
   251
  5
F7
 10
455.370445
 20
-74.94092
 30
0.0
 11
470.000019
 21
-74.94092
 31
0.0
  0
LINE
  8
LY_1
  6
CONTINUOUS
 62
   251
  5
F8
 10
444.313278
 20
-61.28644
 30
0.0
 11
470.000019
 21
-61.28644
 31
0.0
  0
LINE
  8
LY_1
  6
CONTINUOUS
 62
   251
  5
F9
 10
437.23093
 20
-52.540464
 30
0.0
 11
470.000019
 21
-52.540464
 31
0.0
  0
LINE
  8
LY_1
  6
CONTINUOUS
 62
   251
  5
FA
 10
426.000004
 20
-37.163944
 30
0.0
 11
470.000019
 21
-37.163944
 31
0.0
  0
LINE
  8
LY_1
  6
CONTINUOUS
 62
   251
  5
FB
 10
426.000004
 20
-27.55167
 30
0.0
 11
470.000019
 21
-27.55167
 31
0.0
  0
LINE
  8
LY_1
  6
CONTINUOUS
 62
   251
  5
FC
 10
426.000004
 20
-11.000309
 30
0.0
 11
470.000019
 21
-11.000309
 31
0.0
  0
LINE
  8
LY_1
  6
CONTINUOUS
 62
   251
  5
FD
 10
426.000004
 20
10.999479
 30
0.0
 11
470.000019
 21
10.999479
 31
0.0
  0
LINE
  8
LY_1
  6
CONTINUOUS
 62
   251
  5
FE
 10
426.000004
 20
27.551999
 30
0.0
 11
470.000019
 21
27.551999
 31
0.0
  0
LINE
  8
LY_1
  6
CONTINUOUS
 62
   251
  5
FF
 10
426.000004
 20
37.164701
 30
0.0
 11
470.000019
 21
37.164701
 31
0.0
  0
LINE
  8
LY_1
  6
CONTINUOUS
 62
   251
  5
100
 10
426.000004
 20
52.540343
 30
0.0
 11
470.000019
 21
52.540343
 31
0.0
  0
LINE
  8
LY_1
  6
CONTINUOUS
 62
   251
  5
101
 10
426.000004
 20
61.28674
 30
0.0
 11
470.000019
 21
61.28674
 31
0.0
  0
LINE
  8
LY_1
  6
CONTINUOUS
 62
   251
  5
102
 10
426.000004
 20
74.942169
 30
0.0
 11
470.000019
 21
74.942169
 31
0.0
  0
LINE
  8
LY_1
  6
CONTINUOUS
 62
   251
  5
103
 10
470.000085
 20
117.500066
 30
0.0
 11
474.000084
 21
113.500067
 31
0.0
  0
LINE
  8
LY_1
  6
CONTINUOUS
 62
   251
  5
104
 10
422.000007
 20
113.499985
 30
0.0
 11
426.000027
 21
117.49999
 31
0.0
  0
LINE
  8
LY_1
  6
CONTINUOUS
 62
   251
  5
105
 10
426.000023
 20
117.5
 30
0.0
 11
470.000019
 21
117.5
 31
0.0
  0
LINE
  8
LY_1
  6
CENTER
 62
     7
  5
106
 10
74.28894
 20
-65.000153
 30
0.0
 11
85.927925
 21
-65.000153
 31
0.0
  0
LINE
  8
LY_1
  6
CENTER
 62
     7
  5
107
 10
390.0
 20
-55.688696
 30
0.0
 11
390.0
 21
-73.315067
 31
0.0
  0
LINE
  8
LY_1
  6
CONTINUOUS
 62
   251
  5
108
 10
137.500025
 20
-114.000091
 30
0.0
 11
113.161706
 21
20.480005
 31
0.0
  0
LINE
  8
LY_1
  6
CONTINUOUS
 62
   251
  5
109
 10
473.999996
 20
115.0
 30
0.0
 11
473.999996
 21
-97.527294
 31
0.0
  0
LINE
  8
LY_1
  6
CONTINUOUS
 62
   251
  5
10A
 10
21.500015
 20
7.999878
 30
0.0
 11
21.500015
 21
-8.000031
 31
0.0
  0
LINE
  8
LY_1
  6
CONTINUOUS
 62
   251
  5
10B
 10
31.500015
 20
7.999878
 30
0.0
 11
21.500015
 21
7.999878
 31
0.0
  0
LINE
  8
LY_1
  6
CONTINUOUS
 62
   251
  5
10C
 10
31.500015
 20
-8.000031
 30
0.0
 11
21.500015
 21
-8.000031
 31
0.0
  0
LINE
  8
LY_1
  6
CENTER
 62
     7
  5
10D
 10
0.0
 20
165.917664
 30
0.0
 11
0.0
 21
-152.000132
 31
0.0
  0
LINE
  8
LY_1
  6
CONTINUOUS
 62
   251
  5
10E
 10
9.200058
 20
117.5
 30
0.0
 11
9.200058
 21
117.139273
 31
0.0
  0
LINE
  8
LY_1
  6
CONTINUOUS
 62
   251
  5
10F
 10
-9.199982
 20
117.5
 30
0.0
 11
-9.199982
 21
117.139273
 31
0.0
  0
LINE
  8
LY_1
  6
CONTINUOUS
 62
   251
  5
110
 10
-10.0
 20
117.5
 30
0.0
 11
10.0
 21
117.5
 31
0.0
  0
LINE
  8
LY_1
  6
CONTINUOUS
 62
   251
  5
111
 10
-3.999939
 20
154.999847
 30
0.0
 11
-3.999939
 21
119.899902
 31
0.0
  0
LINE
  8
LY_1
  6
CONTINUOUS
 62
   251
  5
112
 10
-3.999992
 20
125.248829
 30
0.0
 11
-7.986576
 21
124.478106
 31
0.0
  0
LINE
  8
LY_1
  6
CONTINUOUS
 62
   251
  5
113
 10
-8.940499
 20
123.508333
 30
0.0
 11
-9.99994
 21
117.499948
 31
0.0
  0
LINE
  8
LY_1
  6
CONTINUOUS
 62
   251
  5
114
 10
4.000015
 20
154.999847
 30
0.0
 11
4.000015
 21
119.899902
 31
0.0
  0
LINE
  8
LY_1
  6
CONTINUOUS
 62
   251
  5
115
 10
4.000064
 20
125.248835
 30
0.0
 11
7.986685
 21
124.478106
 31
0.0
  0
LINE
  8
LY_1
  6
CONTINUOUS
 62
   251
  5
116
 10
8.940641
 20
123.508342
 30
0.0
 11
10.000082
 21
117.499957
 31
0.0
  0
LINE
  8
LY_1
  6
CONTINUOUS
 62
     7
  5
117
 10
-4.405717
 20
125.17039
 30
0.0
 11
-8.071002
 21
129.649985
 31
0.0
  0
LINE
  8
LY_1
  6
CONTINUOUS
 62
     7
  5
118
 10
8.071169
 20
129.649924
 30
0.0
 11
4.405919
 21
125.170372
 31
0.0
  0
LINE
  8
LY_1
  6
CONTINUOUS
 62
   251
  5
119
 10
-8.070999
 20
129.649872
 30
0.0
 11
-8.070999
 21
124.461785
 31
0.0
  0
LINE
  8
LY_1
  6
CONTINUOUS
 62
   251
  5
11A
 10
8.071121
 20
129.649871
 30
0.0
 11
8.071121
 21
124.461782
 31
0.0
  0
LINE
  8
LY_1
  6
CONTINUOUS
 62
   251
  5
11B
 10
8.071121
 20
129.649869
 30
0.0
 11
4.000015
 21
129.649869
 31
0.0
  0
LINE
  8
LY_1
  6
CONTINUOUS
 62
   251
  5
11C
 10
35.443649
 20
-80.000153
 30
0.0
 11
59.553146
 21
-80.000153
 31
0.0
  0
LINE
  8
LY_1
  6
CONTINUOUS
 62
   251
  5
11D
 10
-59.55307
 20
-80.000153
 30
0.0
 11
-35.443573
 21
-80.000153
 31
0.0
  0
LINE
  8
LY_1
  6
CENTER
 62
     7
  5
11E
 10
-59.496822
 20
-34.35051
 30
0.0
 11
-70.592575
 21
-40.756645
 31
0.0
  0
LINE
  8
LY_1
  6
CENTER
 62
     7
  5
11F
 10
59.496925
 20
-34.350724
 30
0.0
 11
70.592611
 21
-40.756822
 31
0.0
  0
LINE
  8
LY_1
  6
CENTER
 62
     7
  5
120
 10
59.496839
 20
34.3505
 30
0.0
 11
70.592592
 21
40.756635
 31
0.0
  0
LINE
  8
LY_1
  6
CENTER
 62
     7
  5
121
 10
-59.496859
 20
34.350379
 30
0.0
 11
-70.592545
 21
40.756477
 31
0.0
  0
LINE
  8
LY_1
  6
CENTER
 62
     7
  5
122
 10
-37.292491
 20
90.030051
 30
0.0
 11
-42.523147
 21
102.657975
 31
0.0
  0
LINE
  8
LY_1
  6
CENTER
 62
     7
  5
123
 10
90.030259
 20
37.292416
 30
0.0
 11
102.658112
 21
42.523042
 31
0.0
  0
LINE
  8
LY_1
  6
CENTER
 62
     7
  5
124
 10
90.030848
 20
-37.291179
 30
0.0
 11
102.658771
 21
-42.521837
 31
0.0
  0
LINE
  8
LY_1
  6
CENTER
 62
     7
  5
125
 10
37.292614
 20
-90.030287
 30
0.0
 11
42.523269
 21
-102.658209
 31
0.0
  0
LINE
  8
LY_1
  6
CENTER
 62
     7
  5
126
 10
-37.291006
 20
-90.030889
 30
0.0
 11
-42.521635
 21
-102.658742
 31
0.0
  0
LINE
  8
LY_1
  6
CENTER
 62
     7
  5
127
 10
-90.030129
 20
-37.29267
 30
0.0
 11
-102.658053
 21
-42.523325
 31
0.0
  0
LINE
  8
LY_1
  6
CENTER
 62
     7
  5
128
 10
-90.030758
 20
37.291065
 30
0.0
 11
-102.658681
 21
42.521723
 31
0.0
  0
LINE
  8
LY_1
  6
CENTER
 62
     7
  5
129
 10
37.291167
 20
90.030746
 30
0.0
 11
42.521767
 21
102.658528
 31
0.0
  0
LINE
  8
LY_1
  6
CENTER
 62
     7
  5
12A
 10
381.15797
 20
-65.000153
 30
0.0
 11
399.44994
 21
-65.000153
 31
0.0
  0
LINE
  8
LY_1
  6
CONTINUOUS
 62
   251
  5
12B
 10
250.0
 20
-8.000031
 30
0.0
 11
316.999989
 21
-8.000031
 31
0.0
  0
LINE
  8
LY_1
  6
CONTINUOUS
 62
   251
  5
12C
 10
250.0
 20
7.999878
 30
0.0
 11
316.999989
 21
7.999878
 31
0.0
  0
LINE
  8
LY_1
  6
DASHED
 62
     7
  5
12E
 10
122.000046
 20
-114.000082
 30
0.0
 11
122.000046
 21
-140.000162
 31
0.0
  0
LINE
  8
LY_1
  6
DASHED
 62
     7
  5
12F
 10
103.000031
 20
-114.000082
 30
0.0
 11
103.000031
 21
-140.000162
 31
0.0
  0
LINE
  8
LY_1
  6
DASHED
 62
     7
  5
130
 10
-121.999969
 20
-114.000082
 30
0.0
 11
-121.999969
 21
-140.000162
 31
0.0
  0
LINE
  8
LY_1
  6
DASHED
 62
     7
  5
131
 10
-102.999954
 20
-114.000082
 30
0.0
 11
-102.999954
 21
-140.000162
 31
0.0
  0
LINE
  8
LY_1
  6
CONTINUOUS
 62
   251
  5
132
 10
77.389832
 20
-80.000153
 30
0.0
 11
80.0
 21
-80.000153
 31
0.0
  0
LINE
  8
LY_1
  6
CONTINUOUS
 62
   251
  5
133
 10
80.0
 20
-35.443726
 30
0.0
 11
80.0
 21
-80.000153
 31
0.0
  0
LINE
  8
LY_1
  6
CONTINUOUS
 62
   251
  5
134
 10
-79.999924
 20
-35.443726
 30
0.0
 11
-79.999924
 21
-80.000153
 31
0.0
  0
LINE
  8
LY_1
  6
CONTINUOUS
 62
   251
  5
135
 10
-79.999924
 20
-80.000153
 30
0.0
 11
-77.389603
 21
-80.000153
 31
0.0
  0
LINE
  8
LY_1
  6
CONTINUOUS
 62
   251
  5
136
 10
85.506997
 20
-110.294179
 30
0.0
 11
70.633953
 21
-54.787195
 31
0.0
  0
LINE
  8
LY_1
  6
CONTINUOUS
 62
   251
  5
137
 10
72.500041
 20
-114.000223
 30
0.0
 11
61.248274
 21
-72.008035
 31
0.0
  0
LINE
  8
LY_1
  6
CONTINUOUS
 62
   251
  5
138
 10
-72.500017
 20
-114.000104
 30
0.0
 11
-61.248282
 21
-72.008065
 31
0.0
  0
LINE
  8
LY_1
  6
CONTINUOUS
 62
   251
  5
139
 10
-85.507011
 20
-110.294205
 30
0.0
 11
-70.633958
 21
-54.787223
 31
0.0
  0
LINE
  8
LY_1
  6
CONTINUOUS
 62
   251
  5
13A
 10
-69.499969
 20
-137.000132
 30
0.0
 11
69.500046
 21
-137.000132
 31
0.0
  0
LINE
  8
LY_1
  6
CONTINUOUS
 62
   251
  5
13B
 10
-137.500007
 20
-114.000035
 30
0.0
 11
-113.161713
 21
20.479918
 31
0.0
  0
LINE
  8
LY_1
  6
CONTINUOUS
 62
   251
  5
13C
 10
72.5
 20
-114.000082
 30
0.0
 11
137.5
 21
-114.000082
 31
0.0
  0
LINE
  8
LY_1
  6
CONTINUOUS
 62
   251
  5
13D
 10
72.5
 20
-140.000162
 30
0.0
 11
137.5
 21
-140.000162
 31
0.0
  0
LINE
  8
LY_1
  6
CONTINUOUS
 62
   251
  5
13E
 10
-137.499924
 20
-114.000082
 30
0.0
 11
-72.5
 21
-114.000082
 31
0.0
  0
LINE
  8
LY_1
  6
CENTER
 62
     7
  5
13F
 10
112.5
 20
-108.086843
 30
0.0
 11
112.5
 21
-147.657938
 31
0.0
  0
LINE
  8
LY_1
  6
CENTER
 62
     7
  5
140
 10
-112.499924
 20
-106.504049
 30
0.0
 11
-112.499924
 21
-147.657938
 31
0.0
  0
LINE
  8
LY_1
  6
CONTINUOUS
 62
   251
  5
141
 10
72.5
 20
-114.000082
 30
0.0
 11
72.5
 21
-140.000162
 31
0.0
  0
LINE
  8
LY_1
  6
CONTINUOUS
 62
   251
  5
142
 10
-72.5
 20
-114.000082
 30
0.0
 11
-72.5
 21
-140.000162
 31
0.0
  0
LINE
  8
LY_1
  6
CONTINUOUS
 62
   251
  5
143
 10
-137.499924
 20
-114.000082
 30
0.0
 11
-137.499924
 21
-140.000162
 31
0.0
  0
LINE
  8
LY_1
  6
CONTINUOUS
 62
   251
  5
144
 10
137.5
 20
-114.000082
 30
0.0
 11
137.5
 21
-140.000162
 31
0.0
  0
LINE
  8
LY_1
  6
CONTINUOUS
 62
   251
  5
145
 10
-137.499924
 20
-140.000162
 30
0.0
 11
-72.5
 21
-140.000162
 31
0.0
  0
LINE
  8
LY_1
  6
CENTER
 62
     7
  5
146
 10
-131.868185
 20
0.0
 30
0.0
 11
131.868194
 21
0.0
 31
0.0
  0
LINE
  8
LY_1
  6
CONTINUOUS
 62
   251
  5
147
 10
503.694172
 20
-114.000082
 30
0.0
 11
544.999943
 21
-114.000082
 31
0.0
  0
LINE
  8
LY_1
  6
CONTINUOUS
 62
   251
  5
148
 10
335.999997
 20
-54.999991
 30
0.0
 11
347.999997
 21
-87.499989
 31
0.0
  0
LINE
  8
LY_1
  6
CONTINUOUS
 62
   251
  5
149
 10
348.000044
 20
87.49987
 30
0.0
 11
336.000056
 21
54.999872
 31
0.0
  0
LINE
  8
LY_1
  6
CONTINUOUS
 62
   251
  5
14A
 10
421.999988
 20
-33.731829
 30
0.0
 11
476.49397
 21
-101.026296
 31
0.0
  0
LINE
  8
LY_1
  6
CONTINUOUS
 62
   251
  5
14B
 10
345.0
 20
-114.000082
 30
0.0
 11
398.999996
 21
-114.000082
 31
0.0
  0
LINE
  8
LY_1
  6
DASHED
 62
     7
  5
14C
 10
529.499989
 20
-114.000082
 30
0.0
 11
529.499989
 21
-140.000162
 31
0.0
  0
LINE
  8
LY_1
  6
DASHED
 62
     7
  5
14D
 10
510.499973
 20
-114.000082
 30
0.0
 11
510.499973
 21
-140.000162
 31
0.0
  0
LINE
  8
LY_1
  6
DASHED
 62
     7
  5
14E
 10
379.499989
 20
-114.000082
 30
0.0
 11
379.499989
 21
-140.000162
 31
0.0
  0
LINE
  8
LY_1
  6
DASHED
 62
     7
  5
14F
 10
360.499992
 20
-114.000082
 30
0.0
 11
360.499992
 21
-140.000162
 31
0.0
  0
LINE
  8
LY_1
  6
CONTINUOUS
 62
   251
  5
150
 10
330.0
 20
32.499998
 30
0.0
 11
330.0
 21
-32.5
 31
0.0
  0
LINE
  8
LY_1
  6
CONTINUOUS
 62
   251
  5
151
 10
330.0
 20
-32.5
 30
0.0
 11
336.000004
 21
-32.5
 31
0.0
  0
LINE
  8
LY_1
  6
CONTINUOUS
 62
   251
  5
152
 10
330.0
 20
32.499998
 30
0.0
 11
336.000004
 21
32.499998
 31
0.0
  0
LINE
  8
LY_1
  6
CONTINUOUS
 62
   251
  5
153
 10
250.0
 20
-27.5
 30
0.0
 11
330.0
 21
-27.5
 31
0.0
  0
LINE
  8
LY_1
  6
CONTINUOUS
 62
   251
  5
154
 10
250.0
 20
27.499998
 30
0.0
 11
330.0
 21
27.499998
 31
0.0
  0
LINE
  8
LY_1
  6
CONTINUOUS
 62
   251
  5
155
 10
250.0
 20
27.499998
 30
0.0
 11
250.0
 21
-27.5
 31
0.0
  0
LINE
  8
LY_1
  6
CENTER
 62
     7
  5
156
 10
519.999981
 20
-108.547506
 30
0.0
 11
519.999981
 21
-146.033182
 31
0.0
  0
LINE
  8
LY_1
  6
CENTER
 62
     7
  5
157
 10
370.0
 20
-108.012075
 30
0.0
 11
370.0
 21
-146.033182
 31
0.0
  0
LINE
  8
LY_1
  6
CONTINUOUS
 62
   251
  5
158
 10
422.000008
 20
115.0
 30
0.0
 11
422.000008
 21
-33.731689
 31
0.0
  0
LINE
  8
LY_1
  6
CONTINUOUS
 62
   251
  5
159
 10
403.999996
 20
115.0
 30
0.0
 11
422.000008
 21
115.0
 31
0.0
  0
LINE
  8
LY_1
  6
CONTINUOUS
 62
   251
  5
15A
 10
403.999996
 20
115.0
 30
0.0
 11
403.999996
 21
-109.000082
 31
0.0
  0
LINE
  8
LY_1
  6
CONTINUOUS
 62
   251
  5
15B
 10
379.999979
 20
87.500354
 30
0.0
 11
399.261685
 21
88.509817
 31
0.0
  0
LINE
  8
LY_1
  6
CONTINUOUS
 62
   251
  5
15C
 10
347.999992
 20
87.5
 30
0.0
 11
379.999943
 21
87.5
 31
0.0
  0
LINE
  8
LY_1
  6
CONTINUOUS
 62
   251
  5
15D
 10
360.0
 20
87.5
 30
0.0
 11
360.0
 21
-87.500153
 31
0.0
  0
LINE
  8
LY_1
  6
CONTINUOUS
 62
   251
  5
15E
 10
347.999992
 20
-87.500153
 30
0.0
 11
367.31842
 21
-87.500153
 31
0.0
  0
LINE
  8
LY_1
  6
CONTINUOUS
 62
   251
  5
15F
 10
347.999992
 20
87.5
 30
0.0
 11
347.999992
 21
-87.500153
 31
0.0
  0
LINE
  8
LY_1
  6
CONTINUOUS
 62
   251
  5
160
 10
336.000004
 20
54.999845
 30
0.0
 11
336.000004
 21
-55.0
 31
0.0
  0
LINE
  8
LY_1
  6
CONTINUOUS
 62
   251
  5
161
 10
375.0
 20
-40.443726
 30
0.0
 11
375.0
 21
-75.000153
 31
0.0
  0
LINE
  8
LY_1
  6
CONTINUOUS
 62
   251
  5
162
 10
365.399495
 20
-109.435837
 30
0.0
 11
370.071259
 21
-56.037364
 31
0.0
  0
LINE
  8
LY_1
  6
CONTINUOUS
 62
   251
  5
163
 10
380.0
 20
-80.000153
 30
0.0
 11
397.401066
 21
-80.000153
 31
0.0
  0
LINE
  8
LY_1
  6
CONTINUOUS
 62
   251
  5
164
 10
544.999943
 20
-114.000082
 30
0.0
 11
544.999943
 21
-140.000162
 31
0.0
  0
LINE
  8
LY_1
  6
CONTINUOUS
 62
   251
  5
165
 10
345.0
 20
-114.000082
 30
0.0
 11
345.0
 21
-140.000162
 31
0.0
  0
LINE
  8
LY_1
  6
CONTINUOUS
 62
   251
  5
166
 10
345.0
 20
-140.000162
 30
0.0
 11
544.999943
 21
-140.000162
 31
0.0
  0
LINE
  8
LY_1
  6
CENTER
 62
     7
  5
167
 10
235.0
 20
0.0
 30
0.0
 11
753.796594
 21
0.0
 31
0.0
  0
ENDSEC
  0
EOF
