  0
SECTION
  2
HEADER
  9
$ACADVER
  1
AC1009
  9
$DWGCODEPAGE
  3
dos932
  9
$INSBASE
 10
0.0
 20
0.0
 30
0.0
  9
$EXTMIN
 10
-110.0
 20
-149.000008
 30
0.0
  9
$EXTMAX
 10
686.953736
 20
153.699223
 30
0.0
  9
$LIMMIN
 10
-110.0
 20
-149.000008
  9
$LIMMAX
 10
686.953736
 20
153.699223
  9
$ORTHOMODE
 70
     0
  9
$REGENMODE
 70
     1
  9
$FILLMODE
 70
     1
  9
$QTEXTMODE
 70
     0
  9
$MIRRTEXT
 70
     1
  9
$DRAGMODE
 70
     2
  9
$LTSCALE
 40
1.0
  9
$OSMODE
 70
     0
  9
$ATTMODE
 70
     1
  9
$TEXTSIZE
 40
3.15
  9
$TRACEWID
 40
0.05
  9
$TEXTSTYLE
  7
MX_NOTE_STANDARD
  9
$CLAYER
  8
LY_1
  9
$CELTYPE
  6
CONTINUOUS
  9
$CECOLOR
 62
   256
  9
$DIMSCALE
 40
1.0
  9
$DIMASZ
 40
2.5
  9
$DIMEXO
 40
1.0
  9
$DIMDLI
 40
3.75
  9
$DIMRND
 40
0.0
  9
$DIMDLE
 40
0.0
  9
$DIMEXE
 40
1.5
  9
$DIMTP
 40
0.0
  9
$DIMTM
 40
0.0
  9
$DIMTXT
 40
3.15
  9
$DIMCEN
 40
2.5
  9
$DIMTSZ
 40
0.0
  9
$DIMTOL
 70
     0
  9
$DIMLIM
 70
     0
  9
$DIMTIH
 70
     0
  9
$DIMTOH
 70
     0
  9
$DIMSE1
 70
     0
  9
$DIMSE2
 70
     0
  9
$DIMTAD
 70
     1
  9
$DIMZIN
 70
     8
  9
$DIMBLK
  1

  9
$DIMASO
 70
     1
  9
$DIMSHO
 70
     1
  9
$DIMPOST
  1

  9
$DIMAPOST
  1

  9
$DIMALT
 70
     0
  9
$DIMALTD
 70
     4
  9
$DIMALTF
 40
0.03937
  9
$DIMLFAC
 40
1.0
  9
$DIMTOFL
 70
     1
  9
$DIMTVP
 40
0.0
  9
$DIMTIX
 70
     0
  9
$DIMSOXD
 70
     0
  9
$DIMSAH
 70
     0
  9
$DIMBLK1
  1

  9
$DIMBLK2
  1

  9
$DIMSTYLE
  2
MXDIMSTYLE
  9
$DIMCLRD
 70
     0
  9
$DIMCLRE
 70
     0
  9
$DIMCLRT
 70
     0
  9
$DIMTFAC
 40
1.0
  9
$DIMGAP
 40
1.0
  9
$LUNITS
 70
     2
  9
$LUPREC
 70
     4
  9
$AXISMODE
 70
     0
  9
$AXISUNIT
 10
0.0
 20
0.0
  9
$SKETCHINC
 40
0.1
  9
$FILLETRAD
 40
0.0
  9
$AUNITS
 70
     0
  9
$AUPREC
 70
     0
  9
$MENU
  1
acad
  9
$ELEVATION
 40
0.0
  9
$PELEVATION
 40
0.0
  9
$THICKNESS
 40
0.0
  9
$LIMCHECK
 70
     0
  9
$BLIPMODE
 70
     1
  9
$CHAMFERA
 40
0.0
  9
$CHAMFERB
 40
0.0
  9
$SKPOLY
 70
     0
  9
$TDCREATE
 40
2453665.670150463
  9
$TDUPDATE
 40
2453665.670150463
  9
$TDINDWG
 40
0.0000000000
  9
$TDUSRTIMER
 40
0.0000000000
  9
$USRTIMER
 70
     1
  9
$ANGBASE
 50
0.0
  9
$ANGDIR
 70
     0
  9
$PDMODE
 70
     0
  9
$PDSIZE
 40
0.0
  9
$PLINEWID
 40
0.0
  9
$COORDS
 70
     1
  9
$SPLFRAME
 70
     0
  9
$SPLINETYPE
 70
     6
  9
$SPLINESEGS
 70
     8
  9
$ATTDIA
 70
     0
  9
$ATTREQ
 70
     1
  9
$HANDLING
 70
     1
  9
$HANDSEED
  5
1B1
  9
$SURFTAB1
 70
     6
  9
$SURFTAB2
 70
     6
  9
$SURFTYPE
 70
     6
  9
$SURFU
 70
     6
  9
$SURFV
 70
     6
  9
$UCSNAME
  2

  9
$UCSORG
 10
0.0
 20
0.0
 30
0.0
  9
$UCSXDIR
 10
1.0
 20
0.0
 30
0.0
  9
$UCSYDIR
 10
0.0
 20
1.0
 30
0.0
  9
$PUCSNAME
  2

  9
$PUCSORG
 10
0.0
 20
0.0
 30
0.0
  9
$PUCSXDIR
 10
1.0
 20
0.0
 30
0.0
  9
$PUCSYDIR
 10
0.0
 20
1.0
 30
0.0
  9
$USERI1
 70
     0
  9
$USERI2
 70
     0
  9
$USERI3
 70
     0
  9
$USERI4
 70
     0
  9
$USERI5
 70
     0
  9
$USERR1
 40
0.0
  9
$USERR2
 40
0.0
  9
$USERR3
 40
0.0
  9
$USERR4
 40
0.0
  9
$USERR5
 40
0.0
  9
$WORLDVIEW
 70
     1
  9
$SHADEDGE
 70
     3
  9
$SHADEDIF
 70
    70
  9
$TILEMODE
 70
     1
  9
$MAXACTVP
 70
    16
  9
$PINSBASE
 10
0.0
 20
0.0
 30
0.0
  9
$PLIMCHECK
 70
     0
  9
$PEXTMIN
 10
1.000000E+20
 20
1.000000E+20
 30
1.000000E+20
  9
$PEXTMAX
 10
-1.000000E+20
 20
-1.000000E+20
 30
-1.000000E+20
  9
$PLIMMIN
 10
0.0
 20
0.0
  9
$PLIMMAX
 10
12.0
 20
9.0
  9
$UNITMODE
 70
     0
  9
$VISRETAIN
 70
     0
  9
$PLINEGEN
 70
     1
  9
$PSLTSCALE
 70
     0
  9
$TREEDEPTH
 70
  3020
  9
$DWGCODEPAGE
  3
dos932
  0
ENDSEC
  0
SECTION
  2
TABLES
  0
TABLE
  2
VPORT
 70
     1
  0
VPORT
  2
*ACTIVE
 70
     0
 10
0.0
 20
0.0
 11
1.0
 21
1.0
 12
288.476868
 22
2.349608
 13
0.0
 23
0.0
 14
1.0
 24
1.0
 15
0.0
 25
0.0
 16
0.0
 26
0.0
 36
1.0
 17
0.0
 27
0.0
 37
0.0
 40
305.726223
 41
1.732051
 42
50.0
 43
0.0
 44
0.0
 50
0.0
 51
0.0
 71
     0
 72
   100
 73
     1
 74
     1
 75
     0
 76
     0
 77
     0
 78
     0
  0
ENDTAB
  0
TABLE
  2
LTYPE
 70
     3
  0
LTYPE
  2
CONTINUOUS
 70
    64
  3
Solid line
 72
    65
 73
     0
 40
0.0
  0
LTYPE
  2
CENTER
 70
    64
  3
Center ____ _ ____ _ ____ _ ____ _ ____ _ ____
 72
    65
 73
     4
 40
50.8
 49
31.75
 49
-6.35
 49
6.35
 49
-6.35
  0
LTYPE
  2
DASHED
 70
    64
  3
Dashed __ __ __ __ __ __ __ __ __ __ __ __ __ _
 72
    65
 73
     2
 40
19.05
 49
12.7
 49
-6.35
  0
ENDTAB
  0
TABLE
  2
LAYER
 70
     3
  0
LAYER
  2
0
 70
     0
 62
     7
  6
CONTINUOUS
  0
LAYER
  2
LY_1
 70
     0
 62
     7
  6
CONTINUOUS
  0
LAYER
  2
DEFPOINTS
 70
     0
 62
     7
  6
CONTINUOUS
  0
ENDTAB
  0
TABLE
  2
STYLE
 70
     1
  0
STYLE
  2
MX_NOTE_STANDARD
 70
     0
 40
0.0
 41
1.0
 50
0.0
 71
     0
 42
3.15
  3
txt.shx
  4
extfont.shx
  0
ENDTAB
  0
TABLE
  2
VIEW
 70
     0
  0
ENDTAB
  0
TABLE
  2
UCS
 70
     0
  0
ENDTAB
  0
TABLE
  2
APPID
 70
     1
  0
APPID
  2
ACAD
 70
     0
  0
ENDTAB
  0
TABLE
  2
DIMSTYLE
 70
     1
  0
DIMSTYLE
  2
MXDIMSTYLE
 70
     0
  3

  4

  5

  6

  7

 40
1.0
 41
2.5
 42
1.0
 43
3.75
 44
1.5
 45
0.0
 46
0.0
 47
0.0
 48
0.0
 71
     0
 72
     0
 73
     0
 74
     0
 75
     0
 76
     0
 77
     1
 78
     8
140
3.15
141
2.5
142
0.0
143
0.03937
144
1.0
145
0.0
146
1.0
147
1.0
170
     0
171
     4
172
     1
173
     0
174
     0
175
     0
176
     0
177
     0
178
     0
  0
ENDTAB
  0
ENDSEC
  0
SECTION
  2
BLOCKS
  0
ENDSEC
  0
SECTION
  2
ENTITIES
  0
LINE
  8
LY_1
  6
CONTINUOUS
 62
   251
  5
1F
 10
626.500657
 20
36.998288
 30
0.0
 11
549.000657
 21
36.999649
 31
0.0
  0
LINE
  8
LY_1
  6
CONTINUOUS
 62
   251
  5
20
 10
549.000587
 20
32.999649
 30
0.0
 11
626.500587
 21
32.998288
 31
0.0
  0
LINE
  8
LY_1
  6
CONTINUOUS
 62
   251
  5
21
 10
626.500517
 20
28.998288
 30
0.0
 11
549.000517
 21
28.999649
 31
0.0
  0
LINE
  8
LY_1
  6
CONTINUOUS
 62
   251
  5
22
 10
549.000447
 20
24.999649
 30
0.0
 11
626.500447
 21
24.998288
 31
0.0
  0
LINE
  8
LY_1
  6
CONTINUOUS
 62
   251
  5
23
 10
548.999569
 20
-25.000351
 30
0.0
 11
626.499569
 21
-25.001712
 31
0.0
  0
LINE
  8
LY_1
  6
CONTINUOUS
 62
   251
  5
24
 10
548.999498
 20
-29.000351
 30
0.0
 11
626.499498
 21
-29.001712
 31
0.0
  0
LINE
  8
LY_1
  6
CONTINUOUS
 62
   251
  5
25
 10
548.999428
 20
-33.000351
 30
0.0
 11
626.499428
 21
-33.001712
 31
0.0
  0
LINE
  8
LY_1
  6
CONTINUOUS
 62
   251
  5
26
 10
548.999358
 20
-37.000351
 30
0.0
 11
626.499358
 21
-37.001712
 31
0.0
  0
LINE
  8
LY_1
  6
CONTINUOUS
 62
   251
  5
27
 10
634.498462
 20
-88.001853
 30
0.0
 11
634.501553
 21
87.998147
 31
0.0
  0
LINE
  8
LY_1
  6
CONTINUOUS
 62
   251
  5
28
 10
626.498462
 20
-88.001712
 30
0.0
 11
626.501553
 21
87.998288
 31
0.0
  0
LINE
  8
LY_1
  6
CONTINUOUS
 62
   251
  5
29
 10
548.998462
 20
-88.000351
 30
0.0
 11
549.001553
 21
87.999649
 31
0.0
  0
LINE
  8
LY_1
  6
CONTINUOUS
 62
   251
  5
2A
 10
546.998462
 20
-88.000316
 30
0.0
 11
547.001553
 21
87.999684
 31
0.0
  0
LINE
  8
LY_1
  6
CONTINUOUS
 62
   251
  5
2B
 10
547.001017
 20
57.499684
 30
0.0
 11
674.001017
 21
57.497454
 31
0.0
  0
LINE
  8
LY_1
  6
CONTINUOUS
 62
   251
  5
2C
 10
635.450997
 20
57.498131
 30
0.0
 11
635.45108
 21
62.198111
 31
0.0
  0
LINE
  8
LY_1
  6
CONTINUOUS
 62
   251
  5
2D
 10
635.45108
 20
62.198111
 30
0.0
 11
673.55109
 21
62.197442
 31
0.0
  0
LINE
  8
LY_1
  6
CONTINUOUS
 62
   251
  5
2E
 10
673.55109
 20
62.197442
 30
0.0
 11
673.551007
 21
57.497462
 31
0.0
  0
LINE
  8
LY_1
  6
CONTINUOUS
 62
   251
  5
2F
 10
669.30109
 20
62.197516
 30
0.0
 11
669.301411
 21
80.497516
 31
0.0
  0
LINE
  8
LY_1
  6
CONTINUOUS
 62
   251
  5
30
 10
640.701399
 20
81.498019
 30
0.0
 11
668.301429
 21
81.497534
 31
0.0
  0
LINE
  8
LY_1
  6
CONTINUOUS
 62
   251
  5
31
 10
669.301441
 20
80.497536
 30
0.0
 11
668.301459
 21
81.497554
 31
0.0
  0
LINE
  8
LY_1
  6
CENTER
 62
     7
  5
33
 10
654.501557
 20
88.240536
 30
0.0
 11
654.500972
 21
54.938586
 31
0.0
  0
LINE
  8
LY_1
  6
CONTINUOUS
 62
   251
  5
34
 10
639.70108
 20
62.198036
 30
0.0
 11
639.701401
 21
80.498056
 31
0.0
  0
LINE
  8
LY_1
  6
CONTINUOUS
 62
   251
  5
35
 10
647.500491
 20
27.501379
 30
0.0
 11
634.500491
 21
27.501607
 31
0.0
  0
LINE
  8
LY_1
  6
CONTINUOUS
 62
   251
  5
36
 10
634.500754
 20
42.498147
 30
0.0
 11
647.500754
 21
42.497919
 31
0.0
  0
LINE
  8
LY_1
  6
CONTINUOUS
 62
   251
  5
37
 10
634.499261
 20
-42.501853
 30
0.0
 11
647.499261
 21
-42.502081
 31
0.0
  0
LINE
  8
LY_1
  6
CONTINUOUS
 62
   251
  5
38
 10
618.402157
 20
122.99843
 30
0.0
 11
618.402474
 21
140.99843
 31
0.0
  0
LINE
  8
LY_1
  6
CONTINUOUS
 62
   251
  5
39
 10
618.402504
 20
140.99847
 30
0.0
 11
617.402521
 21
141.998488
 31
0.0
  0
LINE
  8
LY_1
  6
CONTINUOUS
 62
   251
  5
3A
 10
617.402491
 20
141.998448
 30
0.0
 11
584.602501
 21
141.999024
 31
0.0
  0
LINE
  8
LY_1
  6
CONTINUOUS
 62
   251
  5
3B
 10
584.602501
 20
141.999024
 30
0.0
 11
583.602484
 21
140.999041
 31
0.0
  0
LINE
  8
LY_1
  6
CONTINUOUS
 62
   251
  5
3C
 10
583.602484
 20
140.999041
 30
0.0
 11
583.602167
 21
122.999041
 31
0.0
  0
LINE
  8
LY_1
  6
CONTINUOUS
 62
   251
  5
3D
 10
580.502131
 20
119.199106
 30
0.0
 11
580.502197
 21
122.999096
 31
0.0
  0
LINE
  8
LY_1
  6
CONTINUOUS
 62
   251
  5
3E
 10
580.502197
 20
122.999096
 30
0.0
 11
621.502167
 21
122.998376
 31
0.0
  0
LINE
  8
LY_1
  6
CONTINUOUS
 62
   251
  5
3F
 10
621.502167
 20
122.998376
 30
0.0
 11
621.502101
 21
119.198386
 31
0.0
  0
LINE
  8
LY_1
  6
CONTINUOUS
 62
   251
  5
40
 10
623.501553
 20
87.998321
 30
0.0
 11
623.502101
 21
119.198351
 31
0.0
  0
LINE
  8
LY_1
  6
CONTINUOUS
 62
   251
  5
41
 10
623.502101
 20
119.197601
 30
0.0
 11
578.502221
 21
119.198391
 31
0.0
  0
LINE
  8
LY_1
  6
CONTINUOUS
 62
   251
  5
42
 10
568.50157
 20
88.999216
 30
0.0
 11
568.501583
 21
87.999286
 31
0.0
  0
LINE
  8
LY_1
  6
CENTER
 62
     7
  5
43
 10
601.001975
 20
112.064286
 30
0.0
 11
601.00263
 21
149.354826
 31
0.0
  0
LINE
  8
LY_1
  6
CONTINUOUS
 62
   251
  5
44
 10
546.998998
 20
-57.500316
 30
0.0
 11
634.498998
 21
-57.501853
 31
0.0
  0
LINE
  8
LY_1
  6
CONTINUOUS
 62
   251
  5
45
 10
634.499525
 20
-27.505513
 30
0.0
 11
647.499525
 21
-27.505741
 31
0.0
  0
LINE
  8
LY_1
  6
CONTINUOUS
 62
   251
  5
46
 10
647.499335
 20
-40.036901
 30
0.0
 11
671.85524
 21
-39.186778
 31
0.0
  0
LINE
  8
LY_1
  6
CONTINUOUS
 62
   251
  5
47
 10
673.999481
 20
-30.002546
 30
0.0
 11
674.001017
 21
57.497454
 31
0.0
  0
LINE
  8
LY_1
  6
CONTINUOUS
 62
   251
  5
48
 10
639.701401
 20
80.498056
 30
0.0
 11
640.701419
 21
81.498039
 31
0.0
  0
LINE
  8
LY_1
  6
CONTINUOUS
 62
   251
  5
49
 10
647.500754
 20
42.497919
 30
0.0
 11
647.500754
 21
-42.502081
 31
0.0
  0
LINE
  8
LY_1
  6
CONTINUOUS
 62
   251
  5
4A
 10
641.006976
 20
42.497919
 30
0.0
 11
641.006976
 21
-42.501967
 31
0.0
  0
ARC
  8
LY_1
  6
CONTINUOUS
 62
   251
  5
4B
 10
643.951321
 20
-29.995089
 30
0.0
 40
30.048155
 50
343.618884
 51
359.985794
  0
ARC
  8
LY_1
  6
CONTINUOUS
 62
   251
  5
4C
 10
671.820317
 20
-38.187418
 30
0.0
 40
1.0
 50
271.999736
 51
343.618644
  0
ARC
  8
LY_1
  6
CONTINUOUS
 62
   251
  5
4D
 10
628.422046
 20
85.911584
 30
0.0
 40
60.0
 50
146.304414
 51
177.049664
  0
LINE
  8
LY_1
  6
CONTINUOUS
 62
   251
  5
4E
 10
546.998712
 20
-73.806316
 30
0.0
 11
528.998712
 21
-73.806
 31
0.0
  0
LINE
  8
LY_1
  6
CONTINUOUS
 62
   251
  5
4F
 10
547.001304
 20
73.805684
 30
0.0
 11
529.001304
 21
73.806
 31
0.0
  0
LINE
  8
LY_1
  6
CONTINUOUS
 62
   251
  5
50
 10
528.998462
 20
-88.0
 30
0.0
 11
634.498462
 21
-88.001853
 31
0.0
  0
LINE
  8
LY_1
  6
CONTINUOUS
 62
   251
  5
51
 10
634.501553
 20
87.998147
 30
0.0
 11
529.001553
 21
88.0
 31
0.0
  0
LINE
  8
LY_1
  6
CONTINUOUS
 62
   251
  5
52
 10
-17.819655
 20
119.20001
 30
0.0
 11
23.0
 21
119.20001
 31
0.0
  0
LINE
  8
LY_1
  6
CONTINUOUS
 62
   251
  5
53
 10
16.3999
 20
142.00001
 30
0.0
 11
17.3999
 21
141.00001
 31
0.0
  0
LINE
  8
LY_1
  6
CONTINUOUS
 62
   251
  5
54
 10
-17.40003
 20
140.99998
 30
0.0
 11
-16.40003
 21
142.00001
 31
0.0
  0
LINE
  8
LY_1
  6
CONTINUOUS
 62
   251
  5
55
 10
-16.40003
 20
142.0
 30
0.0
 11
16.3999
 21
142.0
 31
0.0
  0
LINE
  8
LY_1
  6
CONTINUOUS
 62
   251
  5
56
 10
-17.40003
 20
141.0
 30
0.0
 11
-17.40003
 21
123.0
 31
0.0
  0
LINE
  8
LY_1
  6
CONTINUOUS
 62
   251
  5
57
 10
17.3999
 20
123.0
 30
0.0
 11
17.3999
 21
141.0
 31
0.0
  0
LINE
  8
LY_1
  6
CONTINUOUS
 62
   251
  5
58
 10
-18.48969
 20
123.0
 30
0.0
 11
23.0
 21
123.0
 31
0.0
  0
LINE
  8
LY_1
  6
CONTINUOUS
 62
   251
  5
59
 10
23.0
 20
92.173749
 30
0.0
 11
23.0
 21
123.0
 31
0.0
  0
LINE
  8
LY_1
  6
CONTINUOUS
 62
   251
  5
5A
 10
-23.0
 20
96.848241
 30
0.0
 11
-23.0
 21
112.299326
 31
0.0
  0
LINE
  8
LY_1
  6
CONTINUOUS
 62
   251
  5
5B
 10
401.999945
 20
101.169557
 30
0.0
 11
401.999985
 21
94.275928
 31
0.0
  0
LINE
  8
LY_1
  6
CONTINUOUS
 62
   251
  5
5C
 10
16.762249
 20
95.063476
 30
0.0
 11
17.97777
 21
101.957152
 31
0.0
  0
LINE
  8
LY_1
  6
CONTINUOUS
 62
   251
  5
5D
 10
-0.00001
 20
-67.489998
 30
0.0
 11
0.000018
 21
-75.489985
 31
0.0
  0
POLYLINE
  8
LY_1
  6
CONTINUOUS
 62
   251
  5
5E
 66
     1
 10
0.0
 20
0.0
 30
0.0
  0
VERTEX
  8
LY_1
  6
CONTINUOUS
 62
   251
  5
176
 10
397.464839
 20
95.424993
 30
0.0
  0
VERTEX
  8
LY_1
  6
CONTINUOUS
 62
   251
  5
177
 10
397.215146
 20
95.309432
 30
0.0
  0
VERTEX
  8
LY_1
  6
CONTINUOUS
 62
   251
  5
178
 10
397.062507
 20
95.188883
 30
0.0
  0
VERTEX
  8
LY_1
  6
CONTINUOUS
 62
   251
  5
179
 10
397.01002
 20
95.06579
 30
0.0
  0
VERTEX
  8
LY_1
  6
CONTINUOUS
 62
   251
  5
17A
 10
397.058748
 20
94.942651
 30
0.0
  0
VERTEX
  8
LY_1
  6
CONTINUOUS
 62
   251
  5
17B
 10
397.207703
 20
94.821962
 30
0.0
  0
VERTEX
  8
LY_1
  6
CONTINUOUS
 62
   251
  5
17C
 10
397.453864
 20
94.706173
 30
0.0
  0
VERTEX
  8
LY_1
  6
CONTINUOUS
 62
   251
  5
17D
 10
397.792238
 20
94.597632
 30
0.0
  0
VERTEX
  8
LY_1
  6
CONTINUOUS
 62
   251
  5
17E
 10
398.215961
 20
94.49854
 30
0.0
  0
VERTEX
  8
LY_1
  6
CONTINUOUS
 62
   251
  5
17F
 10
398.716439
 20
94.410907
 30
0.0
  0
VERTEX
  8
LY_1
  6
CONTINUOUS
 62
   251
  5
180
 10
399.283519
 20
94.336512
 30
0.0
  0
VERTEX
  8
LY_1
  6
CONTINUOUS
 62
   251
  5
181
 10
399.9057
 20
94.276862
 30
0.0
  0
VERTEX
  8
LY_1
  6
CONTINUOUS
 62
   251
  5
182
 10
400.570361
 20
94.233168
 30
0.0
  0
VERTEX
  8
LY_1
  6
CONTINUOUS
 62
   251
  5
183
 10
401.264021
 20
94.206316
 30
0.0
  0
VERTEX
  8
LY_1
  6
CONTINUOUS
 62
   251
  5
184
 10
401.972608
 20
94.196851
 30
0.0
  0
VERTEX
  8
LY_1
  6
CONTINUOUS
 62
   251
  5
185
 10
402.681752
 20
94.204965
 30
0.0
  0
VERTEX
  8
LY_1
  6
CONTINUOUS
 62
   251
  5
186
 10
403.377066
 20
94.230493
 30
0.0
  0
VERTEX
  8
LY_1
  6
CONTINUOUS
 62
   251
  5
187
 10
404.044448
 20
94.272917
 30
0.0
  0
VERTEX
  8
LY_1
  6
CONTINUOUS
 62
   251
  5
188
 10
404.670361
 20
94.331378
 30
0.0
  0
VERTEX
  8
LY_1
  6
CONTINUOUS
 62
   251
  5
189
 10
405.242109
 20
94.404688
 30
0.0
  0
VERTEX
  8
LY_1
  6
CONTINUOUS
 62
   251
  5
18A
 10
405.748094
 20
94.491361
 30
0.0
  0
VERTEX
  8
LY_1
  6
CONTINUOUS
 62
   251
  5
18B
 10
406.178054
 20
94.589639
 30
0.0
  0
VERTEX
  8
LY_1
  6
CONTINUOUS
 62
   251
  5
18C
 10
406.523266
 20
94.697529
 30
0.0
  0
VERTEX
  8
LY_1
  6
CONTINUOUS
 62
   251
  5
18D
 10
406.77673
 20
94.812842
 30
0.0
  0
VERTEX
  8
LY_1
  6
CONTINUOUS
 62
   251
  5
18E
 10
406.933303
 20
94.933239
 30
0.0
  0
VERTEX
  8
LY_1
  6
CONTINUOUS
 62
   251
  5
18F
 10
406.98981
 20
95.056278
 30
0.0
  0
VERTEX
  8
LY_1
  6
CONTINUOUS
 62
   251
  5
190
 10
406.945104
 20
95.179463
 30
0.0
  0
VERTEX
  8
LY_1
  6
CONTINUOUS
 62
   251
  5
191
 10
406.800093
 20
95.300296
 30
0.0
  0
VERTEX
  8
LY_1
  6
CONTINUOUS
 62
   251
  5
192
 10
406.557718
 20
95.416326
 30
0.0
  0
VERTEX
  8
LY_1
  6
CONTINUOUS
 62
   251
  5
193
 10
406.54612
 20
95.42081
 30
0.0
  0
VERTEX
  8
LY_1
  6
CONTINUOUS
 62
   251
  5
194
 10
406.534377
 20
95.425283
 30
0.0
  0
SEQEND
  8
LY_1
  6
CONTINUOUS
 62
   251
  5
195
  0
POLYLINE
  8
LY_1
  6
CONTINUOUS
 62
   251
  5
5F
 66
     1
 10
0.0
 20
0.0
 30
0.0
  0
VERTEX
  8
LY_1
  6
CONTINUOUS
 62
   251
  5
196
 10
397.140007
 20
90.968843
 30
0.0
  0
VERTEX
  8
LY_1
  6
CONTINUOUS
 62
   251
  5
197
 10
397.181585
 20
90.858664
 30
0.0
  0
VERTEX
  8
LY_1
  6
CONTINUOUS
 62
   251
  5
198
 10
397.305607
 20
90.75037
 30
0.0
  0
VERTEX
  8
LY_1
  6
CONTINUOUS
 62
   251
  5
199
 10
397.509951
 20
90.645815
 30
0.0
  0
VERTEX
  8
LY_1
  6
CONTINUOUS
 62
   251
  5
19A
 10
397.791122
 20
90.546786
 30
0.0
  0
VERTEX
  8
LY_1
  6
CONTINUOUS
 62
   251
  5
19B
 10
398.144307
 20
90.454979
 30
0.0
  0
VERTEX
  8
LY_1
  6
CONTINUOUS
 62
   251
  5
19C
 10
398.563464
 20
90.371964
 30
0.0
  0
VERTEX
  8
LY_1
  6
CONTINUOUS
 62
   251
  5
19D
 10
399.041421
 20
90.299162
 30
0.0
  0
VERTEX
  8
LY_1
  6
CONTINUOUS
 62
   251
  5
19E
 10
399.57
 20
90.237818
 30
0.0
  0
VERTEX
  8
LY_1
  6
CONTINUOUS
 62
   251
  5
19F
 10
400.140156
 20
90.188983
 30
0.0
  0
VERTEX
  8
LY_1
  6
CONTINUOUS
 62
   251
  5
1A0
 10
400.742136
 20
90.153491
 30
0.0
  0
VERTEX
  8
LY_1
  6
CONTINUOUS
 62
   251
  5
1A1
 10
401.365637
 20
90.13195
 30
0.0
  0
VERTEX
  8
LY_1
  6
CONTINUOUS
 62
   251
  5
1A2
 10
401.999992
 20
90.124728
 30
0.0
  0
VERTEX
  8
LY_1
  6
CONTINUOUS
 62
   251
  5
1A3
 10
402.634348
 20
90.13195
 30
0.0
  0
VERTEX
  8
LY_1
  6
CONTINUOUS
 62
   251
  5
1A4
 10
403.257849
 20
90.153491
 30
0.0
  0
VERTEX
  8
LY_1
  6
CONTINUOUS
 62
   251
  5
1A5
 10
403.859828
 20
90.188983
 30
0.0
  0
VERTEX
  8
LY_1
  6
CONTINUOUS
 62
   251
  5
1A6
 10
404.429985
 20
90.237818
 30
0.0
  0
VERTEX
  8
LY_1
  6
CONTINUOUS
 62
   251
  5
1A7
 10
404.958564
 20
90.299162
 30
0.0
  0
VERTEX
  8
LY_1
  6
CONTINUOUS
 62
   251
  5
1A8
 10
405.436521
 20
90.371964
 30
0.0
  0
VERTEX
  8
LY_1
  6
CONTINUOUS
 62
   251
  5
1A9
 10
405.855678
 20
90.454979
 30
0.0
  0
VERTEX
  8
LY_1
  6
CONTINUOUS
 62
   251
  5
1AA
 10
406.208863
 20
90.546786
 30
0.0
  0
VERTEX
  8
LY_1
  6
CONTINUOUS
 62
   251
  5
1AB
 10
406.490033
 20
90.645815
 30
0.0
  0
VERTEX
  8
LY_1
  6
CONTINUOUS
 62
   251
  5
1AC
 10
406.694378
 20
90.75037
 30
0.0
  0
VERTEX
  8
LY_1
  6
CONTINUOUS
 62
   251
  5
1AD
 10
406.8184
 20
90.858664
 30
0.0
  0
VERTEX
  8
LY_1
  6
CONTINUOUS
 62
   251
  5
1AE
 10
406.859978
 20
90.968843
 30
0.0
  0
SEQEND
  8
LY_1
  6
CONTINUOUS
 62
   251
  5
1AF
  0
ARC
  8
LY_1
  6
CONTINUOUS
 62
   251
  5
60
 10
-70.7107
 20
70.710656
 30
0.0
 40
5.1
 50
326.073294
 51
303.926741
  0
ARC
  8
LY_1
  6
CONTINUOUS
 62
   251
  5
61
 10
70.710679
 20
70.710677
 30
0.0
 40
5.1
 50
236.073275
 51
213.926723
  0
ARC
  8
LY_1
  6
CENTER
 62
     7
  5
62
 10
0.0
 20
0.0
 30
0.0
 40
100.0
 50
37.842289
 51
51.877452
  0
ARC
  8
LY_1
  6
CONTINUOUS
 62
     7
  5
63
 10
70.710693
 20
70.710663
 30
0.0
 40
6.0
 50
257.594925
 51
192.40505
  0
ARC
  8
LY_1
  6
CENTER
 62
     7
  5
64
 10
0.0
 20
0.0
 30
0.0
 40
100.0
 50
128.283561
 51
141.877454
  0
ARC
  8
LY_1
  6
CONTINUOUS
 62
     7
  5
65
 10
-70.710693
 20
70.710663
 30
0.0
 40
6.0
 50
347.59495
 51
297.060844
  0
ARC
  8
LY_1
  6
CONTINUOUS
 62
   251
  5
66
 10
0.0
 20
0.0
 30
0.0
 40
116.5
 50
130.942744
 51
139.057256
  0
ARC
  8
LY_1
  6
CONTINUOUS
 62
   251
  5
67
 10
0.0
 20
0.0
 30
0.0
 40
116.5
 50
40.942744
 51
49.057256
  0
ARC
  8
LY_1
  6
CONTINUOUS
 62
   251
  5
68
 10
416.999992
 20
72.5
 30
0.0
 40
5.0
 50
179.999991
 51
270.000001
  0
ARC
  8
LY_1
  6
CONTINUOUS
 62
   251
  5
69
 10
506.000008
 20
72.5
 30
0.0
 40
5.0
 50
269.999997
 51
0.0
  0
ARC
  8
LY_1
  6
CONTINUOUS
 62
   251
  5
6A
 10
506.000008
 20
-72.500008
 30
0.0
 40
5.0
 50
0.0
 51
90.000003
  0
ARC
  8
LY_1
  6
CONTINUOUS
 62
   251
  5
6B
 10
416.999992
 20
-72.500008
 30
0.0
 40
5.0
 50
90.000003
 51
180.000005
  0
ARC
  8
LY_1
  6
CONTINUOUS
 62
   251
  5
6C
 10
414.956779
 20
93.201263
 30
0.0
 40
4.0
 50
126.08644
 51
188.554038
  0
ARC
  8
LY_1
  6
CONTINUOUS
 62
   251
  5
6D
 10
391.043205
 20
93.201263
 30
0.0
 40
4.0
 50
351.445928
 51
53.913579
  0
ARC
  8
LY_1
  6
CONTINUOUS
 62
   251
  5
6E
 10
408.440178
 20
95.606293
 30
0.0
 40
2.0
 50
10.000004
 51
89.999982
  0
ARC
  8
LY_1
  6
CONTINUOUS
 62
   251
  5
6F
 10
397.559807
 20
95.606293
 30
0.0
 40
2.0
 50
104.725713
 51
170.000021
  0
ARC
  8
LY_1
  6
CONTINUOUS
 62
   251
  5
70
 10
402.999992
 20
109.606293
 30
0.0
 40
10.0
 50
293.562695
 51
233.582661
  0
ARC
  8
LY_1
  6
CONTINUOUS
 62
   251
  5
71
 10
402.999992
 20
109.606293
 30
0.0
 40
16.299999
 50
306.086414
 51
233.913543
  0
ARC
  8
LY_1
  6
CONTINUOUS
 62
   251
  5
72
 10
0.0
 20
0.0
 30
0.0
 40
95.0
 50
176.983028
 51
183.017009
  0
ARC
  8
LY_1
  6
CONTINUOUS
 62
   251
  5
73
 10
0.0
 20
0.0
 30
0.0
 40
95.0
 50
163.98287
 51
170.017178
  0
ARC
  8
LY_1
  6
CONTINUOUS
 62
   251
  5
74
 10
0.0
 20
0.0
 30
0.0
 40
95.0
 50
143.350631
 51
156.649023
  0
ARC
  8
LY_1
  6
CONTINUOUS
 62
   251
  5
75
 10
0.0
 20
0.0
 30
0.0
 40
95.0
 50
129.982926
 51
136.017111
  0
ARC
  8
LY_1
  6
CONTINUOUS
 62
   251
  5
76
 10
0.0
 20
0.0
 30
0.0
 40
95.0
 50
116.983027
 51
123.016939
  0
ARC
  8
LY_1
  6
CONTINUOUS
 62
   251
  5
77
 10
0.0
 20
0.0
 30
0.0
 40
95.0
 50
103.982957
 51
110.016937
  0
ARC
  8
LY_1
  6
CONTINUOUS
 62
   251
  5
78
 10
0.0
 20
0.0
 30
0.0
 40
95.0
 50
23.350631
 51
96.649349
  0
ARC
  8
LY_1
  6
CONTINUOUS
 62
   251
  5
79
 10
0.0
 20
0.0
 30
0.0
 40
95.0
 50
9.983049
 51
16.01707
  0
ARC
  8
LY_1
  6
CONTINUOUS
 62
   251
  5
7A
 10
0.0
 20
0.0
 30
0.0
 40
95.0
 50
356.983082
 51
3.017021
  0
ARC
  8
LY_1
  6
CONTINUOUS
 62
   251
  5
7B
 10
248.0
 20
0.0
 30
0.0
 40
5.0
 50
269.999997
 51
90.000003
  0
ARC
  8
LY_1
  6
CONTINUOUS
 62
   251
  5
7C
 10
324.000008
 20
69.550812
 30
0.0
 40
5.0
 50
272.999919
 51
0.0
  0
ARC
  8
LY_1
  6
CONTINUOUS
 62
   251
  5
7D
 10
286.018547
 20
-48.987
 30
0.0
 40
5.0
 50
355.000017
 51
89.999982
  0
ARC
  8
LY_1
  6
CONTINUOUS
 62
   251
  5
7E
 10
314.000008
 20
-113.000008
 30
0.0
 40
5.0
 50
270.000018
 51
0.0
  0
ARC
  8
LY_1
  6
CONTINUOUS
 62
   251
  5
7F
 10
280.418327
 20
-113.000008
 30
0.0
 40
5.0
 50
270.000018
 51
354.999989
  0
ARC
  8
LY_1
  6
CONTINUOUS
 62
   251
  5
80
 10
324.000008
 20
14.649109
 30
0.0
 40
5.0
 50
283.342301
 51
0.0
  0
ARC
  8
LY_1
  6
CONTINUOUS
 62
   251
  5
81
 10
327.000008
 20
2.0
 30
0.0
 40
8.0
 50
103.342422
 51
179.999964
  0
ARC
  8
LY_1
  6
CONTINUOUS
 62
   251
  5
82
 10
411.966423
 20
-91.000008
 30
0.0
 40
27.0
 50
211.999964
 51
270.000018
  0
ARC
  8
LY_1
  6
CONTINUOUS
 62
   251
  5
83
 10
0.0
 20
0.0
 30
0.0
 40
19.0
 50
15.257523
 51
344.742477
  0
ARC
  8
LY_1
  6
CONTINUOUS
 62
   251
  5
84
 10
33.853027
 20
-58.397095
 30
0.0
 40
5.0
 50
15.000004
 51
120.101022
  0
ARC
  8
LY_1
  6
CONTINUOUS
 62
   251
  5
85
 10
-33.853027
 20
-58.397095
 30
0.0
 40
5.0
 50
59.898915
 51
164.999994
  0
ARC
  8
LY_1
  6
CONTINUOUS
 62
   251
  5
86
 10
-52.387085
 20
-42.565674
 30
0.0
 40
5.0
 50
344.999996
 51
39.094596
  0
ARC
  8
LY_1
  6
CONTINUOUS
 62
   251
  5
87
 10
-65.812256
 20
15.0
 30
0.0
 40
5.0
 50
269.999997
 51
347.160411
  0
ARC
  8
LY_1
  6
CONTINUOUS
 62
   251
  5
88
 10
-65.812256
 20
-15.0
 30
0.0
 40
5.0
 50
12.839589
 51
90.000003
  0
ARC
  8
LY_1
  6
CONTINUOUS
 62
   251
  5
89
 10
65.812256
 20
-15.0
 30
0.0
 40
5.0
 50
90.000003
 51
167.160411
  0
ARC
  8
LY_1
  6
CONTINUOUS
 62
   251
  5
8A
 10
65.812256
 20
15.0
 30
0.0
 40
5.0
 50
192.839589
 51
269.999997
  0
ARC
  8
LY_1
  6
CONTINUOUS
 62
   251
  5
8B
 10
-53.0
 20
-139.000008
 30
0.0
 40
2.0
 50
89.999982
 51
179.999964
  0
ARC
  8
LY_1
  6
CONTINUOUS
 62
   251
  5
8C
 10
53.0
 20
-139.000008
 30
0.0
 40
2.0
 50
0.0
 51
89.999982
  0
ARC
  8
LY_1
  6
CONTINUOUS
 62
   251
  5
8D
 10
-80.377075
 20
-15.0
 30
0.0
 40
5.0
 50
89.999982
 51
171.999982
  0
ARC
  8
LY_1
  6
CONTINUOUS
 62
   251
  5
8E
 10
-94.150024
 20
-113.000008
 30
0.0
 40
5.0
 50
171.999941
 51
269.999946
  0
ARC
  8
LY_1
  6
CONTINUOUS
 62
   251
  5
8F
 10
80.377075
 20
-15.0
 30
0.0
 40
5.0
 50
7.999984
 51
89.999982
  0
ARC
  8
LY_1
  6
CONTINUOUS
 62
   251
  5
90
 10
94.150146
 20
-113.000008
 30
0.0
 40
5.0
 50
270.000018
 51
8.000021
  0
ARC
  8
LY_1
  6
CENTER
 62
     7
  5
91
 10
0.0
 20
0.0
 30
0.0
 40
81.0
 50
264.692913
 51
275.307054
  0
ARC
  8
LY_1
  6
CENTER
 62
     7
  5
92
 10
0.0
 20
0.0
 30
0.0
 40
81.0
 50
204.692918
 51
215.30706
  0
ARC
  8
LY_1
  6
CENTER
 62
     7
  5
93
 10
0.0
 20
0.0
 30
0.0
 40
81.0
 50
144.692913
 51
155.307054
  0
ARC
  8
LY_1
  6
CENTER
 62
     7
  5
94
 10
0.0
 20
0.0
 30
0.0
 40
81.0
 50
84.692925
 51
95.307053
  0
ARC
  8
LY_1
  6
CENTER
 62
     7
  5
95
 10
0.0
 20
0.0
 30
0.0
 40
81.0
 50
24.692934
 51
35.307054
  0
ARC
  8
LY_1
  6
CENTER
 62
     7
  5
96
 10
0.0
 20
0.0
 30
0.0
 40
81.0
 50
324.692908
 51
335.307049
  0
ARC
  8
LY_1
  6
CONTINUOUS
 62
   251
  5
97
 10
0.0
 20
0.0
 30
0.0
 40
92.5
 50
4.360909
 51
175.639216
  0
ARC
  8
LY_1
  6
CONTINUOUS
 62
   251
  5
98
 10
-87.664307
 20
5.0
 30
0.0
 40
5.0
 50
89.999982
 51
171.999982
  0
ARC
  8
LY_1
  6
CONTINUOUS
 62
   251
  5
99
 10
-71.259888
 20
-113.000008
 30
0.0
 40
5.0
 50
269.999963
 51
345.00003
  0
ARC
  8
LY_1
  6
CONTINUOUS
 62
   251
  5
9A
 10
71.26001
 20
-113.000008
 30
0.0
 40
5.0
 50
194.999951
 51
270.000018
  0
ARC
  8
LY_1
  6
CONTINUOUS
 62
   251
  5
9B
 10
87.664429
 20
5.0
 30
0.0
 40
5.0
 50
7.999984
 51
89.999982
  0
CIRCLE
  8
LY_1
  6
CONTINUOUS
 62
   251
  5
9C
 10
0.0
 20
0.0
 30
0.0
 40
47.5
  0
CIRCLE
  8
LY_1
  6
CONTINUOUS
 62
   251
  5
9D
 10
0.0
 20
0.0
 30
0.0
 40
62.5
  0
ARC
  8
LY_1
  6
CONTINUOUS
 62
   251
  5
9E
 10
52.387085
 20
-42.565735
 30
0.0
 40
5.0
 50
140.905327
 51
195.000002
  0
CIRCLE
  8
LY_1
  6
CONTINUOUS
 62
   251
  5
9F
 10
378.999992
 20
0.0
 30
0.0
 40
4.990937
  0
ARC
  8
LY_1
  6
CONTINUOUS
 62
   251
  5
A0
 10
-21.589539
 20
122.440125
 30
0.0
 40
3.15
 50
9.999875
 51
189.99988
  0
ARC
  8
LY_1
  6
CONTINUOUS
 62
   251
  5
A1
 10
-20.78833
 20
93.997147
 30
0.0
 40
1.0
 50
279.999879
 51
9.999916
  0
ARC
  8
LY_1
  6
CONTINUOUS
 62
   251
  5
A2
 10
-23.232544
 20
95.597031
 30
0.0
 40
1.0
 50
117.667002
 51
179.999868
  0
ARC
  8
LY_1
  6
CONTINUOUS
 62
   251
  5
A3
 10
-10.864807
 20
97.777756
 30
0.0
 40
1.0
 50
19.999928
 51
82.332801
  0
ARC
  8
LY_1
  6
CONTINUOUS
 62
   251
  5
A4
 10
-12.614441
 20
95.4384
 30
0.0
 40
1.0
 50
189.999897
 51
279.999934
  0
LINE
  8
LY_1
  6
CENTER
 62
     7
  5
A5
 10
63.356298
 20
63.356296
 30
0.0
 11
78.243002
 21
78.243
 31
0.0
  0
LINE
  8
LY_1
  6
CENTER
 62
     7
  5
A6
 10
-63.356307
 20
63.356264
 30
0.0
 11
-78.243011
 21
78.242967
 31
0.0
  0
LINE
  8
LY_1
  6
CONTINUOUS
 62
   251
  5
A7
 10
35.79106
 20
88.0
 30
0.0
 11
76.342976
 21
88.0
 31
0.0
  0
LINE
  8
LY_1
  6
CONTINUOUS
 62
   251
  5
A8
 10
-88.0
 20
76.342976
 30
0.0
 11
-88.0
 21
28.5
 31
0.0
  0
LINE
  8
LY_1
  6
CONTINUOUS
 62
   251
  5
A9
 10
88.0
 20
76.342976
 30
0.0
 11
88.0
 21
28.5
 31
0.0
  0
LINE
  8
LY_1
  6
CONTINUOUS
 62
   251
  5
AA
 10
-76.342976
 20
88.0
 30
0.0
 11
-32.389619
 21
88.0
 31
0.0
  0
LINE
  8
LY_1
  6
CONTINUOUS
 62
   251
  5
AB
 10
245.0
 20
5.0
 30
0.0
 11
245.0
 21
-5.0
 31
0.0
  0
LINE
  8
LY_1
  6
CONTINUOUS
 62
   251
  5
AC
 10
22.0
 20
5.0
 30
0.0
 11
22.0
 21
-5.0
 31
0.0
  0
LINE
  8
LY_1
  6
CONTINUOUS
 62
   251
  5
AD
 10
416.999992
 20
-67.5
 30
0.0
 11
506.000008
 21
-67.5
 31
0.0
  0
LINE
  8
LY_1
  6
CONTINUOUS
 62
   251
  5
AE
 10
511.000008
 20
-88.000008
 30
0.0
 11
529.000008
 21
-88.000008
 31
0.0
  0
LINE
  8
LY_1
  6
CONTINUOUS
 62
   251
  5
AF
 10
416.999992
 20
67.5
 30
0.0
 11
506.000008
 21
67.5
 31
0.0
  0
LINE
  8
LY_1
  6
CONTINUOUS
 62
   251
  5
B0
 10
511.000008
 20
88.0
 30
0.0
 11
511.000008
 21
-88.000008
 31
0.0
  0
LINE
  8
LY_1
  6
CONTINUOUS
 62
   251
  5
B1
 10
511.000008
 20
88.0
 30
0.0
 11
529.000008
 21
88.0
 31
0.0
  0
LINE
  8
LY_1
  6
CONTINUOUS
 62
   251
  5
B2
 10
529.000008
 20
88.0
 30
0.0
 11
529.000008
 21
-88.000008
 31
0.0
  0
LINE
  8
LY_1
  6
CONTINUOUS
 62
   251
  5
B3
 10
411.999992
 20
92.5
 30
0.0
 11
411.999992
 21
-92.500008
 31
0.0
  0
LINE
  8
LY_1
  6
CONTINUOUS
 62
   251
  5
B4
 10
407.015349
 20
98.260968
 30
0.0
 11
409.130252
 21
97.483454
 31
0.0
  0
LINE
  8
LY_1
  6
CONTINUOUS
 62
   251
  5
B5
 10
406.936516
 20
97.606293
 30
0.0
 11
408.440178
 21
97.606293
 31
0.0
  0
LINE
  8
LY_1
  6
CENTER
 62
     7
  5
B6
 10
383.244011
 20
109.606293
 30
0.0
 11
422.751472
 21
109.606293
 31
0.0
  0
LINE
  8
LY_1
  6
CONTINUOUS
 62
   251
  5
B7
 10
410.40982
 20
95.953606
 30
0.0
 11
411.000037
 21
92.606318
 31
0.0
  0
LINE
  8
LY_1
  6
CONTINUOUS
 62
   251
  5
B8
 10
394.999884
 20
92.606323
 30
0.0
 11
395.5901
 21
95.953604
 31
0.0
  0
LINE
  8
LY_1
  6
CENTER
 62
     7
  5
B9
 10
402.999992
 20
129.519424
 30
0.0
 11
402.999992
 21
107.335762
 31
0.0
  0
LINE
  8
LY_1
  6
CONTINUOUS
 62
   251
  5
BA
 10
407.129997
 20
92.5
 30
0.0
 11
411.999992
 21
92.5
 31
0.0
  0
LINE
  8
LY_1
  6
CONTINUOUS
 62
   251
  5
BB
 10
406.989948
 20
95.058704
 30
0.0
 11
406.85995
 21
90.964175
 31
0.0
  0
LINE
  8
LY_1
  6
CONTINUOUS
 62
   251
  5
BC
 10
397.140017
 20
90.964199
 30
0.0
 11
397.010019
 21
95.058724
 31
0.0
  0
LINE
  8
LY_1
  6
CONTINUOUS
 62
     7
  5
BD
 10
401.999985
 20
94.275928
 30
0.0
 11
397.464972
 21
101.9572
 31
0.0
  0
LINE
  8
LY_1
  6
CONTINUOUS
 62
     7
  5
BE
 10
406.535006
 20
101.957179
 30
0.0
 11
401.999994
 21
94.275907
 31
0.0
  0
LINE
  8
LY_1
  6
CONTINUOUS
 62
     7
  5
BF
 10
401.999958
 20
101.16956
 30
0.0
 11
406.534936
 21
95.063528
 31
0.0
  0
LINE
  8
LY_1
  6
CONTINUOUS
 62
     7
  5
C0
 10
397.464939
 20
95.063477
 30
0.0
 11
401.999954
 21
101.169558
 31
0.0
  0
LINE
  8
LY_1
  6
CONTINUOUS
 62
   251
  5
C1
 10
401.99994
 20
94.275907
 30
0.0
 11
397.464918
 21
95.063504
 31
0.0
  0
LINE
  8
LY_1
  6
CONTINUOUS
 62
   251
  5
C2
 10
406.534911
 20
95.063499
 30
0.0
 11
401.999888
 21
94.275901
 31
0.0
  0
LINE
  8
LY_1
  6
CONTINUOUS
 62
   251
  5
C3
 10
402.00004
 20
102.74474
 30
0.0
 11
397.465014
 21
101.957159
 31
0.0
  0
LINE
  8
LY_1
  6
CONTINUOUS
 62
   251
  5
C4
 10
406.534943
 20
101.957149
 30
0.0
 11
402.000039
 21
102.744709
 31
0.0
  0
LINE
  8
LY_1
  6
CONTINUOUS
 62
   251
  5
C5
 10
402.000027
 20
101.169565
 30
0.0
 11
406.535049
 21
101.957165
 31
0.0
  0
LINE
  8
LY_1
  6
CONTINUOUS
 62
   251
  5
C6
 10
397.464923
 20
101.957157
 30
0.0
 11
401.999945
 21
101.169557
 31
0.0
  0
LINE
  8
LY_1
  6
CONTINUOUS
 62
   251
  5
C7
 10
406.535027
 20
101.957153
 30
0.0
 11
406.535027
 21
95.063507
 31
0.0
  0
LINE
  8
LY_1
  6
CONTINUOUS
 62
   251
  5
C8
 10
397.464958
 20
101.957153
 30
0.0
 11
397.464958
 21
95.063507
 31
0.0
  0
LINE
  8
LY_1
  6
CENTER
 62
     7
  5
C9
 10
401.999992
 20
105.631134
 30
0.0
 11
401.999992
 21
87.07181
 31
0.0
  0
LINE
  8
LY_1
  6
CONTINUOUS
 62
   251
  5
CA
 10
393.999992
 20
92.5
 30
0.0
 11
396.887688
 21
92.5
 31
0.0
  0
LINE
  8
LY_1
  6
CONTINUOUS
 62
   251
  5
CB
 10
393.999992
 20
-92.500008
 30
0.0
 11
411.999992
 21
-92.500008
 31
0.0
  0
LINE
  8
LY_1
  6
CONTINUOUS
 62
     7
  5
CC
 10
103.529994
 20
0.000009
 30
0.0
 11
96.529994
 21
4.535543
 31
0.0
  0
LINE
  8
LY_1
  6
CONTINUOUS
 62
     7
  5
CD
 10
96.529993
 20
-0.000006
 30
0.0
 11
103.530006
 21
4.535536
 31
0.0
  0
LINE
  8
LY_1
  6
CONTINUOUS
 62
     7
  5
CE
 10
103.530008
 20
0.000003
 30
0.0
 11
96.529996
 21
-4.535539
 31
0.0
  0
LINE
  8
LY_1
  6
CONTINUOUS
 62
     7
  5
CF
 10
103.530004
 20
-4.535533
 30
0.0
 11
96.530004
 21
0.000001
 31
0.0
  0
LINE
  8
LY_1
  6
CONTINUOUS
 62
   251
  5
D0
 10
96.529999
 20
-4.990936
 30
0.0
 11
96.529999
 21
4.990936
 31
0.0
  0
LINE
  8
LY_1
  6
CONTINUOUS
 62
   251
  5
D1
 10
103.529999
 20
-4.535534
 30
0.0
 11
103.529999
 21
4.535534
 31
0.0
  0
LINE
  8
LY_1
  6
CONTINUOUS
 62
   251
  5
D2
 10
96.529981
 20
4.990937
 30
0.0
 11
94.87152
 21
4.93911
 31
0.0
  0
LINE
  8
LY_1
  6
CONTINUOUS
 62
   251
  5
D3
 10
103.529999
 20
4.535534
 30
0.0
 11
96.529999
 21
4.535534
 31
0.0
  0
LINE
  8
LY_1
  6
CONTINUOUS
 62
   251
  5
D4
 10
103.529999
 20
-4.535534
 30
0.0
 11
96.529999
 21
-4.535534
 31
0.0
  0
LINE
  8
LY_1
  6
CONTINUOUS
 62
   251
  5
D5
 10
96.52999
 20
-4.990937
 30
0.0
 11
94.871528
 21
-4.93911
 31
0.0
  0
LINE
  8
LY_1
  6
CONTINUOUS
 62
     7
  5
D6
 10
17.977786
 20
101.957143
 30
0.0
 11
21.228892
 21
94.275908
 31
0.0
  0
LINE
  8
LY_1
  6
CONTINUOUS
 62
     7
  5
D7
 10
13.511189
 20
102.74474
 30
0.0
 11
16.762266
 21
95.063509
 31
0.0
  0
LINE
  8
LY_1
  6
CONTINUOUS
 62
     7
  5
D8
 10
17.97779
 20
101.957123
 30
0.0
 11
12.295642
 21
95.851061
 31
0.0
  0
LINE
  8
LY_1
  6
CONTINUOUS
 62
     7
  5
D9
 10
16.762249
 20
95.063476
 30
0.0
 11
22.444438
 21
101.169543
 31
0.0
  0
LINE
  8
LY_1
  6
CONTINUOUS
 62
   251
  5
DA
 10
378.999998
 20
-4.990938
 30
0.0
 11
374.009056
 21
0.000004
 31
0.0
  0
LINE
  8
LY_1
  6
CONTINUOUS
 62
   251
  5
DB
 10
378.999993
 20
4.990941
 30
0.0
 11
374.009056
 21
0.000004
 31
0.0
  0
LINE
  8
LY_1
  6
CONTINUOUS
 62
   251
  5
DC
 10
383.990935
 20
-0.000001
 30
0.0
 11
378.999993
 21
4.990941
 31
0.0
  0
LINE
  8
LY_1
  6
CONTINUOUS
 62
   251
  5
DD
 10
378.999998
 20
-4.990938
 30
0.0
 11
383.990935
 21
-0.000001
 31
0.0
  0
LINE
  8
LY_1
  6
DASHED
 62
     7
  5
DF
 10
308.949745
 20
-68.433321
 30
0.0
 11
302.999999
 21
-76.433321
 31
0.0
  0
LINE
  8
LY_1
  6
DASHED
 62
     7
  5
E0
 10
303.000005
 20
-68.433331
 30
0.0
 11
308.949749
 21
-76.433327
 31
0.0
  0
LINE
  8
LY_1
  6
DASHED
 62
     7
  5
E1
 10
303.000001
 20
-76.433324
 30
0.0
 11
297.050257
 21
-68.433328
 31
0.0
  0
LINE
  8
LY_1
  6
DASHED
 62
     7
  5
E2
 10
297.050247
 20
-76.433326
 30
0.0
 11
302.999998
 21
-68.43332
 31
0.0
  0
LINE
  8
LY_1
  6
DASHED
 62
     7
  5
E3
 10
308.949745
 20
-76.433327
 30
0.0
 11
308.949745
 21
-68.433319
 31
0.0
  0
LINE
  8
LY_1
  6
DASHED
 62
     7
  5
E4
 10
297.050255
 20
-76.433327
 30
0.0
 11
297.050255
 21
-68.433319
 31
0.0
  0
LINE
  8
LY_1
  6
DASHED
 62
     7
  5
E5
 10
309.735928
 20
-68.433321
 30
0.0
 11
309.590784
 21
-63.788722
 31
0.0
  0
LINE
  8
LY_1
  6
DASHED
 62
     7
  5
E6
 10
296.264059
 20
-68.433323
 30
0.0
 11
296.430756
 21
-63.099043
 31
0.0
  0
LINE
  8
LY_1
  6
DASHED
 62
     7
  5
E7
 10
296.264061
 20
-68.433319
 30
0.0
 11
309.735939
 21
-68.433319
 31
0.0
  0
LINE
  8
LY_1
  6
DASHED
 62
     7
  5
E8
 10
297.050255
 20
-76.433327
 30
0.0
 11
308.949745
 21
-76.433327
 31
0.0
  0
LINE
  8
LY_1
  6
CONTINUOUS
 62
     7
  5
E9
 10
5.949758
 20
-67.489972
 30
0.0
 11
0.000004
 21
-75.48998
 31
0.0
  0
LINE
  8
LY_1
  6
CONTINUOUS
 62
     7
  5
EA
 10
0.000006
 20
-67.489994
 30
0.0
 11
5.949755
 21
-75.489996
 31
0.0
  0
LINE
  8
LY_1
  6
CONTINUOUS
 62
     7
  5
EB
 10
0.000018
 20
-75.489985
 30
0.0
 11
-5.949731
 21
-67.489983
 31
0.0
  0
LINE
  8
LY_1
  6
CONTINUOUS
 62
     7
  5
EC
 10
-5.949745
 20
-75.489982
 30
0.0
 11
0.000008
 21
-67.489973
 31
0.0
  0
LINE
  8
LY_1
  6
CONTINUOUS
 62
   251
  5
ED
 10
5.949738
 20
-75.489998
 30
0.0
 11
5.949738
 21
-67.489998
 31
0.0
  0
LINE
  8
LY_1
  6
CONTINUOUS
 62
   251
  5
EE
 10
-5.949738
 20
-75.489998
 30
0.0
 11
-5.949738
 21
-67.489998
 31
0.0
  0
LINE
  8
LY_1
  6
CONTINUOUS
 62
   251
  5
EF
 10
6.735932
 20
-67.489996
 30
0.0
 11
6.569177
 21
-62.15381
 31
0.0
  0
LINE
  8
LY_1
  6
CONTINUOUS
 62
   251
  5
F0
 10
-6.735936
 20
-67.489992
 30
0.0
 11
-6.56918
 21
-62.153806
 31
0.0
  0
LINE
  8
LY_1
  6
CONTINUOUS
 62
   251
  5
F1
 10
-6.735931
 20
-67.489998
 30
0.0
 11
6.735931
 21
-67.489998
 31
0.0
  0
LINE
  8
LY_1
  6
CONTINUOUS
 62
   251
  5
F2
 10
-5.949738
 20
-75.489998
 30
0.0
 11
5.949738
 21
-75.489998
 31
0.0
  0
LINE
  8
LY_1
  6
CONTINUOUS
 62
   251
  5
F3
 10
394.003868
 20
92.791359
 30
0.0
 11
394.003868
 21
92.5
 31
0.0
  0
LINE
  8
LY_1
  6
CONTINUOUS
 62
   251
  5
F4
 10
-94.868418
 20
-5.000607
 30
0.0
 11
-94.139189
 21
-5.144483
 31
0.0
  0
LINE
  8
LY_1
  6
CONTINUOUS
 62
   251
  5
F5
 10
-94.868485
 20
4.999784
 30
0.0
 11
-92.33639
 21
5.499335
 31
0.0
  0
LINE
  8
LY_1
  6
CONTINUOUS
 62
   251
  5
F6
 10
-93.562184
 20
16.467638
 30
0.0
 11
-91.207178
 21
15.41118
 31
0.0
  0
LINE
  8
LY_1
  6
CONTINUOUS
 62
   251
  5
F7
 10
-91.312035
 20
26.213426
 30
0.0
 11
-88.732424
 21
26.130576
 31
0.0
  0
LINE
  8
LY_1
  6
CONTINUOUS
 62
   251
  5
F8
 10
-87.218945
 20
37.653975
 30
0.0
 11
-85.332737
 21
35.701176
 31
0.0
  0
LINE
  8
LY_1
  6
CONTINUOUS
 62
   251
  5
F9
 10
-76.218812
 20
56.707482
 30
0.0
 11
-73.58409
 21
56.050266
 31
0.0
  0
LINE
  8
LY_1
  6
CONTINUOUS
 62
   251
  5
FA
 10
-68.356725
 20
65.972448
 30
0.0
 11
-66.995246
 21
63.779988
 31
0.0
  0
LINE
  8
LY_1
  6
CONTINUOUS
 62
   251
  5
FB
 10
-61.043645
 20
72.791511
 30
0.0
 11
-58.951816
 21
71.280674
 31
0.0
  0
LINE
  8
LY_1
  6
CONTINUOUS
 62
   251
  5
FC
 10
-51.764642
 20
79.65831
 30
0.0
 11
-50.931219
 21
77.215676
 31
0.0
  0
LINE
  8
LY_1
  6
CONTINUOUS
 62
   251
  5
FD
 10
-43.104411
 20
84.657885
 30
0.0
 11
-41.406
 21
82.715143
 31
0.0
  0
LINE
  8
LY_1
  6
CONTINUOUS
 62
   251
  5
FE
 10
-32.518607
 20
89.2612
 30
0.0
 11
-32.256019
 21
86.693706
 31
0.0
  0
LINE
  8
LY_1
  6
CONTINUOUS
 62
   251
  5
FF
 10
-22.955778
 20
92.184518
 30
0.0
 11
-21.737904
 21
89.909481
 31
0.0
  0
LINE
  8
LY_1
  6
CONTINUOUS
 62
   251
  5
100
 10
-11.000013
 20
94.360994
 30
0.0
 11
-11.748131
 21
91.750921
 31
0.0
  0
LINE
  8
LY_1
  6
CONTINUOUS
 62
   251
  5
101
 10
87.219322
 20
37.653859
 30
0.0
 11
85.33288
 21
35.700818
 31
0.0
  0
LINE
  8
LY_1
  6
CONTINUOUS
 62
   251
  5
102
 10
91.311894
 20
26.212288
 30
0.0
 11
88.732748
 21
26.12948
 31
0.0
  0
LINE
  8
LY_1
  6
CONTINUOUS
 62
   251
  5
103
 10
93.561611
 20
16.468769
 30
0.0
 11
91.206955
 21
15.412498
 31
0.0
  0
LINE
  8
LY_1
  6
CONTINUOUS
 62
   251
  5
104
 10
94.86817
 20
4.999438
 30
0.0
 11
92.652371
 21
5.436613
 31
0.0
  0
LINE
  8
LY_1
  6
CONTINUOUS
 62
   251
  5
105
 10
94.868316
 20
-5.000149
 30
0.0
 11
94.139355
 21
-5.143964
 31
0.0
  0
LINE
  8
LY_1
  6
CONTINUOUS
 62
   251
  5
106
 10
200.0
 20
5.0
 30
0.0
 11
248.0
 21
5.0
 31
0.0
  0
LINE
  8
LY_1
  6
CONTINUOUS
 62
   251
  5
107
 10
200.0
 20
-5.0
 30
0.0
 11
248.0
 21
-5.0
 31
0.0
  0
LINE
  8
LY_1
  6
CONTINUOUS
 62
   251
  5
108
 10
255.0
 20
22.5
 30
0.0
 11
259.999992
 21
22.5
 31
0.0
  0
LINE
  8
LY_1
  6
CONTINUOUS
 62
   251
  5
109
 10
255.0
 20
-22.5
 30
0.0
 11
259.999992
 21
-22.5
 31
0.0
  0
LINE
  8
LY_1
  6
CONTINUOUS
 62
   251
  5
10A
 10
255.0
 20
22.5
 30
0.0
 11
255.0
 21
-22.5
 31
0.0
  0
LINE
  8
LY_1
  6
CONTINUOUS
 62
   251
  5
10B
 10
200.0
 20
-19.0
 30
0.0
 11
255.0
 21
-19.0
 31
0.0
  0
LINE
  8
LY_1
  6
CONTINUOUS
 62
   251
  5
10C
 10
200.0
 20
19.0
 30
0.0
 11
255.0
 21
19.0
 31
0.0
  0
LINE
  8
LY_1
  6
CONTINUOUS
 62
   251
  5
10D
 10
200.0
 20
19.0
 30
0.0
 11
200.0
 21
-19.0
 31
0.0
  0
LINE
  8
LY_1
  6
CENTER
 62
     7
  5
10E
 10
188.0
 20
0.0
 30
0.0
 11
686.953736
 21
0.0
 31
0.0
  0
LINE
  8
LY_1
  6
CONTINUOUS
 62
   251
  5
10F
 10
411.966423
 20
-118.000008
 30
0.0
 11
445.000008
 21
-118.000008
 31
0.0
  0
LINE
  8
LY_1
  6
DASHED
 62
     7
  5
110
 10
432.500008
 20
-118.000008
 30
0.0
 11
432.500008
 21
-140.000008
 31
0.0
  0
LINE
  8
LY_1
  6
CENTER
 62
     7
  5
111
 10
425.000008
 20
-111.857552
 30
0.0
 11
425.000008
 21
-145.368599
 31
0.0
  0
LINE
  8
LY_1
  6
CONTINUOUS
 62
   251
  5
112
 10
445.000008
 20
-118.000008
 30
0.0
 11
445.000008
 21
-140.000008
 31
0.0
  0
LINE
  8
LY_1
  6
DASHED
 62
     7
  5
113
 10
417.499992
 20
-118.000008
 30
0.0
 11
417.499992
 21
-140.000008
 31
0.0
  0
LINE
  8
LY_1
  6
CONTINUOUS
 62
   251
  5
114
 10
285.000065
 20
62.500167
 30
0.0
 11
324.261736
 21
64.557784
 31
0.0
  0
LINE
  8
LY_1
  6
DASHED
 62
     7
  5
115
 10
287.5
 20
-118.000008
 30
0.0
 11
287.5
 21
-140.000008
 31
0.0
  0
LINE
  8
LY_1
  6
DASHED
 62
     7
  5
116
 10
302.500008
 20
-118.000008
 30
0.0
 11
302.500008
 21
-140.000008
 31
0.0
  0
LINE
  8
LY_1
  6
CONTINUOUS
 62
   251
  5
117
 10
319.000008
 20
2.0
 30
0.0
 11
319.000008
 21
-113.000008
 31
0.0
  0
LINE
  8
LY_1
  6
CONTINUOUS
 62
   251
  5
118
 10
344.000008
 20
92.500031
 30
0.0
 11
344.000008
 21
-33.182251
 31
0.0
  0
LINE
  8
LY_1
  6
CONTINUOUS
 62
   251
  5
119
 10
259.999924
 20
-47.500155
 30
0.0
 11
262.999949
 21
-50.50018
 31
0.0
  0
LINE
  8
LY_1
  6
CONTINUOUS
 62
   251
  5
11A
 10
260.00007
 20
47.50006
 30
0.0
 11
263.000047
 21
50.500052
 31
0.0
  0
LINE
  8
LY_1
  6
CONTINUOUS
 62
   251
  5
11B
 10
284.999991
 20
-62.499833
 30
0.0
 11
289.833202
 21
-62.753131
 31
0.0
  0
LINE
  8
LY_1
  6
CONTINUOUS
 62
   251
  5
11C
 10
262.999992
 20
62.500031
 30
0.0
 11
262.999992
 21
-62.5
 31
0.0
  0
LINE
  8
LY_1
  6
CONTINUOUS
 62
   251
  5
11D
 10
262.999992
 20
62.500031
 30
0.0
 11
284.999992
 21
62.500031
 31
0.0
  0
LINE
  8
LY_1
  6
CONTINUOUS
 62
   251
  5
11E
 10
262.999992
 20
-62.5
 30
0.0
 11
284.999992
 21
-62.5
 31
0.0
  0
LINE
  8
LY_1
  6
CONTINUOUS
 62
   251
  5
11F
 10
259.999992
 20
47.500031
 30
0.0
 11
259.999992
 21
-47.5
 31
0.0
  0
LINE
  8
LY_1
  6
CONTINUOUS
 62
   251
  5
120
 10
329.000008
 20
92.500031
 30
0.0
 11
329.000008
 21
14.649109
 31
0.0
  0
LINE
  8
LY_1
  6
CONTINUOUS
 62
   251
  5
121
 10
329.000008
 20
92.500031
 30
0.0
 11
344.000008
 21
92.500031
 31
0.0
  0
LINE
  8
LY_1
  6
CONTINUOUS
 62
   251
  5
122
 10
389.069155
 20
-105.307806
 30
0.0
 11
344.000087
 21
-33.1822
 31
0.0
  0
LINE
  8
LY_1
  6
CENTER
 62
     7
  5
123
 10
295.000008
 20
-111.857552
 30
0.0
 11
295.000008
 21
-145.368599
 31
0.0
  0
LINE
  8
LY_1
  6
CONTINUOUS
 62
   251
  5
124
 10
285.399176
 20
-113.435717
 30
0.0
 11
290.999589
 21
-49.422737
 31
0.0
  0
LINE
  8
LY_1
  6
CONTINUOUS
 62
   251
  5
125
 10
274.999992
 20
-118.000008
 30
0.0
 11
314.000008
 21
-118.000008
 31
0.0
  0
LINE
  8
LY_1
  6
CONTINUOUS
 62
   251
  5
126
 10
274.999992
 20
-118.000008
 30
0.0
 11
274.999992
 21
-140.000008
 31
0.0
  0
LINE
  8
LY_1
  6
CONTINUOUS
 62
   251
  5
127
 10
274.999992
 20
-140.000008
 30
0.0
 11
445.000008
 21
-140.000008
 31
0.0
  0
LINE
  8
LY_1
  6
CONTINUOUS
 62
   251
  5
128
 10
22.0
 20
-5.0
 30
0.0
 11
14.0
 21
-5.0
 31
0.0
  0
LINE
  8
LY_1
  6
CONTINUOUS
 62
   251
  5
129
 10
22.0
 20
5.0
 30
0.0
 11
14.0
 21
5.0
 31
0.0
  0
LINE
  8
LY_1
  6
CONTINUOUS
 62
   251
  5
12A
 10
14.0
 20
5.0
 30
0.0
 11
14.0
 21
-5.0
 31
0.0
  0
LINE
  8
LY_1
  6
DASHED
 62
     7
  5
12B
 10
97.5
 20
-118.000008
 30
0.0
 11
97.5
 21
-140.000008
 31
0.0
  0
LINE
  8
LY_1
  6
DASHED
 62
     7
  5
12C
 10
82.5
 20
-118.000008
 30
0.0
 11
82.5
 21
-140.000008
 31
0.0
  0
LINE
  8
LY_1
  6
DASHED
 62
     7
  5
12D
 10
-82.5
 20
-118.000008
 30
0.0
 11
-82.5
 21
-140.000008
 31
0.0
  0
LINE
  8
LY_1
  6
DASHED
 62
     7
  5
12E
 10
-97.5
 20
-118.000008
 30
0.0
 11
-97.5
 21
-140.000008
 31
0.0
  0
LINE
  8
LY_1
  6
CONTINUOUS
 62
   251
  5
12F
 10
-65.812256
 20
-10.0
 30
0.0
 11
-80.377075
 21
-10.0
 31
0.0
  0
LINE
  8
LY_1
  6
CONTINUOUS
 62
   251
  5
130
 10
-99.10134
 20
-112.304137
 30
0.0
 11
-85.328345
 21
-14.304164
 31
0.0
  0
LINE
  8
LY_1
  6
CONTINUOUS
 62
   251
  5
131
 10
65.812256
 20
-10.0
 30
0.0
 11
80.377075
 21
-10.0
 31
0.0
  0
LINE
  8
LY_1
  6
CONTINUOUS
 62
   251
  5
132
 10
99.101471
 20
-112.304122
 30
0.0
 11
85.328468
 21
-14.304097
 31
0.0
  0
LINE
  8
LY_1
  6
CENTER
 62
     7
  5
133
 10
-90.0
 20
-111.102608
 30
0.0
 11
-90.0
 21
-146.975716
 31
0.0
  0
LINE
  8
LY_1
  6
CENTER
 62
     7
  5
134
 10
90.0
 20
-111.102608
 30
0.0
 11
90.0
 21
-146.975716
 31
0.0
  0
LINE
  8
LY_1
  6
CENTER
 62
     7
  5
135
 10
-63.6529
 20
-36.749903
 30
0.0
 11
-76.643282
 21
-44.249901
 31
0.0
  0
LINE
  8
LY_1
  6
CENTER
 62
     7
  5
136
 10
-63.652818
 20
36.750033
 30
0.0
 11
-76.643199
 21
44.250033
 31
0.0
  0
LINE
  8
LY_1
  6
CENTER
 62
     7
  5
137
 10
63.652941
 20
36.749953
 30
0.0
 11
76.643296
 21
44.249937
 31
0.0
  0
LINE
  8
LY_1
  6
CENTER
 62
     7
  5
138
 10
63.652851
 20
-36.750081
 30
0.0
 11
76.643231
 21
-44.250081
 31
0.0
  0
LINE
  8
LY_1
  6
CONTINUOUS
 62
   251
  5
139
 10
-66.430304
 20
-114.294088
 30
0.0
 11
-47.557488
 21
-43.859797
 31
0.0
  0
LINE
  8
LY_1
  6
CONTINUOUS
 62
   251
  5
13A
 10
-65.812256
 20
10.0
 30
0.0
 11
-87.664307
 21
10.0
 31
0.0
  0
LINE
  8
LY_1
  6
CONTINUOUS
 62
   251
  5
13B
 10
53.0
 20
-137.000008
 30
0.0
 11
-53.0
 21
-137.000008
 31
0.0
  0
LINE
  8
LY_1
  6
CONTINUOUS
 62
   251
  5
13C
 10
-54.999976
 20
-117.999966
 30
0.0
 11
-38.682667
 21
-57.102953
 31
0.0
  0
LINE
  8
LY_1
  6
CONTINUOUS
 62
   251
  5
13D
 10
-55.0
 20
-118.000008
 30
0.0
 11
-55.0
 21
-140.000008
 31
0.0
  0
LINE
  8
LY_1
  6
CONTINUOUS
 62
   251
  5
13E
 10
-109.999993
 20
-117.999996
 30
0.0
 11
-92.615668
 21
5.695926
 31
0.0
  0
LINE
  8
LY_1
  6
CONTINUOUS
 62
   251
  5
13F
 10
-110.0
 20
-118.000008
 30
0.0
 11
-110.0
 21
-140.000008
 31
0.0
  0
LINE
  8
LY_1
  6
CONTINUOUS
 62
   251
  5
140
 10
-55.0
 20
-118.000008
 30
0.0
 11
-110.0
 21
-118.000008
 31
0.0
  0
LINE
  8
LY_1
  6
CONTINUOUS
 62
   251
  5
141
 10
-55.0
 20
-140.000008
 30
0.0
 11
-110.0
 21
-140.000008
 31
0.0
  0
LINE
  8
LY_1
  6
CONTINUOUS
 62
   251
  5
142
 10
66.430358
 20
-114.294165
 30
0.0
 11
47.557541
 21
-43.85987
 31
0.0
  0
LINE
  8
LY_1
  6
CONTINUOUS
 62
   251
  5
143
 10
55.000031
 20
-118.000043
 30
0.0
 11
38.682721
 21
-57.103027
 31
0.0
  0
LINE
  8
LY_1
  6
CONTINUOUS
 62
   251
  5
144
 10
55.0
 20
-118.000008
 30
0.0
 11
55.0
 21
-140.000008
 31
0.0
  0
LINE
  8
LY_1
  6
CONTINUOUS
 62
   251
  5
145
 10
110.000245
 20
-117.999964
 30
0.0
 11
92.615928
 21
5.695898
 31
0.0
  0
LINE
  8
LY_1
  6
CONTINUOUS
 62
   251
  5
146
 10
65.812256
 20
10.0
 30
0.0
 11
87.664429
 21
10.0
 31
0.0
  0
LINE
  8
LY_1
  6
CONTINUOUS
 62
   251
  5
147
 10
110.0
 20
-118.000008
 30
0.0
 11
110.0
 21
-140.000008
 31
0.0
  0
LINE
  8
LY_1
  6
CONTINUOUS
 62
   251
  5
148
 10
55.0
 20
-118.000008
 30
0.0
 11
110.0
 21
-118.000008
 31
0.0
  0
LINE
  8
LY_1
  6
CONTINUOUS
 62
   251
  5
149
 10
55.0
 20
-140.000008
 30
0.0
 11
110.0
 21
-140.000008
 31
0.0
  0
LINE
  8
LY_1
  6
CENTER
 62
     7
  5
14A
 10
0.0
 20
153.699223
 30
0.0
 11
0.0
 21
-149.000008
 31
0.0
  0
LINE
  8
LY_1
  6
CENTER
 62
     7
  5
14B
 10
-107.0
 20
0.0
 30
0.0
 11
115.476685
 21
0.0
 31
0.0
  0
LINE
  8
LY_1
  6
CONTINUOUS
 62
   251
  5
14C
 10
379.042152
 20
-89.261238
 30
0.0
 11
389.999992
 21
-89.261238
 31
0.0
  0
LINE
  8
LY_1
  6
CONTINUOUS
 62
   251
  5
14D
 10
376.166161
 20
-84.658699
 30
0.0
 11
389.999992
 21
-84.658699
 31
0.0
  0
LINE
  8
LY_1
  6
CONTINUOUS
 62
   251
  5
14E
 10
373.041679
 20
-79.658485
 30
0.0
 11
389.999992
 21
-79.658485
 31
0.0
  0
LINE
  8
LY_1
  6
CONTINUOUS
 62
   251
  5
14F
 10
368.751762
 20
-72.79319
 30
0.0
 11
389.999992
 21
-72.79319
 31
0.0
  0
LINE
  8
LY_1
  6
CONTINUOUS
 62
   251
  5
150
 10
364.489296
 20
-65.971802
 30
0.0
 11
389.999992
 21
-65.971802
 31
0.0
  0
LINE
  8
LY_1
  6
CONTINUOUS
 62
   251
  5
151
 10
358.699837
 20
-56.706726
 30
0.0
 11
389.999992
 21
-56.706726
 31
0.0
  0
LINE
  8
LY_1
  6
CONTINUOUS
 62
   251
  5
152
 10
348.000008
 20
-37.653709
 30
0.0
 11
389.999992
 21
-37.653709
 31
0.0
  0
LINE
  8
LY_1
  6
CONTINUOUS
 62
   251
  5
153
 10
348.000008
 20
-26.212463
 30
0.0
 11
389.999992
 21
-26.212463
 31
0.0
  0
LINE
  8
LY_1
  6
CONTINUOUS
 62
   251
  5
154
 10
348.000008
 20
-16.469452
 30
0.0
 11
389.999992
 21
-16.469452
 31
0.0
  0
LINE
  8
LY_1
  6
CONTINUOUS
 62
   251
  5
155
 10
348.000008
 20
-5.00013
 30
0.0
 11
370.339806
 21
-5.00013
 31
0.0
  0
LINE
  8
LY_1
  6
CONTINUOUS
 62
   251
  5
156
 10
348.000008
 20
4.999474
 30
0.0
 11
370.339439
 21
4.999474
 31
0.0
  0
LINE
  8
LY_1
  6
CONTINUOUS
 62
   251
  5
157
 10
348.000008
 20
16.468781
 30
0.0
 11
389.999992
 21
16.468781
 31
0.0
  0
LINE
  8
LY_1
  6
CONTINUOUS
 62
   251
  5
158
 10
348.000008
 20
26.212311
 30
0.0
 11
389.999992
 21
26.212311
 31
0.0
  0
LINE
  8
LY_1
  6
CONTINUOUS
 62
   251
  5
159
 10
348.000008
 20
37.653854
 30
0.0
 11
389.999992
 21
37.653854
 31
0.0
  0
LINE
  8
LY_1
  6
CONTINUOUS
 62
   251
  5
15A
 10
393.999874
 20
90.999941
 30
0.0
 11
389.99987
 21
94.999945
 31
0.0
  0
LINE
  8
LY_1
  6
CONTINUOUS
 62
   251
  5
15B
 10
390.000016
 20
-95.000006
 30
0.0
 11
394.00002
 21
-91.000002
 31
0.0
  0
LINE
  8
LY_1
  6
CONTINUOUS
 62
   251
  5
15C
 10
348.000008
 20
94.999999
 30
0.0
 11
344.000004
 21
90.999995
 31
0.0
  0
LINE
  8
LY_1
  6
CONTINUOUS
 62
   251
  5
15D
 10
348.000008
 20
95.0
 30
0.0
 11
389.999992
 21
95.0
 31
0.0
  0
LINE
  8
LY_1
  6
CONTINUOUS
 62
   251
  5
15E
 10
382.62812
 20
-95.000008
 30
0.0
 11
389.999992
 21
-95.000008
 31
0.0
  0
LINE
  8
LY_1
  6
CONTINUOUS
 62
   251
  5
15F
 10
-21.82814
 20
90.07808
 30
0.0
 11
-11.716547
 21
91.861012
 31
0.0
  0
LINE
  8
LY_1
  6
CONTINUOUS
 62
   251
  5
160
 10
-22.821534
 20
91.933772
 30
0.0
 11
-11.103466
 21
93.999966
 31
0.0
  0
LINE
  8
LY_1
  6
CONTINUOUS
 62
   251
  5
161
 10
-14.925435
 20
91.295193
 30
0.0
 11
-16.409878
 21
93.064288
 31
0.0
  0
LINE
  8
LY_1
  6
CONTINUOUS
 62
   251
  5
162
 10
-16.440842
 20
91.078764
 30
0.0
 11
-17.88819
 21
92.803652
 31
0.0
  0
LINE
  8
LY_1
  6
CENTER
 62
     7
  5
163
 10
378.999992
 20
6.990936
 30
0.0
 11
378.999992
 21
-6.990936
 31
0.0
  0
LINE
  8
LY_1
  6
CENTER
 62
     7
  5
164
 10
303.000008
 20
-59.765213
 30
0.0
 11
303.000008
 21
-81.136421
 31
0.0
  0
LINE
  8
LY_1
  6
DASHED
 62
     7
  5
165
 10
287.65619
 20
-62.639184
 30
0.0
 11
313.546044
 21
-63.996014
 31
0.0
  0
LINE
  8
LY_1
  6
CONTINUOUS
 62
   251
  5
166
 10
21.677345
 20
94.196831
 30
0.0
 11
11.84712
 21
95.930165
 31
0.0
  0
LINE
  8
LY_1
  6
CONTINUOUS
 62
   251
  5
167
 10
22.444418
 20
101.169562
 30
0.0
 11
13.511152
 21
102.744737
 31
0.0
  0
LINE
  8
LY_1
  6
CONTINUOUS
 62
   251
  5
168
 10
11.847165
 20
95.930155
 30
0.0
 11
11.610214
 21
94.287873
 31
0.0
  0
LINE
  8
LY_1
  6
CONTINUOUS
 62
   251
  5
169
 10
13.511152
 20
102.744737
 30
0.0
 11
12.295615
 21
95.851083
 31
0.0
  0
LINE
  8
LY_1
  6
CONTINUOUS
 62
   251
  5
16A
 10
22.444418
 20
101.169562
 30
0.0
 11
21.22888
 21
94.275907
 31
0.0
  0
LINE
  8
LY_1
  6
CONTINUOUS
 62
   251
  5
16B
 10
21.677379
 20
94.196821
 30
0.0
 11
21.338348
 21
92.57254
 31
0.0
  0
LINE
  8
LY_1
  6
CENTER
 62
     7
  5
16C
 10
-22.814177
 20
129.385354
 30
0.0
 11
-15.378945
 21
87.217694
 31
0.0
  0
LINE
  8
LY_1
  6
CONTINUOUS
 62
   251
  5
16D
 10
-24.232544
 20
95.597031
 30
0.0
 11
-24.232544
 21
91.85741
 31
0.0
  0
LINE
  8
LY_1
  6
CONTINUOUS
 62
   251
  5
16E
 10
-20.50622
 20
98.155675
 30
0.0
 11
-23.696956
 21
96.482842
 31
0.0
  0
LINE
  8
LY_1
  6
CONTINUOUS
 62
   251
  5
16F
 10
-24.691633
 20
121.893135
 30
0.0
 11
-19.803485
 21
94.170833
 31
0.0
  0
LINE
  8
LY_1
  6
CONTINUOUS
 62
   251
  5
170
 10
-18.487422
 20
122.987141
 30
0.0
 11
-13.599275
 21
95.26484
 31
0.0
  0
LINE
  8
LY_1
  6
CONTINUOUS
 62
   251
  5
171
 10
-14.301909
 20
99.249519
 30
0.0
 11
-10.731275
 21
98.768831
 31
0.0
  0
LINE
  8
LY_1
  6
CONTINUOUS
 62
   251
  5
172
 10
-9.925134
 20
98.119821
 30
0.0
 11
-8.646117
 21
94.605737
 31
0.0
  0
LINE
  8
LY_1
  6
CENTER
 62
     7
  5
173
 10
19.101274
 20
108.32886
 30
0.0
 11
15.44082
 21
87.569398
 31
0.0
  0
LINE
  8
LY_1
  6
CONTINUOUS
 62
   251
  5
174
 10
393.999992
 20
92.5
 30
0.0
 11
393.999992
 21
-92.500008
 31
0.0
  0
ENDSEC
  0
EOF
