  0
SECTION
  2
HEADER
  9
$ACADVER
  1
AC1009
  9
$DWGCODEPAGE
  3
dos932
  9
$INSBASE
 10
0.0
 20
0.0
 30
0.0
  9
$EXTMIN
 10
-111.0
 20
-128.0
 30
0.0
  9
$EXTMAX
 10
688.57616
 20
129.519424
 30
0.0
  9
$LIMMIN
 10
-111.0
 20
-128.0
  9
$LIMMAX
 10
688.57616
 20
129.519424
  9
$ORTHOMODE
 70
     0
  9
$REGENMODE
 70
     1
  9
$FILLMODE
 70
     1
  9
$QTEXTMODE
 70
     0
  9
$MIRRTEXT
 70
     1
  9
$DRAGMODE
 70
     2
  9
$LTSCALE
 40
1.0
  9
$OSMODE
 70
     0
  9
$ATTMODE
 70
     1
  9
$TEXTSIZE
 40
3.15
  9
$TRACEWID
 40
0.05
  9
$TEXTSTYLE
  7
MX_NOTE_STANDARD
  9
$CLAYER
  8
LY_1
  9
$CELTYPE
  6
CONTINUOUS
  9
$CECOLOR
 62
   256
  9
$DIMSCALE
 40
1.0
  9
$DIMASZ
 40
2.5
  9
$DIMEXO
 40
1.0
  9
$DIMDLI
 40
3.75
  9
$DIMRND
 40
0.0
  9
$DIMDLE
 40
0.0
  9
$DIMEXE
 40
1.5
  9
$DIMTP
 40
0.0
  9
$DIMTM
 40
0.0
  9
$DIMTXT
 40
3.15
  9
$DIMCEN
 40
2.5
  9
$DIMTSZ
 40
0.0
  9
$DIMTOL
 70
     0
  9
$DIMLIM
 70
     0
  9
$DIMTIH
 70
     0
  9
$DIMTOH
 70
     0
  9
$DIMSE1
 70
     0
  9
$DIMSE2
 70
     0
  9
$DIMTAD
 70
     1
  9
$DIMZIN
 70
     8
  9
$DIMBLK
  1

  9
$DIMASO
 70
     1
  9
$DIMSHO
 70
     1
  9
$DIMPOST
  1

  9
$DIMAPOST
  1

  9
$DIMALT
 70
     0
  9
$DIMALTD
 70
     4
  9
$DIMALTF
 40
0.03937
  9
$DIMLFAC
 40
1.0
  9
$DIMTOFL
 70
     1
  9
$DIMTVP
 40
0.0
  9
$DIMTIX
 70
     0
  9
$DIMSOXD
 70
     0
  9
$DIMSAH
 70
     0
  9
$DIMBLK1
  1

  9
$DIMBLK2
  1

  9
$DIMSTYLE
  2
MXDIMSTYLE
  9
$DIMCLRD
 70
     0
  9
$DIMCLRE
 70
     0
  9
$DIMCLRT
 70
     0
  9
$DIMTFAC
 40
1.0
  9
$DIMGAP
 40
1.0
  9
$LUNITS
 70
     2
  9
$LUPREC
 70
     4
  9
$AXISMODE
 70
     0
  9
$AXISUNIT
 10
0.0
 20
0.0
  9
$SKETCHINC
 40
0.1
  9
$FILLETRAD
 40
0.0
  9
$AUNITS
 70
     0
  9
$AUPREC
 70
     0
  9
$MENU
  1
acad
  9
$ELEVATION
 40
0.0
  9
$PELEVATION
 40
0.0
  9
$THICKNESS
 40
0.0
  9
$LIMCHECK
 70
     0
  9
$BLIPMODE
 70
     1
  9
$CHAMFERA
 40
0.0
  9
$CHAMFERB
 40
0.0
  9
$SKPOLY
 70
     0
  9
$TDCREATE
 40
2453665.670150463
  9
$TDUPDATE
 40
2453665.670150463
  9
$TDINDWG
 40
0.0000000000
  9
$TDUSRTIMER
 40
0.0000000000
  9
$USRTIMER
 70
     1
  9
$ANGBASE
 50
0.0
  9
$ANGDIR
 70
     0
  9
$PDMODE
 70
     0
  9
$PDSIZE
 40
0.0
  9
$PLINEWID
 40
0.0
  9
$COORDS
 70
     1
  9
$SPLFRAME
 70
     0
  9
$SPLINETYPE
 70
     6
  9
$SPLINESEGS
 70
     8
  9
$ATTDIA
 70
     0
  9
$ATTREQ
 70
     1
  9
$HANDLING
 70
     1
  9
$HANDSEED
  5
19B
  9
$SURFTAB1
 70
     6
  9
$SURFTAB2
 70
     6
  9
$SURFTYPE
 70
     6
  9
$SURFU
 70
     6
  9
$SURFV
 70
     6
  9
$UCSNAME
  2

  9
$UCSORG
 10
0.0
 20
0.0
 30
0.0
  9
$UCSXDIR
 10
1.0
 20
0.0
 30
0.0
  9
$UCSYDIR
 10
0.0
 20
1.0
 30
0.0
  9
$PUCSNAME
  2

  9
$PUCSORG
 10
0.0
 20
0.0
 30
0.0
  9
$PUCSXDIR
 10
1.0
 20
0.0
 30
0.0
  9
$PUCSYDIR
 10
0.0
 20
1.0
 30
0.0
  9
$USERI1
 70
     0
  9
$USERI2
 70
     0
  9
$USERI3
 70
     0
  9
$USERI4
 70
     0
  9
$USERI5
 70
     0
  9
$USERR1
 40
0.0
  9
$USERR2
 40
0.0
  9
$USERR3
 40
0.0
  9
$USERR4
 40
0.0
  9
$USERR5
 40
0.0
  9
$WORLDVIEW
 70
     1
  9
$SHADEDGE
 70
     3
  9
$SHADEDIF
 70
    70
  9
$TILEMODE
 70
     1
  9
$MAXACTVP
 70
    16
  9
$PINSBASE
 10
0.0
 20
0.0
 30
0.0
  9
$PLIMCHECK
 70
     0
  9
$PEXTMIN
 10
1.000000E+20
 20
1.000000E+20
 30
1.000000E+20
  9
$PEXTMAX
 10
-1.000000E+20
 20
-1.000000E+20
 30
-1.000000E+20
  9
$PLIMMIN
 10
0.0
 20
0.0
  9
$PLIMMAX
 10
12.0
 20
9.0
  9
$UNITMODE
 70
     0
  9
$VISRETAIN
 70
     0
  9
$PLINEGEN
 70
     1
  9
$PSLTSCALE
 70
     0
  9
$TREEDEPTH
 70
  3020
  9
$DWGCODEPAGE
  3
dos932
  0
ENDSEC
  0
SECTION
  2
TABLES
  0
TABLE
  2
VPORT
 70
     1
  0
VPORT
  2
*ACTIVE
 70
     0
 10
0.0
 20
0.0
 11
1.0
 21
1.0
 12
288.78808
 22
0.759712
 13
0.0
 23
0.0
 14
1.0
 24
1.0
 15
0.0
 25
0.0
 16
0.0
 26
0.0
 36
1.0
 17
0.0
 27
0.0
 37
0.0
 40
260.094619
 41
1.732051
 42
50.0
 43
0.0
 44
0.0
 50
0.0
 51
0.0
 71
     0
 72
   100
 73
     1
 74
     1
 75
     0
 76
     0
 77
     0
 78
     0
  0
ENDTAB
  0
TABLE
  2
LTYPE
 70
     3
  0
LTYPE
  2
CONTINUOUS
 70
    64
  3
Solid line
 72
    65
 73
     0
 40
0.0
  0
LTYPE
  2
CENTER
 70
    64
  3
Center ____ _ ____ _ ____ _ ____ _ ____ _ ____
 72
    65
 73
     4
 40
50.8
 49
31.75
 49
-6.35
 49
6.35
 49
-6.35
  0
LTYPE
  2
DASHED
 70
    64
  3
Dashed __ __ __ __ __ __ __ __ __ __ __ __ __ _
 72
    65
 73
     2
 40
19.05
 49
12.7
 49
-6.35
  0
ENDTAB
  0
TABLE
  2
LAYER
 70
     3
  0
LAYER
  2
0
 70
     0
 62
     7
  6
CONTINUOUS
  0
LAYER
  2
LY_1
 70
     0
 62
     7
  6
CONTINUOUS
  0
LAYER
  2
DEFPOINTS
 70
     0
 62
     7
  6
CONTINUOUS
  0
ENDTAB
  0
TABLE
  2
STYLE
 70
     1
  0
STYLE
  2
MX_NOTE_STANDARD
 70
     0
 40
0.0
 41
1.0
 50
0.0
 71
     0
 42
3.15
  3
txt.shx
  4
extfont.shx
  0
ENDTAB
  0
TABLE
  2
VIEW
 70
     0
  0
ENDTAB
  0
TABLE
  2
UCS
 70
     0
  0
ENDTAB
  0
TABLE
  2
APPID
 70
     1
  0
APPID
  2
ACAD
 70
     0
  0
ENDTAB
  0
TABLE
  2
DIMSTYLE
 70
     1
  0
DIMSTYLE
  2
MXDIMSTYLE
 70
     0
  3

  4

  5

  6

  7

 40
1.0
 41
2.5
 42
1.0
 43
3.75
 44
1.5
 45
0.0
 46
0.0
 47
0.0
 48
0.0
 71
     0
 72
     0
 73
     0
 74
     0
 75
     0
 76
     0
 77
     1
 78
     8
140
3.15
141
2.5
142
0.0
143
0.03937
144
1.0
145
0.0
146
1.0
147
1.0
170
     0
171
     4
172
     1
173
     0
174
     0
175
     0
176
     0
177
     0
178
     0
  0
ENDTAB
  0
ENDSEC
  0
SECTION
  2
BLOCKS
  0
ENDSEC
  0
SECTION
  2
ENTITIES
  0
LINE
  8
LY_1
  6
CONTINUOUS
 62
   251
  5
1F
 10
587.9
 20
92.00012
 30
0.0
 11
587.9
 21
110.00012
 31
0.0
  0
LINE
  8
LY_1
  6
CONTINUOUS
 62
   251
  5
20
 10
587.90006
 20
110.00018
 30
0.0
 11
586.90006
 21
111.00017
 31
0.0
  0
LINE
  8
LY_1
  6
CONTINUOUS
 62
   251
  5
21
 10
586.9
 20
111.00011
 30
0.0
 11
554.10001
 21
111.00011
 31
0.0
  0
LINE
  8
LY_1
  6
CONTINUOUS
 62
   251
  5
22
 10
554.10013
 20
111.0
 30
0.0
 11
553.1001
 21
109.99997
 31
0.0
  0
LINE
  8
LY_1
  6
CONTINUOUS
 62
   251
  5
23
 10
553.10001
 20
110.00012
 30
0.0
 11
553.10001
 21
92.00012
 31
0.0
  0
LINE
  8
LY_1
  6
CONTINUOUS
 62
   251
  5
24
 10
553.10001
 20
92.00012
 30
0.0
 11
553.10001
 21
95.00012
 31
0.0
  0
LINE
  8
LY_1
  6
CONTINUOUS
 62
   251
  5
25
 10
549.99997
 20
88.20013
 30
0.0
 11
549.99997
 21
92.00012
 31
0.0
  0
LINE
  8
LY_1
  6
CONTINUOUS
 62
   251
  5
26
 10
549.99997
 20
92.00011
 30
0.0
 11
590.99997
 21
92.00011
 31
0.0
  0
LINE
  8
LY_1
  6
CONTINUOUS
 62
   251
  5
27
 10
590.99997
 20
92.00012
 30
0.0
 11
590.99997
 21
88.20013
 31
0.0
  0
LINE
  8
LY_1
  6
CONTINUOUS
 62
   251
  5
28
 10
548.0001
 20
88.19919
 30
0.0
 11
592.99997
 21
88.19919
 31
0.0
  0
LINE
  8
LY_1
  6
CONTINUOUS
 62
   251
  5
29
 10
592.99997
 20
65.02216
 30
0.0
 11
592.99997
 21
88.20013
 31
0.0
  0
LINE
  8
LY_1
  6
CONTINUOUS
 62
   251
  5
2A
 10
537.99997
 20
65.99998
 30
0.0
 11
537.99997
 21
64.99998
 31
0.0
  0
LINE
  8
LY_1
  6
CENTER
 62
     7
  5
2C
 10
570.49997
 20
117.94022
 30
0.0
 11
570.49997
 21
81.06567
 31
0.0
  0
LINE
  8
LY_1
  6
CONTINUOUS
 62
   251
  5
2D
 10
594.79996
 20
-65.0
 30
0.0
 11
594.79996
 21
64.99998
 31
0.0
  0
LINE
  8
LY_1
  6
CONTINUOUS
 62
   251
  5
2E
 10
599.29996
 20
64.99998
 30
0.0
 11
599.29996
 21
-65.0
 31
0.0
  0
LINE
  8
LY_1
  6
CONTINUOUS
 62
   251
  5
2F
 10
510.0
 20
-65.0
 30
0.0
 11
510.0
 21
64.99998
 31
0.0
  0
LINE
  8
LY_1
  6
CONTINUOUS
 62
   251
  5
30
 10
506.0
 20
64.99998
 30
0.0
 11
506.0
 21
-65.0
 31
0.0
  0
LINE
  8
LY_1
  6
CONTINUOUS
 62
   251
  5
31
 10
510.0
 20
28.0
 30
0.0
 11
594.79996
 21
28.0
 31
0.0
  0
LINE
  8
LY_1
  6
CONTINUOUS
 62
   251
  5
32
 10
510.0
 20
25.0
 30
0.0
 11
594.79996
 21
25.0
 31
0.0
  0
LINE
  8
LY_1
  6
CONTINUOUS
 62
   251
  5
33
 10
510.0
 20
22.0
 30
0.0
 11
594.79996
 21
22.0
 31
0.0
  0
LINE
  8
LY_1
  6
CONTINUOUS
 62
   251
  5
34
 10
510.0
 20
19.0
 30
0.0
 11
594.79996
 21
19.0
 31
0.0
  0
LINE
  8
LY_1
  6
CONTINUOUS
 62
   251
  5
35
 10
510.0
 20
-19.0
 30
0.0
 11
594.79996
 21
-19.0
 31
0.0
  0
LINE
  8
LY_1
  6
CONTINUOUS
 62
   251
  5
36
 10
510.0
 20
-22.0
 30
0.0
 11
594.79996
 21
-22.0
 31
0.0
  0
LINE
  8
LY_1
  6
CONTINUOUS
 62
   251
  5
37
 10
510.0
 20
-25.0
 30
0.0
 11
594.79996
 21
-25.0
 31
0.0
  0
LINE
  8
LY_1
  6
CONTINUOUS
 62
   251
  5
38
 10
510.0
 20
-28.0
 30
0.0
 11
594.79996
 21
-28.0
 31
0.0
  0
LINE
  8
LY_1
  6
CONTINUOUS
 62
   251
  5
39
 10
667.29996
 20
62.19998
 30
0.0
 11
667.29996
 21
80.49997
 31
0.0
  0
LINE
  8
LY_1
  6
CONTINUOUS
 62
   251
  5
3A
 10
667.30002
 20
80.49998
 30
0.0
 11
666.30002
 21
81.49997
 31
0.0
  0
LINE
  8
LY_1
  6
CONTINUOUS
 62
   251
  5
3B
 10
666.29996
 20
81.49997
 30
0.0
 11
638.69999
 21
81.49997
 31
0.0
  0
LINE
  8
LY_1
  6
CONTINUOUS
 62
   251
  5
3C
 10
638.70002
 20
81.49994
 30
0.0
 11
637.70002
 21
80.49994
 31
0.0
  0
LINE
  8
LY_1
  6
CONTINUOUS
 62
   251
  5
3D
 10
637.69999
 20
80.49997
 30
0.0
 11
637.69999
 21
62.19998
 31
0.0
  0
LINE
  8
LY_1
  6
CENTER
 62
     7
  5
3E
 10
652.49997
 20
54.9408
 30
0.0
 11
652.49997
 21
88.24274
 31
0.0
  0
LINE
  8
LY_1
  6
CONTINUOUS
 62
   251
  5
3F
 10
633.44999
 20
58.39998
 30
0.0
 11
633.44999
 21
62.19998
 31
0.0
  0
LINE
  8
LY_1
  6
CONTINUOUS
 62
   251
  5
40
 10
633.44999
 20
62.19998
 30
0.0
 11
671.54996
 21
62.19998
 31
0.0
  0
LINE
  8
LY_1
  6
CONTINUOUS
 62
   251
  5
41
 10
671.54996
 20
62.19998
 30
0.0
 11
671.54996
 21
58.39998
 31
0.0
  0
LINE
  8
LY_1
  6
CONTINUOUS
 62
   251
  5
42
 10
627.29996
 20
-64.0
 30
0.0
 11
627.29996
 21
63.99998
 31
0.0
  0
LINE
  8
LY_1
  6
CONTINUOUS
 62
   251
  5
43
 10
627.29996
 20
-27.50369
 30
0.0
 11
645.49997
 21
-27.50369
 31
0.0
  0
LINE
  8
LY_1
  6
CONTINUOUS
 62
   251
  5
44
 10
645.5
 20
-40.03479
 30
0.0
 11
669.85587
 21
-39.18427
 31
0.0
  0
LINE
  8
LY_1
  6
CONTINUOUS
 62
   251
  5
45
 10
645.49997
 20
-42.5
 30
0.0
 11
506.0
 21
-42.5
 31
0.0
  0
LINE
  8
LY_1
  6
CONTINUOUS
 62
   251
  5
46
 10
645.49997
 20
-42.5
 30
0.0
 11
645.49997
 21
42.5
 31
0.0
  0
LINE
  8
LY_1
  6
CONTINUOUS
 62
   251
  5
47
 10
645.49997
 20
27.50345
 30
0.0
 11
627.29996
 21
27.50345
 31
0.0
  0
LINE
  8
LY_1
  6
CONTINUOUS
 62
   251
  5
48
 10
671.99997
 20
58.39998
 30
0.0
 11
632.99997
 21
58.39998
 31
0.0
  0
LINE
  8
LY_1
  6
CONTINUOUS
 62
   251
  5
49
 10
632.99997
 20
58.39998
 30
0.0
 11
632.99997
 21
42.5
 31
0.0
  0
LINE
  8
LY_1
  6
CONTINUOUS
 62
   251
  5
4A
 10
671.99997
 20
58.39998
 30
0.0
 11
671.99997
 21
-30.0
 31
0.0
  0
LINE
  8
LY_1
  6
CONTINUOUS
 62
   251
  5
4B
 10
645.49997
 20
34.34738
 30
0.0
 11
671.99997
 21
34.34738
 31
0.0
  0
LINE
  8
LY_1
  6
CONTINUOUS
 62
   251
  5
4C
 10
645.49997
 20
42.5
 30
0.0
 11
506.0
 21
42.5
 31
0.0
  0
LINE
  8
LY_1
  6
CONTINUOUS
 62
   251
  5
4D
 10
639.49997
 20
-42.5
 30
0.0
 11
639.49997
 21
42.5
 31
0.0
  0
LINE
  8
LY_1
  6
CONTINUOUS
 62
   251
  5
4E
 10
632.49997
 20
-42.5
 30
0.0
 11
632.49997
 21
42.5
 31
0.0
  0
ARC
  8
LY_1
  6
CONTINUOUS
 62
   251
  5
4F
 10
626.29996
 20
63.99998
 30
0.0
 40
1.0
 50
359.99998
 51
90.00003
  0
ARC
  8
LY_1
  6
CONTINUOUS
 62
   251
  5
50
 10
626.29996
 20
-64.0
 30
0.0
 40
1.0
 50
269.999982
 51
359.99996
  0
ARC
  8
LY_1
  6
CONTINUOUS
 62
   251
  5
51
 10
641.95182
 20
-29.99307
 30
0.0
 40
30.048155
 50
343.61989
 51
359.9868
  0
ARC
  8
LY_1
  6
CONTINUOUS
 62
   251
  5
52
 10
669.82096
 20
-38.18491
 30
0.0
 40
1.0
 50
272.000742
 51
343.61965
  0
ARC
  8
LY_1
  6
CONTINUOUS
 62
   251
  5
53
 10
596.56778
 20
52.96881
 30
0.0
 40
60.0
 50
144.04333
 51
167.45615
  0
LINE
  8
LY_1
  6
CONTINUOUS
 62
   251
  5
54
 10
626.29996
 20
-65.0
 30
0.0
 11
494.0
 21
-65.0
 31
0.0
  0
LINE
  8
LY_1
  6
CONTINUOUS
 62
   251
  5
55
 10
494.0
 20
64.99998
 30
0.0
 11
626.29996
 21
64.99998
 31
0.0
  0
LINE
  8
LY_1
  6
CONTINUOUS
 62
   251
  5
56
 10
494.0
 20
-50.80603
 30
0.0
 11
506.0
 21
-50.80603
 31
0.0
  0
LINE
  8
LY_1
  6
CONTINUOUS
 62
   251
  5
57
 10
494.0
 20
50.80597
 30
0.0
 11
506.0
 21
50.80597
 31
0.0
  0
LINE
  8
LY_1
  6
CONTINUOUS
 62
   251
  5
58
 10
17.40002
 20
102.059026
 30
0.0
 11
17.40002
 21
109.99998
 31
0.0
  0
LINE
  8
LY_1
  6
CONTINUOUS
 62
   251
  5
59
 10
17.40002
 20
109.99997
 30
0.0
 11
16.40002
 21
110.99997
 31
0.0
  0
LINE
  8
LY_1
  6
CONTINUOUS
 62
   251
  5
5A
 10
16.40002
 20
110.99998
 30
0.0
 11
-16.373788
 21
110.99998
 31
0.0
  0
LINE
  8
LY_1
  6
CONTINUOUS
 62
   251
  5
5B
 10
94.868188
 20
-4.999424
 30
0.0
 11
94.496166
 21
-5.072823
 31
0.0
  0
LINE
  8
LY_1
  6
CONTINUOUS
 62
   251
  5
5C
 10
402.0
 20
101.169544
 30
0.0
 11
402.0
 21
94.275962
 31
0.0
  0
LINE
  8
LY_1
  6
CONTINUOUS
 62
   251
  5
5D
 10
101.030029
 20
0.000057
 30
0.0
 11
95.0
 21
0.0
 31
0.0
  0
LINE
  8
LY_1
  6
CONTINUOUS
 62
   251
  5
5E
 10
17.977792
 20
101.957149
 30
0.0
 11
16.762256
 21
95.063512
 31
0.0
  0
POLYLINE
  8
LY_1
  6
CONTINUOUS
 62
   251
  5
5F
 66
     1
 10
0.0
 20
0.0
 30
0.0
  0
VERTEX
  8
LY_1
  6
CONTINUOUS
 62
   251
  5
160
 10
397.464846
 20
95.424993
 30
0.0
  0
VERTEX
  8
LY_1
  6
CONTINUOUS
 62
   251
  5
161
 10
397.215153
 20
95.309432
 30
0.0
  0
VERTEX
  8
LY_1
  6
CONTINUOUS
 62
   251
  5
162
 10
397.062515
 20
95.188883
 30
0.0
  0
VERTEX
  8
LY_1
  6
CONTINUOUS
 62
   251
  5
163
 10
397.010027
 20
95.06579
 30
0.0
  0
VERTEX
  8
LY_1
  6
CONTINUOUS
 62
   251
  5
164
 10
397.058755
 20
94.942651
 30
0.0
  0
VERTEX
  8
LY_1
  6
CONTINUOUS
 62
   251
  5
165
 10
397.207711
 20
94.821962
 30
0.0
  0
VERTEX
  8
LY_1
  6
CONTINUOUS
 62
   251
  5
166
 10
397.453872
 20
94.706173
 30
0.0
  0
VERTEX
  8
LY_1
  6
CONTINUOUS
 62
   251
  5
167
 10
397.792246
 20
94.597632
 30
0.0
  0
VERTEX
  8
LY_1
  6
CONTINUOUS
 62
   251
  5
168
 10
398.215969
 20
94.49854
 30
0.0
  0
VERTEX
  8
LY_1
  6
CONTINUOUS
 62
   251
  5
169
 10
398.716446
 20
94.410907
 30
0.0
  0
VERTEX
  8
LY_1
  6
CONTINUOUS
 62
   251
  5
16A
 10
399.283527
 20
94.336512
 30
0.0
  0
VERTEX
  8
LY_1
  6
CONTINUOUS
 62
   251
  5
16B
 10
399.905708
 20
94.276862
 30
0.0
  0
VERTEX
  8
LY_1
  6
CONTINUOUS
 62
   251
  5
16C
 10
400.570369
 20
94.233168
 30
0.0
  0
VERTEX
  8
LY_1
  6
CONTINUOUS
 62
   251
  5
16D
 10
401.264028
 20
94.206316
 30
0.0
  0
VERTEX
  8
LY_1
  6
CONTINUOUS
 62
   251
  5
16E
 10
401.972616
 20
94.196851
 30
0.0
  0
VERTEX
  8
LY_1
  6
CONTINUOUS
 62
   251
  5
16F
 10
402.681759
 20
94.204965
 30
0.0
  0
VERTEX
  8
LY_1
  6
CONTINUOUS
 62
   251
  5
170
 10
403.377074
 20
94.230493
 30
0.0
  0
VERTEX
  8
LY_1
  6
CONTINUOUS
 62
   251
  5
171
 10
404.044456
 20
94.272917
 30
0.0
  0
VERTEX
  8
LY_1
  6
CONTINUOUS
 62
   251
  5
172
 10
404.670369
 20
94.331378
 30
0.0
  0
VERTEX
  8
LY_1
  6
CONTINUOUS
 62
   251
  5
173
 10
405.242116
 20
94.404688
 30
0.0
  0
VERTEX
  8
LY_1
  6
CONTINUOUS
 62
   251
  5
174
 10
405.748102
 20
94.491361
 30
0.0
  0
VERTEX
  8
LY_1
  6
CONTINUOUS
 62
   251
  5
175
 10
406.178061
 20
94.589639
 30
0.0
  0
VERTEX
  8
LY_1
  6
CONTINUOUS
 62
   251
  5
176
 10
406.523274
 20
94.697529
 30
0.0
  0
VERTEX
  8
LY_1
  6
CONTINUOUS
 62
   251
  5
177
 10
406.776737
 20
94.812842
 30
0.0
  0
VERTEX
  8
LY_1
  6
CONTINUOUS
 62
   251
  5
178
 10
406.933311
 20
94.933239
 30
0.0
  0
VERTEX
  8
LY_1
  6
CONTINUOUS
 62
   251
  5
179
 10
406.989817
 20
95.056278
 30
0.0
  0
VERTEX
  8
LY_1
  6
CONTINUOUS
 62
   251
  5
17A
 10
406.945112
 20
95.179463
 30
0.0
  0
VERTEX
  8
LY_1
  6
CONTINUOUS
 62
   251
  5
17B
 10
406.800101
 20
95.300296
 30
0.0
  0
VERTEX
  8
LY_1
  6
CONTINUOUS
 62
   251
  5
17C
 10
406.557725
 20
95.416326
 30
0.0
  0
VERTEX
  8
LY_1
  6
CONTINUOUS
 62
   251
  5
17D
 10
406.546128
 20
95.42081
 30
0.0
  0
VERTEX
  8
LY_1
  6
CONTINUOUS
 62
   251
  5
17E
 10
406.534385
 20
95.425283
 30
0.0
  0
SEQEND
  8
LY_1
  6
CONTINUOUS
 62
   251
  5
17F
  0
POLYLINE
  8
LY_1
  6
CONTINUOUS
 62
   251
  5
60
 66
     1
 10
0.0
 20
0.0
 30
0.0
  0
VERTEX
  8
LY_1
  6
CONTINUOUS
 62
   251
  5
180
 10
397.140015
 20
90.968842
 30
0.0
  0
VERTEX
  8
LY_1
  6
CONTINUOUS
 62
   251
  5
181
 10
397.181592
 20
90.858662
 30
0.0
  0
VERTEX
  8
LY_1
  6
CONTINUOUS
 62
   251
  5
182
 10
397.305615
 20
90.750368
 30
0.0
  0
VERTEX
  8
LY_1
  6
CONTINUOUS
 62
   251
  5
183
 10
397.509959
 20
90.645812
 30
0.0
  0
VERTEX
  8
LY_1
  6
CONTINUOUS
 62
   251
  5
184
 10
397.791129
 20
90.546783
 30
0.0
  0
VERTEX
  8
LY_1
  6
CONTINUOUS
 62
   251
  5
185
 10
398.144314
 20
90.454976
 30
0.0
  0
VERTEX
  8
LY_1
  6
CONTINUOUS
 62
   251
  5
186
 10
398.563471
 20
90.371961
 30
0.0
  0
VERTEX
  8
LY_1
  6
CONTINUOUS
 62
   251
  5
187
 10
399.041428
 20
90.299159
 30
0.0
  0
VERTEX
  8
LY_1
  6
CONTINUOUS
 62
   251
  5
188
 10
399.570007
 20
90.237815
 30
0.0
  0
VERTEX
  8
LY_1
  6
CONTINUOUS
 62
   251
  5
189
 10
400.140164
 20
90.18898
 30
0.0
  0
VERTEX
  8
LY_1
  6
CONTINUOUS
 62
   251
  5
18A
 10
400.742143
 20
90.153488
 30
0.0
  0
VERTEX
  8
LY_1
  6
CONTINUOUS
 62
   251
  5
18B
 10
401.365645
 20
90.131947
 30
0.0
  0
VERTEX
  8
LY_1
  6
CONTINUOUS
 62
   251
  5
18C
 10
402.0
 20
90.124725
 30
0.0
  0
VERTEX
  8
LY_1
  6
CONTINUOUS
 62
   251
  5
18D
 10
402.634355
 20
90.131947
 30
0.0
  0
VERTEX
  8
LY_1
  6
CONTINUOUS
 62
   251
  5
18E
 10
403.257857
 20
90.153488
 30
0.0
  0
VERTEX
  8
LY_1
  6
CONTINUOUS
 62
   251
  5
18F
 10
403.859836
 20
90.18898
 30
0.0
  0
VERTEX
  8
LY_1
  6
CONTINUOUS
 62
   251
  5
190
 10
404.429993
 20
90.237815
 30
0.0
  0
VERTEX
  8
LY_1
  6
CONTINUOUS
 62
   251
  5
191
 10
404.958572
 20
90.299159
 30
0.0
  0
VERTEX
  8
LY_1
  6
CONTINUOUS
 62
   251
  5
192
 10
405.436529
 20
90.371961
 30
0.0
  0
VERTEX
  8
LY_1
  6
CONTINUOUS
 62
   251
  5
193
 10
405.855686
 20
90.454976
 30
0.0
  0
VERTEX
  8
LY_1
  6
CONTINUOUS
 62
   251
  5
194
 10
406.208871
 20
90.546783
 30
0.0
  0
VERTEX
  8
LY_1
  6
CONTINUOUS
 62
   251
  5
195
 10
406.490041
 20
90.645812
 30
0.0
  0
VERTEX
  8
LY_1
  6
CONTINUOUS
 62
   251
  5
196
 10
406.694385
 20
90.750368
 30
0.0
  0
VERTEX
  8
LY_1
  6
CONTINUOUS
 62
   251
  5
197
 10
406.818408
 20
90.858662
 30
0.0
  0
VERTEX
  8
LY_1
  6
CONTINUOUS
 62
   251
  5
198
 10
406.859985
 20
90.968842
 30
0.0
  0
SEQEND
  8
LY_1
  6
CONTINUOUS
 62
   251
  5
199
  0
ARC
  8
LY_1
  6
CONTINUOUS
 62
   251
  5
61
 10
414.956787
 20
93.201263
 30
0.0
 40
4.0
 50
126.08644
 51
188.554038
  0
ARC
  8
LY_1
  6
CONTINUOUS
 62
   251
  5
62
 10
391.043213
 20
93.201263
 30
0.0
 40
4.0
 50
351.445928
 51
53.913579
  0
ARC
  8
LY_1
  6
CONTINUOUS
 62
   251
  5
63
 10
408.440186
 20
95.606293
 30
0.0
 40
2.0
 50
10.000004
 51
89.999982
  0
ARC
  8
LY_1
  6
CONTINUOUS
 62
   251
  5
64
 10
397.559875
 20
95.606293
 30
0.0
 40
2.0
 50
104.725713
 51
170.000021
  0
ARC
  8
LY_1
  6
CONTINUOUS
 62
   251
  5
65
 10
403.0
 20
109.606293
 30
0.0
 40
10.0
 50
293.562695
 51
233.582661
  0
ARC
  8
LY_1
  6
CONTINUOUS
 62
   251
  5
66
 10
403.0
 20
109.606293
 30
0.0
 40
16.299999
 50
306.086414
 51
233.913543
  0
CIRCLE
  8
LY_1
  6
CONTINUOUS
 62
   251
  5
67
 10
379.0
 20
0.0
 30
0.0
 40
4.990937
  0
ARC
  8
LY_1
  6
CONTINUOUS
 62
   251
  5
68
 10
0.0
 20
0.0
 30
0.0
 40
95.0
 50
176.983028
 51
183.017009
  0
ARC
  8
LY_1
  6
CONTINUOUS
 62
   251
  5
69
 10
0.0
 20
0.0
 30
0.0
 40
95.0
 50
163.98287
 51
170.017178
  0
ARC
  8
LY_1
  6
CONTINUOUS
 62
   251
  5
6A
 10
0.0
 20
0.0
 30
0.0
 40
95.0
 50
143.350631
 51
156.649023
  0
ARC
  8
LY_1
  6
CONTINUOUS
 62
   251
  5
6B
 10
0.0
 20
0.0
 30
0.0
 40
95.0
 50
129.982926
 51
136.017111
  0
ARC
  8
LY_1
  6
CONTINUOUS
 62
   251
  5
6C
 10
0.0
 20
0.0
 30
0.0
 40
95.0
 50
116.983027
 51
123.016939
  0
ARC
  8
LY_1
  6
CONTINUOUS
 62
   251
  5
6D
 10
0.0
 20
0.0
 30
0.0
 40
95.0
 50
103.982957
 51
110.016937
  0
ARC
  8
LY_1
  6
CONTINUOUS
 62
   251
  5
6E
 10
0.0
 20
0.0
 30
0.0
 40
95.0
 50
23.350631
 51
96.649349
  0
ARC
  8
LY_1
  6
CONTINUOUS
 62
   251
  5
6F
 10
0.0
 20
0.0
 30
0.0
 40
95.0
 50
9.983049
 51
16.01707
  0
ARC
  8
LY_1
  6
CONTINUOUS
 62
   251
  5
70
 10
0.0
 20
0.0
 30
0.0
 40
95.0
 50
356.983082
 51
3.017021
  0
ARC
  8
LY_1
  6
CONTINUOUS
 62
   251
  5
71
 10
474.0
 20
62.5
 30
0.0
 40
5.0
 50
269.999997
 51
0.0
  0
ARC
  8
LY_1
  6
CONTINUOUS
 62
   251
  5
72
 10
474.0
 20
-62.5
 30
0.0
 40
5.0
 50
0.0
 51
90.000003
  0
ARC
  8
LY_1
  6
CONTINUOUS
 62
   251
  5
73
 10
417.0
 20
-62.5
 30
0.0
 40
5.0
 50
90.000003
 51
180.000005
  0
ARC
  8
LY_1
  6
CONTINUOUS
 62
   251
  5
74
 10
417.0
 20
62.5
 30
0.0
 40
5.0
 50
179.999991
 51
270.000001
  0
ARC
  8
LY_1
  6
CONTINUOUS
 62
   251
  5
75
 10
0.0
 20
0.0
 30
0.0
 40
19.0
 50
15.257523
 51
344.742477
  0
ARC
  8
LY_1
  6
CONTINUOUS
 62
   251
  5
76
 10
248.0
 20
0.0
 30
0.0
 40
5.0
 50
269.999997
 51
90.000003
  0
ARC
  8
LY_1
  6
CONTINUOUS
 62
   251
  5
77
 10
324.0
 20
69.550735
 30
0.0
 40
5.0
 50
273.000001
 51
0.0
  0
ARC
  8
LY_1
  6
CONTINUOUS
 62
   251
  5
78
 10
284.627197
 20
-39.892334
 30
0.0
 40
5.0
 50
355.000048
 51
89.999982
  0
ARC
  8
LY_1
  6
CONTINUOUS
 62
   251
  5
79
 10
280.418335
 20
-88.0
 30
0.0
 40
5.0
 50
270.000018
 51
355.000017
  0
ARC
  8
LY_1
  6
CONTINUOUS
 62
   251
  5
7A
 10
411.989227
 20
-63.0
 30
0.0
 40
30.0
 50
220.000001
 51
270.000018
  0
ARC
  8
LY_1
  6
CONTINUOUS
 62
   251
  5
7B
 10
324.0
 20
14.649109
 30
0.0
 40
5.0
 50
283.342301
 51
0.0
  0
ARC
  8
LY_1
  6
CONTINUOUS
 62
   251
  5
7C
 10
327.0
 20
2.0
 30
0.0
 40
8.0
 50
103.342422
 51
179.999964
  0
ARC
  8
LY_1
  6
CONTINUOUS
 62
   251
  5
7D
 10
314.0
 20
-88.0
 30
0.0
 40
5.0
 50
270.000018
 51
0.0
  0
ARC
  8
LY_1
  6
CONTINUOUS
 62
   251
  5
7E
 10
-21.589539
 20
122.440125
 30
0.0
 40
3.15
 50
9.999875
 51
189.99988
  0
ARC
  8
LY_1
  6
CONTINUOUS
 62
   251
  5
7F
 10
-20.78833
 20
93.997147
 30
0.0
 40
1.0
 50
279.999879
 51
9.999916
  0
ARC
  8
LY_1
  6
CONTINUOUS
 62
   251
  5
80
 10
-23.232544
 20
95.597031
 30
0.0
 40
1.0
 50
117.667002
 51
179.999868
  0
ARC
  8
LY_1
  6
CONTINUOUS
 62
   251
  5
81
 10
-10.864807
 20
97.777756
 30
0.0
 40
1.0
 50
19.999928
 51
82.332801
  0
ARC
  8
LY_1
  6
CONTINUOUS
 62
   251
  5
82
 10
-12.614441
 20
95.4384
 30
0.0
 40
1.0
 50
189.999897
 51
279.999934
  0
ARC
  8
LY_1
  6
CONTINUOUS
 62
   251
  5
83
 10
-65.812256
 20
-15.0
 30
0.0
 40
5.0
 50
12.839589
 51
90.000003
  0
ARC
  8
LY_1
  6
CONTINUOUS
 62
   251
  5
84
 10
-65.812256
 20
15.0
 30
0.0
 40
5.0
 50
269.999997
 51
347.160411
  0
ARC
  8
LY_1
  6
CONTINUOUS
 62
   251
  5
85
 10
65.812256
 20
-15.0
 30
0.0
 40
5.0
 50
90.000003
 51
167.160411
  0
ARC
  8
LY_1
  6
CONTINUOUS
 62
   251
  5
86
 10
65.812256
 20
15.0
 30
0.0
 40
5.0
 50
192.839589
 51
269.999997
  0
ARC
  8
LY_1
  6
CONTINUOUS
 62
   251
  5
87
 10
-57.258362
 20
-35.745361
 30
0.0
 40
5.0
 50
345.000035
 51
31.975654
  0
ARC
  8
LY_1
  6
CONTINUOUS
 62
   251
  5
88
 10
-39.559204
 20
-54.692963
 30
0.0
 40
5.0
 50
54.122057
 51
165.000145
  0
ARC
  8
LY_1
  6
CONTINUOUS
 62
   251
  5
89
 10
39.559265
 20
-54.692902
 30
0.0
 40
5.0
 50
14.999965
 51
125.878064
  0
ARC
  8
LY_1
  6
CONTINUOUS
 62
   251
  5
8A
 10
57.258423
 20
-35.7453
 30
0.0
 40
5.0
 50
148.024365
 51
194.999934
  0
ARC
  8
LY_1
  6
CENTER
 62
     7
  5
8B
 10
0.0
 20
0.0
 30
0.0
 40
81.0
 50
323.676631
 51
336.775595
  0
ARC
  8
LY_1
  6
CENTER
 62
     7
  5
8C
 10
0.0
 20
0.0
 30
0.0
 40
81.0
 50
263.676636
 51
276.7756
  0
ARC
  8
LY_1
  6
CENTER
 62
     7
  5
8D
 10
0.0
 20
0.0
 30
0.0
 40
81.0
 50
203.676641
 51
216.775605
  0
ARC
  8
LY_1
  6
CENTER
 62
     7
  5
8E
 10
0.0
 20
0.0
 30
0.0
 40
81.0
 50
143.676622
 51
156.203626
  0
ARC
  8
LY_1
  6
CENTER
 62
     7
  5
8F
 10
0.0
 20
0.0
 30
0.0
 40
81.0
 50
83.676627
 51
96.775612
  0
ARC
  8
LY_1
  6
CENTER
 62
     7
  5
90
 10
0.0
 20
0.0
 30
0.0
 40
81.0
 50
23.676625
 51
36.775589
  0
ARC
  8
LY_1
  6
CONTINUOUS
 62
   251
  5
91
 10
-71.259949
 20
-88.0
 30
0.0
 40
5.0
 50
269.999963
 51
345.00003
  0
ARC
  8
LY_1
  6
CONTINUOUS
 62
   251
  5
92
 10
-87.642822
 20
5.0
 30
0.0
 40
5.0
 50
89.999982
 51
169.999911
  0
ARC
  8
LY_1
  6
CONTINUOUS
 62
   251
  5
93
 10
-81.015137
 20
-15.0
 30
0.0
 40
5.0
 50
89.999982
 51
170.000089
  0
ARC
  8
LY_1
  6
CONTINUOUS
 62
   251
  5
94
 10
-93.886963
 20
-88.0
 30
0.0
 40
5.0
 50
169.999911
 51
269.999946
  0
ARC
  8
LY_1
  6
CONTINUOUS
 62
   251
  5
95
 10
93.886963
 20
-88.0
 30
0.0
 40
5.0
 50
270.000018
 51
10.000048
  0
ARC
  8
LY_1
  6
CONTINUOUS
 62
   251
  5
96
 10
81.015137
 20
-15.0
 30
0.0
 40
5.0
 50
9.999877
 51
89.999982
  0
ARC
  8
LY_1
  6
CONTINUOUS
 62
   251
  5
97
 10
87.642822
 20
5.0
 30
0.0
 40
5.0
 50
10.000048
 51
89.999982
  0
ARC
  8
LY_1
  6
CONTINUOUS
 62
   251
  5
98
 10
71.259949
 20
-88.0
 30
0.0
 40
5.0
 50
194.999951
 51
270.000018
  0
ARC
  8
LY_1
  6
CONTINUOUS
 62
   251
  5
99
 10
52.0
 20
-115.0
 30
0.0
 40
3.0
 50
0.0
 51
89.999982
  0
ARC
  8
LY_1
  6
CONTINUOUS
 62
   251
  5
9A
 10
-52.0
 20
-115.0
 30
0.0
 40
3.0
 50
89.999982
 51
179.999964
  0
CIRCLE
  8
LY_1
  6
CONTINUOUS
 62
   251
  5
9B
 10
0.0
 20
0.0
 30
0.0
 40
47.5
  0
CIRCLE
  8
LY_1
  6
CONTINUOUS
 62
   251
  5
9C
 10
0.0
 20
0.0
 30
0.0
 40
62.5
  0
ARC
  8
LY_1
  6
CONTINUOUS
 62
   251
  5
9D
 10
0.0
 20
0.0
 30
0.0
 40
92.5
 50
4.323778
 51
175.676236
  0
LINE
  8
LY_1
  6
CONTINUOUS
 62
   251
  5
9E
 10
245.0
 20
5.0
 30
0.0
 11
245.0
 21
-5.0
 31
0.0
  0
LINE
  8
LY_1
  6
CONTINUOUS
 62
   251
  5
9F
 10
22.0
 20
5.0
 30
0.0
 11
22.0
 21
-5.0
 31
0.0
  0
LINE
  8
LY_1
  6
CONTINUOUS
 62
   251
  5
A0
 10
407.015411
 20
98.260947
 30
0.0
 11
409.130314
 21
97.483433
 31
0.0
  0
LINE
  8
LY_1
  6
CONTINUOUS
 62
   251
  5
A1
 10
406.936584
 20
97.606293
 30
0.0
 11
408.440186
 21
97.606293
 31
0.0
  0
LINE
  8
LY_1
  6
CENTER
 62
     7
  5
A2
 10
383.244019
 20
109.606293
 30
0.0
 11
422.751526
 21
109.606293
 31
0.0
  0
LINE
  8
LY_1
  6
CONTINUOUS
 62
   251
  5
A3
 10
410.409812
 20
95.953596
 30
0.0
 11
411.000029
 21
92.606308
 31
0.0
  0
LINE
  8
LY_1
  6
CONTINUOUS
 62
   251
  5
A4
 10
394.999989
 20
92.606313
 30
0.0
 11
395.590207
 21
95.953601
 31
0.0
  0
LINE
  8
LY_1
  6
CENTER
 62
     7
  5
A5
 10
403.0
 20
129.519424
 30
0.0
 11
403.0
 21
105.450531
 31
0.0
  0
LINE
  8
LY_1
  6
CONTINUOUS
 62
   251
  5
A6
 10
407.130005
 20
92.5
 30
0.0
 11
412.0
 21
92.5
 31
0.0
  0
LINE
  8
LY_1
  6
CONTINUOUS
 62
   251
  5
A7
 10
406.989957
 20
95.058704
 30
0.0
 11
406.859959
 21
90.964179
 31
0.0
  0
LINE
  8
LY_1
  6
CONTINUOUS
 62
   251
  5
A8
 10
397.140096
 20
90.964202
 30
0.0
 11
397.010098
 21
95.058728
 31
0.0
  0
LINE
  8
LY_1
  6
CONTINUOUS
 62
     7
  5
A9
 10
402.000024
 20
94.275921
 30
0.0
 11
397.465027
 21
101.957166
 31
0.0
  0
LINE
  8
LY_1
  6
CONTINUOUS
 62
     7
  5
AA
 10
406.535025
 20
101.957165
 30
0.0
 11
402.000012
 21
94.275893
 31
0.0
  0
LINE
  8
LY_1
  6
CONTINUOUS
 62
     7
  5
AB
 10
401.999982
 20
101.16957
 30
0.0
 11
406.534988
 21
95.063501
 31
0.0
  0
LINE
  8
LY_1
  6
CONTINUOUS
 62
     7
  5
AC
 10
397.464993
 20
95.063473
 30
0.0
 11
402.000008
 21
101.169554
 31
0.0
  0
LINE
  8
LY_1
  6
CONTINUOUS
 62
   251
  5
AD
 10
402.000038
 20
94.275902
 30
0.0
 11
397.465016
 21
95.0635
 31
0.0
  0
LINE
  8
LY_1
  6
CONTINUOUS
 62
   251
  5
AE
 10
406.535013
 20
95.063494
 30
0.0
 11
401.999991
 21
94.275897
 31
0.0
  0
LINE
  8
LY_1
  6
CONTINUOUS
 62
   251
  5
AF
 10
402.00002
 20
102.744729
 30
0.0
 11
397.464995
 21
101.957149
 31
0.0
  0
LINE
  8
LY_1
  6
CONTINUOUS
 62
   251
  5
B0
 10
406.535009
 20
101.95714
 30
0.0
 11
402.000044
 21
102.74471
 31
0.0
  0
LINE
  8
LY_1
  6
CONTINUOUS
 62
   251
  5
B1
 10
402.000029
 20
101.169555
 30
0.0
 11
406.535051
 21
101.957155
 31
0.0
  0
LINE
  8
LY_1
  6
CONTINUOUS
 62
   251
  5
B2
 10
397.464989
 20
101.957159
 30
0.0
 11
402.00001
 21
101.169559
 31
0.0
  0
LINE
  8
LY_1
  6
CONTINUOUS
 62
   251
  5
B3
 10
406.535034
 20
101.957153
 30
0.0
 11
406.535034
 21
95.063507
 31
0.0
  0
LINE
  8
LY_1
  6
CONTINUOUS
 62
   251
  5
B4
 10
397.465027
 20
101.957153
 30
0.0
 11
397.465027
 21
95.063507
 31
0.0
  0
LINE
  8
LY_1
  6
CENTER
 62
     7
  5
B5
 10
402.0
 20
104.554604
 30
0.0
 11
402.0
 21
87.071808
 31
0.0
  0
LINE
  8
LY_1
  6
CONTINUOUS
 62
   251
  5
B6
 10
394.0
 20
92.500031
 30
0.0
 11
396.887756
 21
92.500031
 31
0.0
  0
LINE
  8
LY_1
  6
CONTINUOUS
 62
     7
  5
B7
 10
101.030059
 20
0.000038
 30
0.0
 11
94.917403
 21
3.960631
 31
0.0
  0
LINE
  8
LY_1
  6
CONTINUOUS
 62
     7
  5
B8
 10
94.99793
 20
0.627106
 30
0.0
 11
101.029977
 21
4.53547
 31
0.0
  0
LINE
  8
LY_1
  6
CONTINUOUS
 62
     7
  5
B9
 10
101.030065
 20
-0.000026
 30
0.0
 11
94.917403
 21
-3.960624
 31
0.0
  0
LINE
  8
LY_1
  6
CONTINUOUS
 62
     7
  5
BA
 10
101.029971
 20
-4.535459
 30
0.0
 11
94.99793
 21
-0.627099
 31
0.0
  0
LINE
  8
LY_1
  6
CONTINUOUS
 62
   251
  5
BB
 10
101.030029
 20
-4.535534
 30
0.0
 11
101.030029
 21
4.535534
 31
0.0
  0
LINE
  8
LY_1
  6
CONTINUOUS
 62
   251
  5
BC
 10
101.030029
 20
4.535534
 30
0.0
 11
94.891669
 21
4.535534
 31
0.0
  0
LINE
  8
LY_1
  6
CONTINUOUS
 62
   251
  5
BD
 10
101.030029
 20
-4.535534
 30
0.0
 11
94.891669
 21
-4.535534
 31
0.0
  0
LINE
  8
LY_1
  6
CENTER
 62
     7
  5
BE
 10
379.0
 20
-6.990936
 30
0.0
 11
379.0
 21
6.990936
 31
0.0
  0
LINE
  8
LY_1
  6
CONTINUOUS
 62
   251
  5
BF
 10
374.050123
 20
0.000049
 30
0.0
 11
378.999871
 21
-4.949698
 31
0.0
  0
LINE
  8
LY_1
  6
CONTINUOUS
 62
   251
  5
C0
 10
378.999868
 20
4.949658
 30
0.0
 11
374.05012
 21
-0.000089
 31
0.0
  0
LINE
  8
LY_1
  6
CONTINUOUS
 62
   251
  5
C1
 10
383.949709
 20
0.0
 30
0.0
 11
378.999874
 21
4.949833
 31
0.0
  0
LINE
  8
LY_1
  6
CONTINUOUS
 62
   251
  5
C2
 10
378.999953
 20
-4.949751
 30
0.0
 11
383.949701
 21
-0.000004
 31
0.0
  0
LINE
  8
LY_1
  6
CONTINUOUS
 62
   251
  5
C3
 10
-94.868418
 20
4.999814
 30
0.0
 11
-92.642285
 21
5.439003
 31
0.0
  0
LINE
  8
LY_1
  6
CONTINUOUS
 62
   251
  5
C4
 10
-93.562158
 20
16.467593
 30
0.0
 11
-91.207152
 21
15.411135
 31
0.0
  0
LINE
  8
LY_1
  6
CONTINUOUS
 62
   251
  5
C5
 10
-91.312049
 20
26.213428
 30
0.0
 11
-88.732416
 21
26.130577
 31
0.0
  0
LINE
  8
LY_1
  6
CONTINUOUS
 62
   251
  5
C6
 10
-87.218909
 20
37.653942
 30
0.0
 11
-85.332744
 21
35.701187
 31
0.0
  0
LINE
  8
LY_1
  6
CONTINUOUS
 62
   251
  5
C7
 10
-76.218697
 20
56.707476
 30
0.0
 11
-73.584064
 21
56.050283
 31
0.0
  0
LINE
  8
LY_1
  6
CONTINUOUS
 62
   251
  5
C8
 10
-68.356728
 20
65.972429
 30
0.0
 11
-66.995257
 21
63.779983
 31
0.0
  0
LINE
  8
LY_1
  6
CONTINUOUS
 62
   251
  5
C9
 10
-61.043626
 20
72.791489
 30
0.0
 11
-58.951821
 21
71.28067
 31
0.0
  0
LINE
  8
LY_1
  6
CONTINUOUS
 62
   251
  5
CA
 10
-51.764723
 20
79.658287
 30
0.0
 11
-50.931295
 21
77.215638
 31
0.0
  0
LINE
  8
LY_1
  6
CONTINUOUS
 62
   251
  5
CB
 10
-43.104335
 20
84.657907
 30
0.0
 11
-41.405923
 21
82.715164
 31
0.0
  0
LINE
  8
LY_1
  6
CONTINUOUS
 62
   251
  5
CC
 10
-32.518522
 20
89.261208
 30
0.0
 11
-32.255938
 21
86.693745
 31
0.0
  0
LINE
  8
LY_1
  6
CONTINUOUS
 62
   251
  5
CD
 10
-22.955763
 20
92.184541
 30
0.0
 11
-21.737874
 21
89.909477
 31
0.0
  0
LINE
  8
LY_1
  6
CONTINUOUS
 62
   251
  5
CE
 10
-11.000042
 20
94.361004
 30
0.0
 11
-11.748166
 21
91.75091
 31
0.0
  0
LINE
  8
LY_1
  6
CONTINUOUS
 62
   251
  5
CF
 10
87.219278
 20
37.653886
 30
0.0
 11
85.332868
 21
35.700878
 31
0.0
  0
LINE
  8
LY_1
  6
CONTINUOUS
 62
   251
  5
D0
 10
91.312011
 20
26.212293
 30
0.0
 11
88.732744
 21
26.129481
 31
0.0
  0
LINE
  8
LY_1
  6
CONTINUOUS
 62
   251
  5
D1
 10
93.561658
 20
16.468785
 30
0.0
 11
91.206946
 21
15.41249
 31
0.0
  0
LINE
  8
LY_1
  6
CONTINUOUS
 62
   251
  5
D2
 10
94.868188
 20
4.999424
 30
0.0
 11
92.642749
 21
5.438501
 31
0.0
  0
LINE
  8
LY_1
  6
CONTINUOUS
 62
   251
  5
D3
 10
386.805161
 20
-79.658478
 30
0.0
 11
390.0
 21
-79.658478
 31
0.0
  0
LINE
  8
LY_1
  6
CONTINUOUS
 62
   251
  5
D4
 10
381.044495
 20
-72.793182
 30
0.0
 11
390.0
 21
-72.793182
 31
0.0
  0
LINE
  8
LY_1
  6
CONTINUOUS
 62
   251
  5
D5
 10
375.320663
 20
-65.971802
 30
0.0
 11
390.0
 21
-65.971802
 31
0.0
  0
LINE
  8
LY_1
  6
CONTINUOUS
 62
   251
  5
D6
 10
367.546356
 20
-56.706726
 30
0.0
 11
390.0
 21
-56.706726
 31
0.0
  0
LINE
  8
LY_1
  6
CONTINUOUS
 62
   251
  5
D7
 10
351.55896
 20
-37.653709
 30
0.0
 11
390.0
 21
-37.653709
 31
0.0
  0
LINE
  8
LY_1
  6
CONTINUOUS
 62
   251
  5
D8
 10
348.0
 20
-26.212463
 30
0.0
 11
390.0
 21
-26.212463
 31
0.0
  0
LINE
  8
LY_1
  6
CONTINUOUS
 62
   251
  5
D9
 10
348.0
 20
-16.469452
 30
0.0
 11
390.0
 21
-16.469452
 31
0.0
  0
LINE
  8
LY_1
  6
CONTINUOUS
 62
   251
  5
DA
 10
348.0
 20
-5.00013
 30
0.0
 11
370.3396
 21
-5.00013
 31
0.0
  0
LINE
  8
LY_1
  6
CONTINUOUS
 62
   251
  5
DB
 10
348.0
 20
4.999474
 30
0.0
 11
370.339355
 21
4.999474
 31
0.0
  0
LINE
  8
LY_1
  6
CONTINUOUS
 62
   251
  5
DC
 10
348.0
 20
16.468781
 30
0.0
 11
390.0
 21
16.468781
 31
0.0
  0
LINE
  8
LY_1
  6
CONTINUOUS
 62
   251
  5
DD
 10
348.0
 20
26.212311
 30
0.0
 11
390.0
 21
26.212311
 31
0.0
  0
LINE
  8
LY_1
  6
CONTINUOUS
 62
   251
  5
DE
 10
348.0
 20
37.653854
 30
0.0
 11
390.0
 21
37.653854
 31
0.0
  0
LINE
  8
LY_1
  6
CONTINUOUS
 62
   251
  5
DF
 10
393.999828
 20
90.999951
 30
0.0
 11
389.999824
 21
94.999955
 31
0.0
  0
LINE
  8
LY_1
  6
CONTINUOUS
 62
   251
  5
E0
 10
347.999908
 20
95.000041
 30
0.0
 11
343.999904
 21
91.000037
 31
0.0
  0
LINE
  8
LY_1
  6
CONTINUOUS
 62
   251
  5
E1
 10
348.0
 20
95.0
 30
0.0
 11
390.0
 21
95.0
 31
0.0
  0
LINE
  8
LY_1
  6
CONTINUOUS
 62
   251
  5
E2
 10
417.0
 20
-57.5
 30
0.0
 11
474.0
 21
-57.5
 31
0.0
  0
LINE
  8
LY_1
  6
CONTINUOUS
 62
   251
  5
E3
 10
479.0
 20
-65.0
 30
0.0
 11
494.0
 21
-65.0
 31
0.0
  0
LINE
  8
LY_1
  6
CONTINUOUS
 62
   251
  5
E4
 10
417.0
 20
57.5
 30
0.0
 11
474.0
 21
57.5
 31
0.0
  0
LINE
  8
LY_1
  6
CONTINUOUS
 62
   251
  5
E5
 10
479.0
 20
65.0
 30
0.0
 11
494.0
 21
65.0
 31
0.0
  0
LINE
  8
LY_1
  6
CONTINUOUS
 62
   251
  5
E6
 10
479.0
 20
65.0
 30
0.0
 11
479.0
 21
-65.0
 31
0.0
  0
LINE
  8
LY_1
  6
CONTINUOUS
 62
   251
  5
E7
 10
494.0
 20
65.0
 30
0.0
 11
494.0
 21
-65.0
 31
0.0
  0
LINE
  8
LY_1
  6
DASHED
 62
     7
  5
E9
 10
308.94975
 20
-68.43332
 30
0.0
 11
303.000004
 21
-76.43332
 31
0.0
  0
LINE
  8
LY_1
  6
DASHED
 62
     7
  5
EA
 10
303.000003
 20
-68.43332
 30
0.0
 11
308.949747
 21
-76.433317
 31
0.0
  0
LINE
  8
LY_1
  6
DASHED
 62
     7
  5
EB
 10
302.999998
 20
-76.433315
 30
0.0
 11
297.050254
 21
-68.433318
 31
0.0
  0
LINE
  8
LY_1
  6
DASHED
 62
     7
  5
EC
 10
297.050257
 20
-76.433319
 30
0.0
 11
303.000003
 21
-68.433319
 31
0.0
  0
LINE
  8
LY_1
  6
DASHED
 62
     7
  5
ED
 10
308.949745
 20
-76.433319
 30
0.0
 11
308.949745
 21
-68.433319
 31
0.0
  0
LINE
  8
LY_1
  6
DASHED
 62
     7
  5
EE
 10
297.050255
 20
-76.433319
 30
0.0
 11
297.050255
 21
-68.433319
 31
0.0
  0
LINE
  8
LY_1
  6
DASHED
 62
     7
  5
EF
 10
309.735936
 20
-68.433317
 30
0.0
 11
309.590793
 21
-63.788726
 31
0.0
  0
LINE
  8
LY_1
  6
DASHED
 62
     7
  5
F0
 10
296.264064
 20
-68.43332
 30
0.0
 11
296.430761
 21
-63.09904
 31
0.0
  0
LINE
  8
LY_1
  6
DASHED
 62
     7
  5
F1
 10
296.264061
 20
-68.433319
 30
0.0
 11
309.735939
 21
-68.433319
 31
0.0
  0
LINE
  8
LY_1
  6
DASHED
 62
     7
  5
F2
 10
297.050255
 20
-76.433319
 30
0.0
 11
308.949745
 21
-76.433319
 31
0.0
  0
LINE
  8
LY_1
  6
CONTINUOUS
 62
     7
  5
F3
 10
5.949753
 20
-67.489986
 30
0.0
 11
-0.000001
 21
-75.489995
 31
0.0
  0
LINE
  8
LY_1
  6
CONTINUOUS
 62
     7
  5
F4
 10
-0.000005
 20
-67.490001
 30
0.0
 11
5.949744
 21
-75.490003
 31
0.0
  0
LINE
  8
LY_1
  6
CONTINUOUS
 62
     7
  5
F5
 10
0.000007
 20
-75.489992
 30
0.0
 11
-5.949737
 21
-67.489996
 31
0.0
  0
LINE
  8
LY_1
  6
CONTINUOUS
 62
     7
  5
F6
 10
-5.94975
 20
-75.489996
 30
0.0
 11
0.000003
 21
-67.489988
 31
0.0
  0
LINE
  8
LY_1
  6
CONTINUOUS
 62
   251
  5
F7
 10
0.0
 20
-75.490005
 30
0.0
 11
0.0
 21
-67.489998
 31
0.0
  0
LINE
  8
LY_1
  6
CONTINUOUS
 62
   251
  5
F8
 10
5.949738
 20
-75.490005
 30
0.0
 11
5.949738
 21
-67.489998
 31
0.0
  0
LINE
  8
LY_1
  6
CONTINUOUS
 62
   251
  5
F9
 10
-5.949738
 20
-75.490005
 30
0.0
 11
-5.949738
 21
-67.489998
 31
0.0
  0
LINE
  8
LY_1
  6
CONTINUOUS
 62
   251
  5
FA
 10
6.73594
 20
-67.489996
 30
0.0
 11
6.569184
 21
-62.15381
 31
0.0
  0
LINE
  8
LY_1
  6
CONTINUOUS
 62
   251
  5
FB
 10
-6.73594
 20
-67.489993
 30
0.0
 11
-6.569184
 21
-62.153807
 31
0.0
  0
LINE
  8
LY_1
  6
CONTINUOUS
 62
   251
  5
FC
 10
-6.735931
 20
-67.489998
 30
0.0
 11
6.735931
 21
-67.489998
 31
0.0
  0
LINE
  8
LY_1
  6
CONTINUOUS
 62
   251
  5
FD
 10
-5.949738
 20
-75.490005
 30
0.0
 11
5.949738
 21
-75.490005
 31
0.0
  0
LINE
  8
LY_1
  6
CONTINUOUS
 62
     7
  5
FE
 10
17.977792
 20
101.957149
 30
0.0
 11
21.228898
 21
94.275914
 31
0.0
  0
LINE
  8
LY_1
  6
CONTINUOUS
 62
     7
  5
FF
 10
16.762256
 20
95.063512
 30
0.0
 11
13.51118
 21
102.744743
 31
0.0
  0
LINE
  8
LY_1
  6
CONTINUOUS
 62
     7
  5
100
 10
17.97779
 20
101.957129
 30
0.0
 11
12.295641
 21
95.851066
 31
0.0
  0
LINE
  8
LY_1
  6
CONTINUOUS
 62
     7
  5
101
 10
16.762249
 20
95.063483
 30
0.0
 11
22.444437
 21
101.16955
 31
0.0
  0
LINE
  8
LY_1
  6
CONTINUOUS
 62
   251
  5
102
 10
-22.821512
 20
91.93378
 30
0.0
 11
-11.103534
 21
93.999958
 31
0.0
  0
LINE
  8
LY_1
  6
CONTINUOUS
 62
   251
  5
103
 10
-14.925419
 20
91.295194
 30
0.0
 11
-16.409862
 21
93.06429
 31
0.0
  0
LINE
  8
LY_1
  6
CONTINUOUS
 62
   251
  5
104
 10
-16.440826
 20
91.078766
 30
0.0
 11
-17.888174
 21
92.803654
 31
0.0
  0
LINE
  8
LY_1
  6
CONTINUOUS
 62
   251
  5
105
 10
329.0
 20
92.5
 30
0.0
 11
344.0
 21
92.5
 31
0.0
  0
LINE
  8
LY_1
  6
CENTER
 62
     7
  5
106
 10
181.814415
 20
0.0
 30
0.0
 11
688.57616
 21
0.0
 31
0.0
  0
LINE
  8
LY_1
  6
CENTER
 62
     7
  5
107
 10
303.0
 20
-55.508438
 30
0.0
 11
303.0
 21
-80.394684
 31
0.0
  0
LINE
  8
LY_1
  6
DASHED
 62
     7
  5
108
 10
287.656192
 20
-62.639183
 30
0.0
 11
314.580927
 21
-64.050248
 31
0.0
  0
LINE
  8
LY_1
  6
CONTINUOUS
 62
   251
  5
109
 10
21.67736
 20
94.196829
 30
0.0
 11
11.847135
 21
95.930163
 31
0.0
  0
LINE
  8
LY_1
  6
CONTINUOUS
 62
   251
  5
10A
 10
22.444433
 20
101.16956
 30
0.0
 11
13.511167
 21
102.744736
 31
0.0
  0
LINE
  8
LY_1
  6
CONTINUOUS
 62
   251
  5
10B
 10
11.847157
 20
95.930157
 30
0.0
 11
11.610205
 21
94.287874
 31
0.0
  0
LINE
  8
LY_1
  6
CONTINUOUS
 62
   251
  5
10C
 10
13.511167
 20
102.744736
 30
0.0
 11
12.29563
 21
95.851081
 31
0.0
  0
LINE
  8
LY_1
  6
CONTINUOUS
 62
   251
  5
10D
 10
22.444433
 20
101.16956
 30
0.0
 11
21.228895
 21
94.275906
 31
0.0
  0
LINE
  8
LY_1
  6
CONTINUOUS
 62
   251
  5
10E
 10
21.67737
 20
94.196824
 30
0.0
 11
21.338338
 21
92.572541
 31
0.0
  0
LINE
  8
LY_1
  6
CENTER
 62
     7
  5
10F
 10
0.0
 20
123.78186
 30
0.0
 11
0.0
 21
-128.0
 31
0.0
  0
LINE
  8
LY_1
  6
CENTER
 62
     7
  5
110
 10
-22.814185
 20
129.385356
 30
0.0
 11
-15.378953
 21
87.217696
 31
0.0
  0
LINE
  8
LY_1
  6
CONTINUOUS
 62
   251
  5
111
 10
14.0
 20
5.0
 30
0.0
 11
14.0
 21
-5.0
 31
0.0
  0
LINE
  8
LY_1
  6
CONTINUOUS
 62
   251
  5
112
 10
22.0
 20
-5.0
 30
0.0
 11
14.0
 21
-5.0
 31
0.0
  0
LINE
  8
LY_1
  6
CONTINUOUS
 62
   251
  5
113
 10
22.0
 20
5.0
 30
0.0
 11
14.0
 21
5.0
 31
0.0
  0
LINE
  8
LY_1
  6
CONTINUOUS
 62
   251
  5
114
 10
200.0
 20
5.0
 30
0.0
 11
248.0
 21
5.0
 31
0.0
  0
LINE
  8
LY_1
  6
CONTINUOUS
 62
   251
  5
115
 10
200.0
 20
-5.0
 30
0.0
 11
248.0
 21
-5.0
 31
0.0
  0
LINE
  8
LY_1
  6
CONTINUOUS
 62
   251
  5
116
 10
200.0
 20
19.0
 30
0.0
 11
200.0
 21
-19.0
 31
0.0
  0
LINE
  8
LY_1
  6
CONTINUOUS
 62
   251
  5
117
 10
411.0
 20
-92.5
 30
0.0
 11
406.534866
 21
-92.5
 31
0.0
  0
LINE
  8
LY_1
  6
CONTINUOUS
 62
   251
  5
118
 10
394.0
 20
92.5
 30
0.0
 11
394.0
 21
-87.008072
 31
0.0
  0
LINE
  8
LY_1
  6
CONTINUOUS
 62
   251
  5
119
 10
411.989227
 20
-93.0
 30
0.0
 11
445.0
 21
-93.0
 31
0.0
  0
LINE
  8
LY_1
  6
CONTINUOUS
 62
   251
  5
11A
 10
284.999992
 20
62.499983
 30
0.0
 11
324.261664
 21
64.5576
 31
0.0
  0
LINE
  8
LY_1
  6
DASHED
 62
     7
  5
11B
 10
417.5
 20
-93.0
 30
0.0
 11
417.5
 21
-115.0
 31
0.0
  0
LINE
  8
LY_1
  6
DASHED
 62
     7
  5
11C
 10
432.5
 20
-93.0
 30
0.0
 11
432.5
 21
-115.0
 31
0.0
  0
LINE
  8
LY_1
  6
DASHED
 62
     7
  5
11D
 10
287.5
 20
-93.0
 30
0.0
 11
287.5
 21
-115.0
 31
0.0
  0
LINE
  8
LY_1
  6
DASHED
 62
     7
  5
11E
 10
302.5
 20
-93.0
 30
0.0
 11
302.5
 21
-115.0
 31
0.0
  0
LINE
  8
LY_1
  6
CONTINUOUS
 62
   251
  5
11F
 10
255.0
 20
-22.5
 30
0.0
 11
260.0
 21
-22.5
 31
0.0
  0
LINE
  8
LY_1
  6
CONTINUOUS
 62
   251
  5
120
 10
255.0
 20
22.5
 30
0.0
 11
260.0
 21
22.5
 31
0.0
  0
LINE
  8
LY_1
  6
CONTINUOUS
 62
   251
  5
121
 10
255.0
 20
22.5
 30
0.0
 11
255.0
 21
-22.5
 31
0.0
  0
LINE
  8
LY_1
  6
CONTINUOUS
 62
   251
  5
122
 10
200.0
 20
-19.0
 30
0.0
 11
255.0
 21
-19.0
 31
0.0
  0
LINE
  8
LY_1
  6
CONTINUOUS
 62
   251
  5
123
 10
200.0
 20
19.0
 30
0.0
 11
255.0
 21
19.0
 31
0.0
  0
LINE
  8
LY_1
  6
CENTER
 62
     7
  5
124
 10
425.0
 20
-84.166138
 30
0.0
 11
425.0
 21
-124.798035
 31
0.0
  0
LINE
  8
LY_1
  6
CENTER
 62
     7
  5
125
 10
295.0
 20
-85.133545
 30
0.0
 11
295.0
 21
-121.895752
 31
0.0
  0
LINE
  8
LY_1
  6
CONTINUOUS
 62
   251
  5
126
 10
259.99995
 20
-47.499984
 30
0.0
 11
262.999904
 21
-52.696057
 31
0.0
  0
LINE
  8
LY_1
  6
CONTINUOUS
 62
   251
  5
127
 10
259.999893
 20
47.499963
 30
0.0
 11
262.999878
 21
52.696089
 31
0.0
  0
LINE
  8
LY_1
  6
CONTINUOUS
 62
   251
  5
128
 10
260.0
 20
47.499969
 30
0.0
 11
260.0
 21
-47.5
 31
0.0
  0
LINE
  8
LY_1
  6
CONTINUOUS
 62
   251
  5
129
 10
285.399286
 20
-88.435787
 30
0.0
 11
289.608165
 21
-40.328108
 31
0.0
  0
LINE
  8
LY_1
  6
CONTINUOUS
 62
   251
  5
12A
 10
343.999992
 20
-28.645277
 30
0.0
 11
389.007918
 21
-82.283627
 31
0.0
  0
LINE
  8
LY_1
  6
CONTINUOUS
 62
   251
  5
12B
 10
319.0
 20
2.0
 30
0.0
 11
319.0
 21
-88.0
 31
0.0
  0
LINE
  8
LY_1
  6
CONTINUOUS
 62
   251
  5
12C
 10
285.000003
 20
-62.499947
 30
0.0
 11
287.656209
 21
-62.639153
 31
0.0
  0
LINE
  8
LY_1
  6
CONTINUOUS
 62
   251
  5
12D
 10
329.0
 20
92.5
 30
0.0
 11
329.0
 21
14.649109
 31
0.0
  0
LINE
  8
LY_1
  6
CONTINUOUS
 62
   251
  5
12E
 10
263.0
 20
62.5
 30
0.0
 11
263.0
 21
-62.5
 31
0.0
  0
LINE
  8
LY_1
  6
CONTINUOUS
 62
   251
  5
12F
 10
275.0
 20
-93.0
 30
0.0
 11
314.0
 21
-93.0
 31
0.0
  0
LINE
  8
LY_1
  6
CONTINUOUS
 62
   251
  5
130
 10
445.0
 20
-93.0
 30
0.0
 11
445.0
 21
-115.0
 31
0.0
  0
LINE
  8
LY_1
  6
CONTINUOUS
 62
   251
  5
131
 10
275.0
 20
-115.0
 30
0.0
 11
445.0
 21
-115.0
 31
0.0
  0
LINE
  8
LY_1
  6
CONTINUOUS
 62
   251
  5
132
 10
275.0
 20
-93.0
 30
0.0
 11
275.0
 21
-115.0
 31
0.0
  0
LINE
  8
LY_1
  6
CONTINUOUS
 62
   251
  5
133
 10
344.0
 20
92.5
 30
0.0
 11
344.0
 21
-28.645325
 31
0.0
  0
LINE
  8
LY_1
  6
CONTINUOUS
 62
   251
  5
134
 10
263.0
 20
-62.5
 30
0.0
 11
285.0
 21
-62.5
 31
0.0
  0
LINE
  8
LY_1
  6
CONTINUOUS
 62
   251
  5
135
 10
263.0
 20
62.5
 30
0.0
 11
285.0
 21
62.5
 31
0.0
  0
LINE
  8
LY_1
  6
CONTINUOUS
 62
   251
  5
136
 10
-24.232544
 20
95.597031
 30
0.0
 11
-24.232544
 21
91.85741
 31
0.0
  0
LINE
  8
LY_1
  6
CONTINUOUS
 62
   251
  5
137
 10
-20.506219
 20
98.155678
 30
0.0
 11
-23.696955
 21
96.482845
 31
0.0
  0
LINE
  8
LY_1
  6
CONTINUOUS
 62
   251
  5
138
 10
-24.691641
 20
121.893137
 30
0.0
 11
-19.803493
 21
94.170835
 31
0.0
  0
LINE
  8
LY_1
  6
CONTINUOUS
 62
   251
  5
139
 10
-18.48743
 20
122.987144
 30
0.0
 11
-13.599283
 21
95.264842
 31
0.0
  0
LINE
  8
LY_1
  6
CONTINUOUS
 62
   251
  5
13A
 10
-14.301913
 20
99.249519
 30
0.0
 11
-10.731279
 21
98.768832
 31
0.0
  0
LINE
  8
LY_1
  6
CONTINUOUS
 62
   251
  5
13B
 10
-9.92513
 20
98.119824
 30
0.0
 11
-8.646113
 21
94.605739
 31
0.0
  0
LINE
  8
LY_1
  6
DASHED
 62
     7
  5
13C
 10
97.5
 20
-93.0
 30
0.0
 11
97.5
 21
-115.0
 31
0.0
  0
LINE
  8
LY_1
  6
DASHED
 62
     7
  5
13D
 10
82.5
 20
-93.0
 30
0.0
 11
82.5
 21
-115.0
 31
0.0
  0
LINE
  8
LY_1
  6
DASHED
 62
     7
  5
13E
 10
-97.5
 20
-93.0
 30
0.0
 11
-97.5
 21
-115.0
 31
0.0
  0
LINE
  8
LY_1
  6
DASHED
 62
     7
  5
13F
 10
-82.5
 20
-93.0
 30
0.0
 11
-82.5
 21
-115.0
 31
0.0
  0
LINE
  8
LY_1
  6
CENTER
 62
     7
  5
140
 10
90.0
 20
-86.100983
 30
0.0
 11
90.0
 21
-123.830627
 31
0.0
  0
LINE
  8
LY_1
  6
CENTER
 62
     7
  5
141
 10
-90.0
 20
-86.100983
 30
0.0
 11
-90.0
 21
-123.830627
 31
0.0
  0
LINE
  8
LY_1
  6
CENTER
 62
     7
  5
142
 10
76.339282
 20
-44.074454
 30
0.0
 11
63.428136
 21
-36.620199
 31
0.0
  0
LINE
  8
LY_1
  6
CENTER
 62
     7
  5
143
 10
-76.339257
 20
-44.074232
 30
0.0
 11
-63.949817
 21
-36.921188
 31
0.0
  0
LINE
  8
LY_1
  6
CENTER
 62
     7
  5
144
 10
-76.339275
 20
44.074476
 30
0.0
 11
-62.364916
 21
36.006375
 31
0.0
  0
LINE
  8
LY_1
  6
CONTINUOUS
 62
   251
  5
145
 10
-85.938911
 20
-14.131828
 30
0.0
 11
-98.810782
 21
-87.131814
 31
0.0
  0
LINE
  8
LY_1
  6
CONTINUOUS
 62
   251
  5
146
 10
-92.566601
 20
5.868199
 30
0.0
 11
-109.999744
 21
-93.000038
 31
0.0
  0
LINE
  8
LY_1
  6
CONTINUOUS
 62
   251
  5
147
 10
-65.812256
 20
-10.0
 30
0.0
 11
-81.015137
 21
-10.0
 31
0.0
  0
LINE
  8
LY_1
  6
CONTINUOUS
 62
   251
  5
148
 10
-65.812256
 20
10.0
 30
0.0
 11
-87.642822
 21
10.0
 31
0.0
  0
LINE
  8
LY_1
  6
CONTINUOUS
 62
   251
  5
149
 10
-52.428681
 20
-37.039474
 30
0.0
 11
-66.430258
 21
-89.294062
 31
0.0
  0
LINE
  8
LY_1
  6
CONTINUOUS
 62
   251
  5
14A
 10
-44.388854
 20
-53.398867
 30
0.0
 11
-54.999946
 21
-92.999998
 31
0.0
  0
LINE
  8
LY_1
  6
CONTINUOUS
 62
   251
  5
14B
 10
85.939236
 20
-14.131768
 30
0.0
 11
98.811102
 21
-87.131726
 31
0.0
  0
LINE
  8
LY_1
  6
CONTINUOUS
 62
   251
  5
14C
 10
92.114861
 20
8.432222
 30
0.0
 11
110.000099
 21
-92.999975
 31
0.0
  0
LINE
  8
LY_1
  6
CONTINUOUS
 62
   251
  5
14D
 10
65.812256
 20
-10.0
 30
0.0
 11
81.015137
 21
-10.0
 31
0.0
  0
LINE
  8
LY_1
  6
CONTINUOUS
 62
   251
  5
14E
 10
65.812256
 20
10.0
 30
0.0
 11
87.642822
 21
10.0
 31
0.0
  0
LINE
  8
LY_1
  6
CONTINUOUS
 62
   251
  5
14F
 10
52.42877
 20
-37.039353
 30
0.0
 11
66.43037
 21
-89.29403
 31
0.0
  0
LINE
  8
LY_1
  6
CONTINUOUS
 62
   251
  5
150
 10
44.388929
 20
-53.398813
 30
0.0
 11
55.000029
 21
-92.999974
 31
0.0
  0
LINE
  8
LY_1
  6
CONTINUOUS
 62
   251
  5
151
 10
55.0
 20
-115.0
 30
0.0
 11
110.0
 21
-115.0
 31
0.0
  0
LINE
  8
LY_1
  6
CONTINUOUS
 62
   251
  5
152
 10
55.0
 20
-93.0
 30
0.0
 11
110.0
 21
-93.0
 31
0.0
  0
LINE
  8
LY_1
  6
CONTINUOUS
 62
   251
  5
153
 10
-52.0
 20
-112.0
 30
0.0
 11
52.0
 21
-112.0
 31
0.0
  0
LINE
  8
LY_1
  6
CONTINUOUS
 62
   251
  5
154
 10
55.0
 20
-93.0
 30
0.0
 11
55.0
 21
-115.0
 31
0.0
  0
LINE
  8
LY_1
  6
CONTINUOUS
 62
   251
  5
155
 10
-55.0
 20
-93.0
 30
0.0
 11
-55.0
 21
-115.0
 31
0.0
  0
LINE
  8
LY_1
  6
CONTINUOUS
 62
   251
  5
156
 10
110.0
 20
-93.0
 30
0.0
 11
110.0
 21
-115.0
 31
0.0
  0
LINE
  8
LY_1
  6
CONTINUOUS
 62
   251
  5
157
 10
-110.0
 20
-93.0
 30
0.0
 11
-110.0
 21
-115.0
 31
0.0
  0
LINE
  8
LY_1
  6
CONTINUOUS
 62
   251
  5
158
 10
-110.0
 20
-93.0
 30
0.0
 11
-55.0
 21
-93.0
 31
0.0
  0
LINE
  8
LY_1
  6
CONTINUOUS
 62
   251
  5
159
 10
-110.0
 20
-115.0
 30
0.0
 11
-55.0
 21
-115.0
 31
0.0
  0
LINE
  8
LY_1
  6
CENTER
 62
     7
  5
15A
 10
76.339032
 20
44.074735
 30
0.0
 11
63.470038
 21
36.64482
 31
0.0
  0
LINE
  8
LY_1
  6
CENTER
 62
     7
  5
15B
 10
19.101289
 20
108.328856
 30
0.0
 11
15.440836
 21
87.569396
 31
0.0
  0
LINE
  8
LY_1
  6
CENTER
 62
     7
  5
15C
 10
-111.0
 20
0.0
 30
0.0
 11
110.0
 21
0.0
 31
0.0
  0
LINE
  8
LY_1
  6
CONTINUOUS
 62
   251
  5
15D
 10
412.0
 20
92.5
 30
0.0
 11
412.0
 21
-92.5
 31
0.0
  0
LINE
  8
LY_1
  6
CONTINUOUS
 62
   251
  5
15E
 10
406.534866
 20
-92.5
 30
0.0
 11
412.0
 21
-92.5
 31
0.0
  0
ENDSEC
  0
EOF
