  0
SECTION
  2
HEADER
  9
$ACADVER
  1
AC1009
  9
$DWGCODEPAGE
  3
dos932
  9
$INSBASE
 10
0.0
 20
0.0
 30
0.0
  9
$EXTMIN
 10
-89.24749
 20
-128.0
 30
0.0
  9
$EXTMAX
 10
555.594111
 20
123.716336
 30
0.0
  9
$LIMMIN
 10
-89.24749
 20
-128.0
  9
$LIMMAX
 10
555.594111
 20
123.716336
  9
$ORTHOMODE
 70
     0
  9
$REGENMODE
 70
     1
  9
$FILLMODE
 70
     1
  9
$QTEXTMODE
 70
     0
  9
$MIRRTEXT
 70
     1
  9
$DRAGMODE
 70
     2
  9
$LTSCALE
 40
1.0
  9
$OSMODE
 70
     0
  9
$ATTMODE
 70
     1
  9
$TEXTSIZE
 40
3.15
  9
$TRACEWID
 40
0.05
  9
$TEXTSTYLE
  7
MX_NOTE_STANDARD
  9
$CLAYER
  8
LY_1
  9
$CELTYPE
  6
CONTINUOUS
  9
$CECOLOR
 62
   256
  9
$DIMSCALE
 40
1.0
  9
$DIMASZ
 40
2.5
  9
$DIMEXO
 40
1.0
  9
$DIMDLI
 40
3.75
  9
$DIMRND
 40
0.0
  9
$DIMDLE
 40
0.0
  9
$DIMEXE
 40
1.5
  9
$DIMTP
 40
0.0
  9
$DIMTM
 40
0.0
  9
$DIMTXT
 40
3.15
  9
$DIMCEN
 40
2.5
  9
$DIMTSZ
 40
0.0
  9
$DIMTOL
 70
     0
  9
$DIMLIM
 70
     0
  9
$DIMTIH
 70
     0
  9
$DIMTOH
 70
     0
  9
$DIMSE1
 70
     0
  9
$DIMSE2
 70
     0
  9
$DIMTAD
 70
     1
  9
$DIMZIN
 70
     8
  9
$DIMBLK
  1

  9
$DIMASO
 70
     1
  9
$DIMSHO
 70
     1
  9
$DIMPOST
  1

  9
$DIMAPOST
  1

  9
$DIMALT
 70
     0
  9
$DIMALTD
 70
     4
  9
$DIMALTF
 40
0.03937
  9
$DIMLFAC
 40
1.0
  9
$DIMTOFL
 70
     1
  9
$DIMTVP
 40
0.0
  9
$DIMTIX
 70
     0
  9
$DIMSOXD
 70
     0
  9
$DIMSAH
 70
     0
  9
$DIMBLK1
  1

  9
$DIMBLK2
  1

  9
$DIMSTYLE
  2
MXDIMSTYLE
  9
$DIMCLRD
 70
     0
  9
$DIMCLRE
 70
     0
  9
$DIMCLRT
 70
     0
  9
$DIMTFAC
 40
1.0
  9
$DIMGAP
 40
1.0
  9
$LUNITS
 70
     2
  9
$LUPREC
 70
     4
  9
$AXISMODE
 70
     0
  9
$AXISUNIT
 10
0.0
 20
0.0
  9
$SKETCHINC
 40
0.1
  9
$FILLETRAD
 40
0.0
  9
$AUNITS
 70
     0
  9
$AUPREC
 70
     0
  9
$MENU
  1
acad
  9
$ELEVATION
 40
0.0
  9
$PELEVATION
 40
0.0
  9
$THICKNESS
 40
0.0
  9
$LIMCHECK
 70
     0
  9
$BLIPMODE
 70
     1
  9
$CHAMFERA
 40
0.0
  9
$CHAMFERB
 40
0.0
  9
$SKPOLY
 70
     0
  9
$TDCREATE
 40
2453665.670150463
  9
$TDUPDATE
 40
2453665.670150463
  9
$TDINDWG
 40
0.0000000000
  9
$TDUSRTIMER
 40
0.0000000000
  9
$USRTIMER
 70
     1
  9
$ANGBASE
 50
0.0
  9
$ANGDIR
 70
     0
  9
$PDMODE
 70
     0
  9
$PDSIZE
 40
0.0
  9
$PLINEWID
 40
0.0
  9
$COORDS
 70
     1
  9
$SPLFRAME
 70
     0
  9
$SPLINETYPE
 70
     6
  9
$SPLINESEGS
 70
     8
  9
$ATTDIA
 70
     0
  9
$ATTREQ
 70
     1
  9
$HANDLING
 70
     1
  9
$HANDSEED
  5
1B9
  9
$SURFTAB1
 70
     6
  9
$SURFTAB2
 70
     6
  9
$SURFTYPE
 70
     6
  9
$SURFU
 70
     6
  9
$SURFV
 70
     6
  9
$UCSNAME
  2

  9
$UCSORG
 10
0.0
 20
0.0
 30
0.0
  9
$UCSXDIR
 10
1.0
 20
0.0
 30
0.0
  9
$UCSYDIR
 10
0.0
 20
1.0
 30
0.0
  9
$PUCSNAME
  2

  9
$PUCSORG
 10
0.0
 20
0.0
 30
0.0
  9
$PUCSXDIR
 10
1.0
 20
0.0
 30
0.0
  9
$PUCSYDIR
 10
0.0
 20
1.0
 30
0.0
  9
$USERI1
 70
     0
  9
$USERI2
 70
     0
  9
$USERI3
 70
     0
  9
$USERI4
 70
     0
  9
$USERI5
 70
     0
  9
$USERR1
 40
0.0
  9
$USERR2
 40
0.0
  9
$USERR3
 40
0.0
  9
$USERR4
 40
0.0
  9
$USERR5
 40
0.0
  9
$WORLDVIEW
 70
     1
  9
$SHADEDGE
 70
     3
  9
$SHADEDIF
 70
    70
  9
$TILEMODE
 70
     1
  9
$MAXACTVP
 70
    16
  9
$PINSBASE
 10
0.0
 20
0.0
 30
0.0
  9
$PLIMCHECK
 70
     0
  9
$PEXTMIN
 10
1.000000E+20
 20
1.000000E+20
 30
1.000000E+20
  9
$PEXTMAX
 10
-1.000000E+20
 20
-1.000000E+20
 30
-1.000000E+20
  9
$PLIMMIN
 10
0.0
 20
0.0
  9
$PLIMMAX
 10
12.0
 20
9.0
  9
$UNITMODE
 70
     0
  9
$VISRETAIN
 70
     0
  9
$PLINEGEN
 70
     1
  9
$PSLTSCALE
 70
     0
  9
$TREEDEPTH
 70
  3020
  9
$DWGCODEPAGE
  3
dos932
  0
ENDSEC
  0
SECTION
  2
TABLES
  0
TABLE
  2
VPORT
 70
     1
  0
VPORT
  2
*ACTIVE
 70
     0
 10
0.0
 20
0.0
 11
1.0
 21
1.0
 12
233.17331
 22
-2.141832
 13
0.0
 23
0.0
 14
1.0
 24
1.0
 15
0.0
 25
0.0
 16
0.0
 26
0.0
 36
1.0
 17
0.0
 27
0.0
 37
0.0
 40
254.233499
 41
1.732051
 42
50.0
 43
0.0
 44
0.0
 50
0.0
 51
0.0
 71
     0
 72
   100
 73
     1
 74
     1
 75
     0
 76
     0
 77
     0
 78
     0
  0
ENDTAB
  0
TABLE
  2
LTYPE
 70
     3
  0
LTYPE
  2
CONTINUOUS
 70
    64
  3
Solid line
 72
    65
 73
     0
 40
0.0
  0
LTYPE
  2
CENTER
 70
    64
  3
Center ____ _ ____ _ ____ _ ____ _ ____ _ ____
 72
    65
 73
     4
 40
50.8
 49
31.75
 49
-6.35
 49
6.35
 49
-6.35
  0
LTYPE
  2
DASHED
 70
    64
  3
Dashed __ __ __ __ __ __ __ __ __ __ __ __ __ _
 72
    65
 73
     2
 40
19.05
 49
12.7
 49
-6.35
  0
ENDTAB
  0
TABLE
  2
LAYER
 70
     3
  0
LAYER
  2
0
 70
     0
 62
     7
  6
CONTINUOUS
  0
LAYER
  2
LY_1
 70
     0
 62
     7
  6
CONTINUOUS
  0
LAYER
  2
DEFPOINTS
 70
     0
 62
     7
  6
CONTINUOUS
  0
ENDTAB
  0
TABLE
  2
STYLE
 70
     1
  0
STYLE
  2
MX_NOTE_STANDARD
 70
     0
 40
0.0
 41
1.0
 50
0.0
 71
     0
 42
3.15
  3
txt.shx
  4
extfont.shx
  0
ENDTAB
  0
TABLE
  2
VIEW
 70
     0
  0
ENDTAB
  0
TABLE
  2
UCS
 70
     0
  0
ENDTAB
  0
TABLE
  2
APPID
 70
     1
  0
APPID
  2
ACAD
 70
     0
  0
ENDTAB
  0
TABLE
  2
DIMSTYLE
 70
     1
  0
DIMSTYLE
  2
MXDIMSTYLE
 70
     0
  3

  4

  5

  6

  7

 40
1.0
 41
2.5
 42
1.0
 43
3.75
 44
1.5
 45
0.0
 46
0.0
 47
0.0
 48
0.0
 71
     0
 72
     0
 73
     0
 74
     0
 75
     0
 76
     0
 77
     1
 78
     8
140
3.15
141
2.5
142
0.0
143
0.03937
144
1.0
145
0.0
146
1.0
147
1.0
170
     0
171
     4
172
     1
173
     0
174
     0
175
     0
176
     0
177
     0
178
     0
  0
ENDTAB
  0
ENDSEC
  0
SECTION
  2
BLOCKS
  0
ENDSEC
  0
SECTION
  2
ENTITIES
  0
LINE
  8
LY_1
  6
CONTINUOUS
 62
   251
  5
1F
 10
461.900035
 20
92.00012
 30
0.0
 11
461.900035
 21
110.00012
 31
0.0
  0
LINE
  8
LY_1
  6
CONTINUOUS
 62
   251
  5
20
 10
461.900095
 20
110.00019
 30
0.0
 11
460.900095
 21
111.00016
 31
0.0
  0
LINE
  8
LY_1
  6
CONTINUOUS
 62
   251
  5
21
 10
460.900035
 20
111.0001
 30
0.0
 11
428.100045
 21
111.0001
 31
0.0
  0
LINE
  8
LY_1
  6
CONTINUOUS
 62
   251
  5
22
 10
428.100145
 20
111.00003
 30
0.0
 11
427.100145
 21
110.00001
 31
0.0
  0
LINE
  8
LY_1
  6
CONTINUOUS
 62
   251
  5
23
 10
427.100045
 20
110.00012
 30
0.0
 11
427.100045
 21
92.00012
 31
0.0
  0
LINE
  8
LY_1
  6
CONTINUOUS
 62
   251
  5
24
 10
427.100045
 20
92.00012
 30
0.0
 11
427.100045
 21
95.00012
 31
0.0
  0
LINE
  8
LY_1
  6
CONTINUOUS
 62
   251
  5
25
 10
424.000015
 20
88.20013
 30
0.0
 11
424.000015
 21
92.00012
 31
0.0
  0
LINE
  8
LY_1
  6
CONTINUOUS
 62
   251
  5
26
 10
424.000015
 20
92.0001
 30
0.0
 11
465.000015
 21
92.0001
 31
0.0
  0
LINE
  8
LY_1
  6
CONTINUOUS
 62
   251
  5
27
 10
465.000015
 20
92.00012
 30
0.0
 11
465.000015
 21
88.20013
 31
0.0
  0
LINE
  8
LY_1
  6
CONTINUOUS
 62
   251
  5
28
 10
422.000135
 20
88.19918
 30
0.0
 11
467.000015
 21
88.19918
 31
0.0
  0
LINE
  8
LY_1
  6
CONTINUOUS
 62
   251
  5
29
 10
467.000015
 20
65.02215
 30
0.0
 11
467.000015
 21
88.20013
 31
0.0
  0
LINE
  8
LY_1
  6
CONTINUOUS
 62
   251
  5
2A
 10
412.000015
 20
65.99998
 30
0.0
 11
412.000015
 21
64.99998
 31
0.0
  0
LINE
  8
LY_1
  6
CENTER
 62
     7
  5
2C
 10
444.500015
 20
117.94021
 30
0.0
 11
444.500015
 21
81.06567
 31
0.0
  0
LINE
  8
LY_1
  6
CONTINUOUS
 62
   251
  5
2D
 10
468.800035
 20
-65.0
 30
0.0
 11
468.800035
 21
64.99998
 31
0.0
  0
LINE
  8
LY_1
  6
CONTINUOUS
 62
   251
  5
2E
 10
473.300035
 20
64.99998
 30
0.0
 11
473.300035
 21
-65.0
 31
0.0
  0
LINE
  8
LY_1
  6
CONTINUOUS
 62
   251
  5
2F
 10
409.000015
 20
-65.0
 30
0.0
 11
409.000015
 21
64.99998
 31
0.0
  0
LINE
  8
LY_1
  6
CONTINUOUS
 62
   251
  5
30
 10
405.000015
 20
64.99998
 30
0.0
 11
405.000015
 21
-65.0
 31
0.0
  0
LINE
  8
LY_1
  6
CONTINUOUS
 62
   251
  5
31
 10
409.000015
 20
28.0
 30
0.0
 11
468.800035
 21
28.0
 31
0.0
  0
LINE
  8
LY_1
  6
CONTINUOUS
 62
   251
  5
32
 10
409.000015
 20
25.0
 30
0.0
 11
468.800035
 21
25.0
 31
0.0
  0
LINE
  8
LY_1
  6
CONTINUOUS
 62
   251
  5
33
 10
409.000015
 20
22.0
 30
0.0
 11
468.800035
 21
22.0
 31
0.0
  0
LINE
  8
LY_1
  6
CONTINUOUS
 62
   251
  5
34
 10
409.000015
 20
19.0
 30
0.0
 11
468.800035
 21
19.0
 31
0.0
  0
LINE
  8
LY_1
  6
CONTINUOUS
 62
   251
  5
35
 10
409.000015
 20
-19.0
 30
0.0
 11
468.800035
 21
-19.0
 31
0.0
  0
LINE
  8
LY_1
  6
CONTINUOUS
 62
   251
  5
36
 10
409.000015
 20
-22.0
 30
0.0
 11
468.800035
 21
-22.0
 31
0.0
  0
LINE
  8
LY_1
  6
CONTINUOUS
 62
   251
  5
37
 10
409.000015
 20
-25.0
 30
0.0
 11
468.800035
 21
-25.0
 31
0.0
  0
LINE
  8
LY_1
  6
CONTINUOUS
 62
   251
  5
38
 10
409.000015
 20
-28.0
 30
0.0
 11
468.800035
 21
-28.0
 31
0.0
  0
LINE
  8
LY_1
  6
CONTINUOUS
 62
   251
  5
39
 10
541.300035
 20
62.19998
 30
0.0
 11
541.300035
 21
80.49997
 31
0.0
  0
LINE
  8
LY_1
  6
CONTINUOUS
 62
   251
  5
3A
 10
541.300065
 20
80.50001
 30
0.0
 11
540.300065
 21
81.5
 31
0.0
  0
LINE
  8
LY_1
  6
CONTINUOUS
 62
   251
  5
3B
 10
540.300035
 20
81.49997
 30
0.0
 11
512.700025
 21
81.49997
 31
0.0
  0
LINE
  8
LY_1
  6
CONTINUOUS
 62
   251
  5
3C
 10
512.700025
 20
81.49997
 30
0.0
 11
511.700025
 21
80.49997
 31
0.0
  0
LINE
  8
LY_1
  6
CONTINUOUS
 62
   251
  5
3D
 10
511.700025
 20
80.49997
 30
0.0
 11
511.700025
 21
62.19998
 31
0.0
  0
LINE
  8
LY_1
  6
CENTER
 62
     7
  5
3E
 10
526.500015
 20
54.94079
 30
0.0
 11
526.500015
 21
88.24273
 31
0.0
  0
LINE
  8
LY_1
  6
CONTINUOUS
 62
   251
  5
3F
 10
507.450025
 20
58.39997
 30
0.0
 11
507.450025
 21
62.19998
 31
0.0
  0
LINE
  8
LY_1
  6
CONTINUOUS
 62
   251
  5
40
 10
507.450025
 20
62.19998
 30
0.0
 11
545.550035
 21
62.19998
 31
0.0
  0
LINE
  8
LY_1
  6
CONTINUOUS
 62
   251
  5
41
 10
545.550035
 20
62.19998
 30
0.0
 11
545.550035
 21
58.39997
 31
0.0
  0
LINE
  8
LY_1
  6
CONTINUOUS
 62
   251
  5
42
 10
502.500015
 20
-27.46296
 30
0.0
 11
501.300035
 21
-27.46296
 31
0.0
  0
LINE
  8
LY_1
  6
CONTINUOUS
 62
   251
  5
43
 10
501.300035
 20
-27.5037
 30
0.0
 11
519.500015
 21
-27.5037
 31
0.0
  0
LINE
  8
LY_1
  6
CONTINUOUS
 62
   251
  5
44
 10
519.500045
 20
-40.03482
 30
0.0
 11
543.855905
 21
-39.1843
 31
0.0
  0
LINE
  8
LY_1
  6
CONTINUOUS
 62
   251
  5
45
 10
519.500015
 20
-42.5
 30
0.0
 11
405.000015
 21
-42.5
 31
0.0
  0
LINE
  8
LY_1
  6
CONTINUOUS
 62
   251
  5
46
 10
519.500015
 20
-42.5
 30
0.0
 11
519.500015
 21
42.5
 31
0.0
  0
LINE
  8
LY_1
  6
CONTINUOUS
 62
   251
  5
47
 10
519.500015
 20
27.50344
 30
0.0
 11
501.300035
 21
27.50344
 31
0.0
  0
LINE
  8
LY_1
  6
CONTINUOUS
 62
   251
  5
48
 10
546.000015
 20
58.39997
 30
0.0
 11
507.000015
 21
58.39997
 31
0.0
  0
LINE
  8
LY_1
  6
CONTINUOUS
 62
   251
  5
49
 10
507.000015
 20
58.39997
 30
0.0
 11
507.000015
 21
42.5
 31
0.0
  0
LINE
  8
LY_1
  6
CONTINUOUS
 62
   251
  5
4A
 10
546.000015
 20
58.39997
 30
0.0
 11
546.000015
 21
-29.99308
 31
0.0
  0
LINE
  8
LY_1
  6
CONTINUOUS
 62
   251
  5
4B
 10
519.500015
 20
34.34738
 30
0.0
 11
546.000015
 21
34.34738
 31
0.0
  0
LINE
  8
LY_1
  6
CONTINUOUS
 62
   251
  5
4C
 10
519.500015
 20
42.5
 30
0.0
 11
405.000015
 21
42.5
 31
0.0
  0
LINE
  8
LY_1
  6
CONTINUOUS
 62
   251
  5
4D
 10
513.500015
 20
-42.5
 30
0.0
 11
513.500015
 21
42.5
 31
0.0
  0
LINE
  8
LY_1
  6
CONTINUOUS
 62
   251
  5
4E
 10
501.300035
 20
63.99998
 30
0.0
 11
501.300035
 21
-65.0
 31
0.0
  0
ARC
  8
LY_1
  6
CONTINUOUS
 62
   251
  5
4F
 10
500.300035
 20
63.99998
 30
0.0
 40
1.0
 50
359.99998
 51
90.00003
  0
ARC
  8
LY_1
  6
CONTINUOUS
 62
   251
  5
50
 10
500.300035
 20
-64.0
 30
0.0
 40
1.0
 50
269.999982
 51
359.99996
  0
ARC
  8
LY_1
  6
CONTINUOUS
 62
   251
  5
51
 10
515.951855
 20
-29.99308
 30
0.0
 40
30.048155
 50
343.61989
 51
359.9868
  0
ARC
  8
LY_1
  6
CONTINUOUS
 62
   251
  5
52
 10
543.820995
 20
-38.18491
 30
0.0
 40
1.0
 50
272.000742
 51
343.61965
  0
ARC
  8
LY_1
  6
CONTINUOUS
 62
   251
  5
53
 10
470.567825
 20
52.96881
 30
0.0
 40
60.0
 50
144.04333
 51
167.45615
  0
LINE
  8
LY_1
  6
CONTINUOUS
 62
   251
  5
54
 10
500.300035
 20
-65.0
 30
0.0
 11
393.000015
 21
-65.0
 31
0.0
  0
LINE
  8
LY_1
  6
CONTINUOUS
 62
   251
  5
55
 10
393.000015
 20
64.99998
 30
0.0
 11
500.300035
 21
64.99998
 31
0.0
  0
LINE
  8
LY_1
  6
CONTINUOUS
 62
   251
  5
56
 10
393.000015
 20
-50.80603
 30
0.0
 11
405.000015
 21
-50.80603
 31
0.0
  0
LINE
  8
LY_1
  6
CONTINUOUS
 62
   251
  5
57
 10
393.000015
 20
50.80596
 30
0.0
 11
405.000015
 21
50.80596
 31
0.0
  0
LINE
  8
LY_1
  6
CONTINUOUS
 62
   251
  5
58
 10
-18.750653
 20
88.2
 30
0.0
 11
-20.5
 21
88.2
 31
0.0
  0
LINE
  8
LY_1
  6
CONTINUOUS
 62
   251
  5
59
 10
-19.420692
 20
91.99998
 30
0.0
 11
-20.5
 21
91.99998
 31
0.0
  0
LINE
  8
LY_1
  6
CONTINUOUS
 62
   251
  5
5A
 10
20.5
 20
88.2
 30
0.0
 11
-12.353447
 21
88.2
 31
0.0
  0
LINE
  8
LY_1
  6
CONTINUOUS
 62
   251
  5
5B
 10
20.5
 20
91.99998
 30
0.0
 11
-13.023486
 21
91.99998
 31
0.0
  0
LINE
  8
LY_1
  6
CONTINUOUS
 62
   251
  5
5C
 10
17.40002
 20
91.99998
 30
0.0
 11
17.40002
 21
109.99998
 31
0.0
  0
LINE
  8
LY_1
  6
CONTINUOUS
 62
   251
  5
5D
 10
17.40002
 20
109.99997
 30
0.0
 11
16.40002
 21
110.99997
 31
0.0
  0
LINE
  8
LY_1
  6
CONTINUOUS
 62
   251
  5
5E
 10
16.40002
 20
110.99998
 30
0.0
 11
-16.40002
 21
110.99998
 31
0.0
  0
LINE
  8
LY_1
  6
CONTINUOUS
 62
   251
  5
5F
 10
-16.39996
 20
110.99997
 30
0.0
 11
-17.40002
 21
109.99995
 31
0.0
  0
LINE
  8
LY_1
  6
CONTINUOUS
 62
   251
  5
60
 10
-17.40002
 20
109.99998
 30
0.0
 11
-17.40002
 21
106.113991
 31
0.0
  0
LINE
  8
LY_1
  6
CONTINUOUS
 62
   251
  5
61
 10
20.5
 20
72.143953
 30
0.0
 11
20.5
 21
91.99998
 31
0.0
  0
LINE
  8
LY_1
  6
CONTINUOUS
 62
   251
  5
62
 10
-20.5
 20
91.99998
 30
0.0
 11
-20.5
 21
76.945829
 31
0.0
  0
LINE
  8
LY_1
  6
CONTINUOUS
 62
   251
  5
63
 10
311.000029
 20
81.473398
 30
0.0
 11
311.000023
 21
74.579751
 31
0.0
  0
LINE
  8
LY_1
  6
CONTINUOUS
 62
   251
  5
64
 10
14.504805
 20
82.260996
 30
0.0
 11
13.289272
 21
75.367332
 31
0.0
  0
POLYLINE
  8
LY_1
  6
CONTINUOUS
 62
   251
  5
65
 66
     1
 10
0.0
 20
0.0
 30
0.0
  0
VERTEX
  8
LY_1
  6
CONTINUOUS
 62
   251
  5
17E
 10
306.499505
 20
75.74168
 30
0.0
  0
VERTEX
  8
LY_1
  6
CONTINUOUS
 62
   251
  5
17F
 10
306.242014
 20
75.628526
 30
0.0
  0
VERTEX
  8
LY_1
  6
CONTINUOUS
 62
   251
  5
180
 10
306.078298
 20
75.510225
 30
0.0
  0
VERTEX
  8
LY_1
  6
CONTINUOUS
 62
   251
  5
181
 10
306.011584
 20
75.389107
 30
0.0
  0
VERTEX
  8
LY_1
  6
CONTINUOUS
 62
   251
  5
182
 10
306.043189
 20
75.267561
 30
0.0
  0
VERTEX
  8
LY_1
  6
CONTINUOUS
 62
   251
  5
183
 10
306.172487
 20
75.147981
 30
0.0
  0
VERTEX
  8
LY_1
  6
CONTINUOUS
 62
   251
  5
184
 10
306.396932
 20
75.032724
 30
0.0
  0
VERTEX
  8
LY_1
  6
CONTINUOUS
 62
   251
  5
185
 10
306.712099
 20
74.924062
 30
0.0
  0
VERTEX
  8
LY_1
  6
CONTINUOUS
 62
   251
  5
186
 10
307.111777
 20
74.824137
 30
0.0
  0
VERTEX
  8
LY_1
  6
CONTINUOUS
 62
   251
  5
187
 10
307.588089
 20
74.734918
 30
0.0
  0
VERTEX
  8
LY_1
  6
CONTINUOUS
 62
   251
  5
188
 10
308.131647
 20
74.658163
 30
0.0
  0
VERTEX
  8
LY_1
  6
CONTINUOUS
 62
   251
  5
189
 10
308.731737
 20
74.595385
 30
0.0
  0
VERTEX
  8
LY_1
  6
CONTINUOUS
 62
   251
  5
18A
 10
309.376533
 20
74.547822
 30
0.0
  0
VERTEX
  8
LY_1
  6
CONTINUOUS
 62
   251
  5
18B
 10
310.053326
 20
74.516411
 30
0.0
  0
VERTEX
  8
LY_1
  6
CONTINUOUS
 62
   251
  5
18C
 10
310.748778
 20
74.50177
 30
0.0
  0
VERTEX
  8
LY_1
  6
CONTINUOUS
 62
   251
  5
18D
 10
311.44918
 20
74.50419
 30
0.0
  0
VERTEX
  8
LY_1
  6
CONTINUOUS
 62
   251
  5
18E
 10
312.14073
 20
74.523621
 30
0.0
  0
VERTEX
  8
LY_1
  6
CONTINUOUS
 62
   251
  5
18F
 10
312.809797
 20
74.559681
 30
0.0
  0
VERTEX
  8
LY_1
  6
CONTINUOUS
 62
   251
  5
190
 10
313.443194
 20
74.61166
 30
0.0
  0
VERTEX
  8
LY_1
  6
CONTINUOUS
 62
   251
  5
191
 10
314.028438
 20
74.678532
 30
0.0
  0
VERTEX
  8
LY_1
  6
CONTINUOUS
 62
   251
  5
192
 10
314.553994
 20
74.758979
 30
0.0
  0
VERTEX
  8
LY_1
  6
CONTINUOUS
 62
   251
  5
193
 10
315.009504
 20
74.851417
 30
0.0
  0
VERTEX
  8
LY_1
  6
CONTINUOUS
 62
   251
  5
194
 10
315.38599
 20
74.954024
 30
0.0
  0
VERTEX
  8
LY_1
  6
CONTINUOUS
 62
   251
  5
195
 10
315.676032
 20
75.064776
 30
0.0
  0
VERTEX
  8
LY_1
  6
CONTINUOUS
 62
   251
  5
196
 10
315.873913
 20
75.181492
 30
0.0
  0
VERTEX
  8
LY_1
  6
CONTINUOUS
 62
   251
  5
197
 10
315.975734
 20
75.30187
 30
0.0
  0
VERTEX
  8
LY_1
  6
CONTINUOUS
 62
   251
  5
198
 10
315.979487
 20
75.423539
 30
0.0
  0
VERTEX
  8
LY_1
  6
CONTINUOUS
 62
   251
  5
199
 10
315.885098
 20
75.5441
 30
0.0
  0
VERTEX
  8
LY_1
  6
CONTINUOUS
 62
   251
  5
19A
 10
315.694429
 20
75.661177
 30
0.0
  0
VERTEX
  8
LY_1
  6
CONTINUOUS
 62
   251
  5
19B
 10
315.603068
 20
75.701949
 30
0.0
  0
VERTEX
  8
LY_1
  6
CONTINUOUS
 62
   251
  5
19C
 10
315.499977
 20
75.741867
 30
0.0
  0
SEQEND
  8
LY_1
  6
CONTINUOUS
 62
   251
  5
19D
  0
POLYLINE
  8
LY_1
  6
CONTINUOUS
 62
   251
  5
66
 66
     1
 10
0.0
 20
0.0
 30
0.0
  0
VERTEX
  8
LY_1
  6
CONTINUOUS
 62
   251
  5
19E
 10
306.150024
 20
71.237968
 30
0.0
  0
VERTEX
  8
LY_1
  6
CONTINUOUS
 62
   251
  5
19F
 10
306.191517
 20
71.127816
 30
0.0
  0
VERTEX
  8
LY_1
  6
CONTINUOUS
 62
   251
  5
1A0
 10
306.315283
 20
71.019548
 30
0.0
  0
VERTEX
  8
LY_1
  6
CONTINUOUS
 62
   251
  5
1A1
 10
306.519207
 20
70.915018
 30
0.0
  0
VERTEX
  8
LY_1
  6
CONTINUOUS
 62
   251
  5
1A2
 10
306.799798
 20
70.816013
 30
0.0
  0
VERTEX
  8
LY_1
  6
CONTINUOUS
 62
   251
  5
1A3
 10
307.152256
 20
70.724228
 30
0.0
  0
VERTEX
  8
LY_1
  6
CONTINUOUS
 62
   251
  5
1A4
 10
307.570549
 20
70.641234
 30
0.0
  0
VERTEX
  8
LY_1
  6
CONTINUOUS
 62
   251
  5
1A5
 10
308.047522
 20
70.568449
 30
0.0
  0
VERTEX
  8
LY_1
  6
CONTINUOUS
 62
   251
  5
1A6
 10
308.575012
 20
70.507121
 30
0.0
  0
VERTEX
  8
LY_1
  6
CONTINUOUS
 62
   251
  5
1A7
 10
309.143995
 20
70.458297
 30
0.0
  0
VERTEX
  8
LY_1
  6
CONTINUOUS
 62
   251
  5
1A8
 10
309.744734
 20
70.422814
 30
0.0
  0
VERTEX
  8
LY_1
  6
CONTINUOUS
 62
   251
  5
1A9
 10
310.366951
 20
70.401278
 30
0.0
  0
VERTEX
  8
LY_1
  6
CONTINUOUS
 62
   251
  5
1AA
 10
311.0
 20
70.394058
 30
0.0
  0
VERTEX
  8
LY_1
  6
CONTINUOUS
 62
   251
  5
1AB
 10
311.633049
 20
70.401278
 30
0.0
  0
VERTEX
  8
LY_1
  6
CONTINUOUS
 62
   251
  5
1AC
 10
312.255266
 20
70.422814
 30
0.0
  0
VERTEX
  8
LY_1
  6
CONTINUOUS
 62
   251
  5
1AD
 10
312.856005
 20
70.458297
 30
0.0
  0
VERTEX
  8
LY_1
  6
CONTINUOUS
 62
   251
  5
1AE
 10
313.424988
 20
70.507121
 30
0.0
  0
VERTEX
  8
LY_1
  6
CONTINUOUS
 62
   251
  5
1AF
 10
313.952478
 20
70.568449
 30
0.0
  0
VERTEX
  8
LY_1
  6
CONTINUOUS
 62
   251
  5
1B0
 10
314.429451
 20
70.641234
 30
0.0
  0
VERTEX
  8
LY_1
  6
CONTINUOUS
 62
   251
  5
1B1
 10
314.847744
 20
70.724228
 30
0.0
  0
VERTEX
  8
LY_1
  6
CONTINUOUS
 62
   251
  5
1B2
 10
315.200202
 20
70.816013
 30
0.0
  0
VERTEX
  8
LY_1
  6
CONTINUOUS
 62
   251
  5
1B3
 10
315.480793
 20
70.915018
 30
0.0
  0
VERTEX
  8
LY_1
  6
CONTINUOUS
 62
   251
  5
1B4
 10
315.684717
 20
71.019548
 30
0.0
  0
VERTEX
  8
LY_1
  6
CONTINUOUS
 62
   251
  5
1B5
 10
315.808483
 20
71.127816
 30
0.0
  0
VERTEX
  8
LY_1
  6
CONTINUOUS
 62
   251
  5
1B6
 10
315.849976
 20
71.237968
 30
0.0
  0
SEQEND
  8
LY_1
  6
CONTINUOUS
 62
   251
  5
1B7
  0
ARC
  8
LY_1
  6
CONTINUOUS
 62
   251
  5
67
 10
-51.26527
 20
51.265213
 30
0.0
 40
3.35
 50
92.394515
 51
226.32388
  0
ARC
  8
LY_1
  6
CONTINUOUS
 62
   251
  5
68
 10
51.26522
 20
51.265263
 30
0.0
 40
3.35
 50
0.0
 51
87.605541
  0
ARC
  8
LY_1
  6
CONTINUOUS
 62
     7
  5
69
 10
-51.265259
 20
51.265259
 30
0.0
 40
4.0
 50
82.458266
 51
226.581121
  0
ARC
  8
LY_1
  6
CONTINUOUS
 62
     7
  5
6A
 10
51.265198
 20
51.265259
 30
0.0
 40
4.0
 50
352.459105
 51
97.540964
  0
ARC
  8
LY_1
  6
CONTINUOUS
 62
   251
  5
6B
 10
0.0
 20
0.0
 30
0.0
 40
82.5
 50
128.01228
 51
141.98772
  0
ARC
  8
LY_1
  6
CONTINUOUS
 62
   251
  5
6C
 10
0.0
 20
0.0
 30
0.0
 40
82.5
 50
38.01228
 51
51.98772
  0
ARC
  8
LY_1
  6
CONTINUOUS
 62
   251
  5
6D
 10
323.0
 20
52.0
 30
0.0
 40
5.0
 50
179.999991
 51
270.000001
  0
ARC
  8
LY_1
  6
CONTINUOUS
 62
   251
  5
6E
 10
374.000015
 20
52.0
 30
0.0
 40
5.0
 50
269.999997
 51
0.0
  0
ARC
  8
LY_1
  6
CONTINUOUS
 62
   251
  5
6F
 10
374.000015
 20
-52.0
 30
0.0
 40
5.0
 50
0.0
 51
90.000003
  0
ARC
  8
LY_1
  6
CONTINUOUS
 62
   251
  5
70
 10
323.0
 20
-52.0
 30
0.0
 40
5.0
 50
90.000003
 51
180.000005
  0
ARC
  8
LY_1
  6
CONTINUOUS
 62
   251
  5
71
 10
-7.44754
 20
78.397789
 30
0.0
 40
1.0
 50
20.000013
 51
82.332883
  0
ARC
  8
LY_1
  6
CONTINUOUS
 62
   251
  5
72
 10
-18.172302
 20
103.060127
 30
0.0
 40
3.15
 50
10.0
 51
189.999962
  0
ARC
  8
LY_1
  6
CONTINUOUS
 62
   251
  5
73
 10
-9.197144
 20
76.058434
 30
0.0
 40
1.0
 50
189.999979
 51
280.000016
  0
ARC
  8
LY_1
  6
CONTINUOUS
 62
   251
  5
74
 10
-17.371063
 20
74.617153
 30
0.0
 40
1.0
 50
279.999961
 51
10.0
  0
ARC
  8
LY_1
  6
CONTINUOUS
 62
   251
  5
75
 10
-19.815277
 20
76.217026
 30
0.0
 40
1.0
 50
117.667084
 51
179.99995
  0
ARC
  8
LY_1
  6
CONTINUOUS
 62
   251
  5
76
 10
0.0
 20
0.0
 30
0.0
 40
72.5
 50
5.477964
 51
174.522057
  0
CIRCLE
  8
LY_1
  6
CONTINUOUS
 62
   251
  5
77
 10
0.0
 20
0.0
 30
0.0
 40
50.0
  0
CIRCLE
  8
LY_1
  6
CONTINUOUS
 62
   251
  5
78
 10
0.0
 20
0.0
 30
0.0
 40
37.5
  0
ARC
  8
LY_1
  6
CONTINUOUS
 62
   251
  5
79
 10
-44.5
 20
-115.0
 30
0.0
 40
3.0
 50
89.999982
 51
179.999964
  0
ARC
  8
LY_1
  6
CONTINUOUS
 62
   251
  5
7A
 10
44.5
 20
-115.0
 30
0.0
 40
3.0
 50
0.0
 51
89.999982
  0
ARC
  8
LY_1
  6
CONTINUOUS
 62
   251
  5
7B
 10
59.514526
 20
-94.0
 30
0.0
 40
5.0
 50
199.999868
 51
270.000018
  0
ARC
  8
LY_1
  6
CONTINUOUS
 62
   251
  5
7C
 10
39.304321
 20
-38.473022
 30
0.0
 40
5.0
 50
135.612286
 51
200.000015
  0
ARC
  8
LY_1
  6
CONTINUOUS
 62
   251
  5
7D
 10
24.134277
 20
-49.422058
 30
0.0
 40
5.0
 50
19.999883
 51
116.02777
  0
ARC
  8
LY_1
  6
CONTINUOUS
 62
   251
  5
7E
 10
52.820068
 20
15.330963
 30
0.0
 40
5.0
 50
196.185289
 51
270.000018
  0
ARC
  8
LY_1
  6
CONTINUOUS
 62
   251
  5
7F
 10
67.428467
 20
5.330963
 30
0.0
 40
5.0
 50
8.192293
 51
89.999982
  0
ARC
  8
LY_1
  6
CONTINUOUS
 62
   251
  5
80
 10
63.330933
 20
-15.330963
 30
0.0
 40
5.0
 50
8.192293
 51
89.999982
  0
ARC
  8
LY_1
  6
CONTINUOUS
 62
   251
  5
81
 10
52.820068
 20
-15.330963
 30
0.0
 40
5.0
 50
89.999982
 51
163.814711
  0
ARC
  8
LY_1
  6
CONTINUOUS
 62
   251
  5
82
 10
74.656494
 20
-94.0
 30
0.0
 40
5.0
 50
270.000018
 51
8.192243
  0
ARC
  8
LY_1
  6
CONTINUOUS
 62
   251
  5
83
 10
-24.134155
 20
-49.422058
 30
0.0
 40
5.0
 50
63.972194
 51
160.000077
  0
ARC
  8
LY_1
  6
CONTINUOUS
 62
   251
  5
84
 10
-39.304321
 20
-38.473022
 30
0.0
 40
5.0
 50
339.999949
 51
44.387678
  0
ARC
  8
LY_1
  6
CONTINUOUS
 62
   251
  5
85
 10
-59.514404
 20
-94.0
 30
0.0
 40
5.0
 50
269.999963
 51
340.000113
  0
ARC
  8
LY_1
  6
CONTINUOUS
 62
   251
  5
86
 10
-74.656372
 20
-94.0
 30
0.0
 40
5.0
 50
171.807726
 51
269.999946
  0
ARC
  8
LY_1
  6
CONTINUOUS
 62
   251
  5
87
 10
-63.330811
 20
-15.330963
 30
0.0
 40
5.0
 50
89.999982
 51
171.807671
  0
ARC
  8
LY_1
  6
CONTINUOUS
 62
   251
  5
88
 10
-52.820068
 20
-15.330963
 30
0.0
 40
5.0
 50
16.185253
 51
89.999982
  0
ARC
  8
LY_1
  6
CONTINUOUS
 62
   251
  5
89
 10
-52.820068
 20
15.330963
 30
0.0
 40
5.0
 50
269.999963
 51
343.814692
  0
ARC
  8
LY_1
  6
CONTINUOUS
 62
   251
  5
8A
 10
-67.428467
 20
5.330963
 30
0.0
 40
5.0
 50
89.999982
 51
171.807671
  0
ARC
  8
LY_1
  6
CENTER
 62
     7
  5
8B
 10
0.0
 20
0.0
 30
0.0
 40
64.0
 50
23.439126
 51
36.550767
  0
ARC
  8
LY_1
  6
CENTER
 62
     7
  5
8C
 10
0.0
 20
0.0
 30
0.0
 40
64.0
 50
83.439128
 51
96.550769
  0
ARC
  8
LY_1
  6
CENTER
 62
     7
  5
8D
 10
0.0
 20
0.0
 30
0.0
 40
64.0
 50
143.439123
 51
156.550763
  0
ARC
  8
LY_1
  6
CENTER
 62
     7
  5
8E
 10
0.0
 20
0.0
 30
0.0
 40
64.0
 50
203.439142
 51
216.550782
  0
ARC
  8
LY_1
  6
CENTER
 62
     7
  5
8F
 10
0.0
 20
0.0
 30
0.0
 40
64.0
 50
323.439131
 51
336.550772
  0
ARC
  8
LY_1
  6
CONTINUOUS
 62
   251
  5
90
 10
0.0
 20
0.0
 30
0.0
 40
14.0
 50
16.60155
 51
343.39845
  0
ARC
  8
LY_1
  6
CONTINUOUS
 62
   251
  5
91
 10
214.956787
 20
-42.124695
 30
0.0
 40
5.0
 50
354.999997
 51
90.000003
  0
ARC
  8
LY_1
  6
CONTINUOUS
 62
   251
  5
92
 10
210.418335
 20
-94.0
 30
0.0
 40
5.0
 50
270.000018
 51
355.000017
  0
ARC
  8
LY_1
  6
CONTINUOUS
 62
   251
  5
93
 10
318.820557
 20
-69.0
 30
0.0
 40
30.0
 50
209.999989
 51
270.000018
  0
ARC
  8
LY_1
  6
CONTINUOUS
 62
   251
  5
94
 10
246.0
 20
56.631545
 30
0.0
 40
5.0
 50
273.00009
 51
0.0
  0
ARC
  8
LY_1
  6
CONTINUOUS
 62
   251
  5
95
 10
236.0
 20
-94.0
 30
0.0
 40
5.0
 50
270.000018
 51
0.0
  0
ARC
  8
LY_1
  6
CONTINUOUS
 62
   251
  5
96
 10
246.0
 20
15.330963
 30
0.0
 40
5.0
 50
283.342301
 51
0.0
  0
ARC
  8
LY_1
  6
CONTINUOUS
 62
   251
  5
97
 10
249.0
 20
2.681854
 30
0.0
 40
8.0
 50
103.342422
 51
179.999964
  0
ARC
  8
LY_1
  6
CONTINUOUS
 62
   251
  5
98
 10
184.0
 20
0.0
 30
0.0
 40
4.0
 50
269.999997
 51
90.000003
  0
ARC
  8
LY_1
  6
CONTINUOUS
 62
   251
  5
99
 10
0.0
 20
0.0
 30
0.0
 40
75.0
 50
143.107804
 51
156.892027
  0
ARC
  8
LY_1
  6
CONTINUOUS
 62
   251
  5
9A
 10
0.0
 20
0.0
 30
0.0
 40
75.0
 50
163.942667
 51
170.057121
  0
ARC
  8
LY_1
  6
CONTINUOUS
 62
   251
  5
9B
 10
0.0
 20
0.0
 30
0.0
 40
75.0
 50
176.942662
 51
183.057129
  0
ARC
  8
LY_1
  6
CONTINUOUS
 62
   251
  5
9C
 10
0.0
 20
0.0
 30
0.0
 40
75.0
 50
129.942819
 51
136.057286
  0
ARC
  8
LY_1
  6
CONTINUOUS
 62
   251
  5
9D
 10
0.0
 20
0.0
 30
0.0
 40
75.0
 50
116.942811
 51
123.057278
  0
ARC
  8
LY_1
  6
CONTINUOUS
 62
   251
  5
9E
 10
0.0
 20
0.0
 30
0.0
 40
75.0
 50
103.942802
 51
110.05727
  0
ARC
  8
LY_1
  6
CONTINUOUS
 62
   251
  5
9F
 10
0.0
 20
0.0
 30
0.0
 40
75.0
 50
356.942698
 51
3.057165
  0
ARC
  8
LY_1
  6
CONTINUOUS
 62
   251
  5
A0
 10
0.0
 20
0.0
 30
0.0
 40
75.0
 50
9.942706
 51
16.05716
  0
ARC
  8
LY_1
  6
CONTINUOUS
 62
   251
  5
A1
 10
0.0
 20
0.0
 30
0.0
 40
75.0
 50
23.1078
 51
96.892135
  0
CIRCLE
  8
LY_1
  6
CONTINUOUS
 62
   251
  5
A2
 10
290.5
 20
0.0
 30
0.0
 40
4.990937
  0
ARC
  8
LY_1
  6
CONTINUOUS
 62
   251
  5
A3
 10
311.0
 20
89.910133
 30
0.0
 40
16.299999
 50
306.086414
 51
233.913543
  0
ARC
  8
LY_1
  6
CONTINUOUS
 62
   251
  5
A4
 10
311.0
 20
89.910133
 30
0.0
 40
10.0
 50
302.703858
 51
236.438609
  0
ARC
  8
LY_1
  6
CONTINUOUS
 62
   251
  5
A5
 10
305.559814
 20
75.910133
 30
0.0
 40
2.0
 50
89.999982
 51
170.000021
  0
ARC
  8
LY_1
  6
CONTINUOUS
 62
   251
  5
A6
 10
316.440186
 20
75.910133
 30
0.0
 40
2.0
 50
10.000004
 51
89.999982
  0
ARC
  8
LY_1
  6
CONTINUOUS
 62
   251
  5
A7
 10
299.043213
 20
73.505104
 30
0.0
 40
4.0
 50
351.445928
 51
53.913579
  0
ARC
  8
LY_1
  6
CONTINUOUS
 62
   251
  5
A8
 10
322.956787
 20
73.505104
 30
0.0
 40
4.0
 50
126.08644
 51
188.554038
  0
LINE
  8
LY_1
  6
CENTER
 62
     7
  5
A9
 10
-53.033037
 20
53.03298
 30
0.0
 11
-55.676892
 21
55.676835
 31
0.0
  0
LINE
  8
LY_1
  6
CENTER
 62
     7
  5
AA
 10
53.032987
 20
53.03303
 30
0.0
 11
55.676797
 21
55.67684
 31
0.0
  0
LINE
  8
LY_1
  6
CONTINUOUS
 62
   251
  5
AB
 10
37.416574
 20
65.0
 30
0.0
 11
50.806004
 21
65.0
 31
0.0
  0
LINE
  8
LY_1
  6
CONTINUOUS
 62
   251
  5
AC
 10
-65.0
 20
50.806004
 30
0.0
 11
-65.0
 21
37.416574
 31
0.0
  0
LINE
  8
LY_1
  6
CONTINUOUS
 62
   251
  5
AD
 10
65.0
 20
50.806004
 30
0.0
 11
65.0
 21
37.416574
 31
0.0
  0
LINE
  8
LY_1
  6
CONTINUOUS
 62
   251
  5
AE
 10
-50.806004
 20
65.0
 30
0.0
 11
-37.416574
 21
65.0
 31
0.0
  0
LINE
  8
LY_1
  6
CONTINUOUS
 62
   251
  5
AF
 10
251.000061
 20
72.5
 30
0.0
 11
263.0
 21
72.5
 31
0.0
  0
LINE
  8
LY_1
  6
CENTER
 62
     7
  5
B0
 10
15.037793
 20
85.283666
 30
0.0
 11
12.095709
 21
68.598278
 31
0.0
  0
LINE
  8
LY_1
  6
CONTINUOUS
 62
   251
  5
B1
 10
303.0
 20
72.5
 30
0.0
 11
303.0
 21
-72.5
 31
0.0
  0
LINE
  8
LY_1
  6
CONTINUOUS
 62
   251
  5
B2
 10
379.000015
 20
65.0
 30
0.0
 11
393.000015
 21
65.0
 31
0.0
  0
LINE
  8
LY_1
  6
CONTINUOUS
 62
   251
  5
B3
 10
318.0
 20
72.5
 30
0.0
 11
318.0
 21
-72.5
 31
0.0
  0
LINE
  8
LY_1
  6
CONTINUOUS
 62
   251
  5
B4
 10
379.000015
 20
-65.0
 30
0.0
 11
393.000015
 21
-65.0
 31
0.0
  0
LINE
  8
LY_1
  6
CONTINUOUS
 62
   251
  5
B5
 10
303.0
 20
-72.5
 30
0.0
 11
318.0
 21
-72.5
 31
0.0
  0
LINE
  8
LY_1
  6
CONTINUOUS
 62
   251
  5
B6
 10
393.000015
 20
-65.0
 30
0.0
 11
393.000015
 21
65.0
 31
0.0
  0
LINE
  8
LY_1
  6
CONTINUOUS
 62
   251
  5
B7
 10
379.000015
 20
-65.0
 30
0.0
 11
379.000015
 21
65.0
 31
0.0
  0
LINE
  8
LY_1
  6
CONTINUOUS
 62
   251
  5
B8
 10
323.0
 20
47.0
 30
0.0
 11
374.000015
 21
47.0
 31
0.0
  0
LINE
  8
LY_1
  6
CONTINUOUS
 62
   251
  5
B9
 10
323.0
 20
-47.0
 30
0.0
 11
374.000015
 21
-47.0
 31
0.0
  0
LINE
  8
LY_1
  6
CENTER
 62
     7
  5
BA
 10
-19.245606
 20
109.147108
 30
0.0
 11
-11.49174
 21
65.172751
 31
0.0
  0
LINE
  8
LY_1
  6
CONTINUOUS
 62
   251
  5
BB
 10
-12.967752
 20
71.382631
 30
0.0
 11
-14.415103
 21
73.107517
 31
0.0
  0
LINE
  8
LY_1
  6
CONTINUOUS
 62
   251
  5
BC
 10
-11.452334
 20
71.599072
 30
0.0
 11
-12.936799
 21
73.368189
 31
0.0
  0
LINE
  8
LY_1
  6
CONTINUOUS
 62
   251
  5
BD
 10
-17.911373
 20
72.49102
 30
0.0
 11
-9.079389
 21
74.048337
 31
0.0
  0
LINE
  8
LY_1
  6
CONTINUOUS
 62
   251
  5
BE
 10
-6.507831
 20
78.739818
 30
0.0
 11
-5.083862
 21
74.827496
 31
0.0
  0
LINE
  8
LY_1
  6
CONTINUOUS
 62
   251
  5
BF
 10
-10.884574
 20
79.86951
 30
0.0
 11
-7.314121
 21
79.388852
 31
0.0
  0
LINE
  8
LY_1
  6
CONTINUOUS
 62
   251
  5
C0
 10
-15.070139
 20
103.607128
 30
0.0
 11
-10.181941
 21
75.884781
 31
0.0
  0
LINE
  8
LY_1
  6
CONTINUOUS
 62
   251
  5
C1
 10
-20.815277
 20
76.217026
 30
0.0
 11
-20.815277
 21
72.053621
 31
0.0
  0
LINE
  8
LY_1
  6
CONTINUOUS
 62
   251
  5
C2
 10
-17.088881
 20
78.775526
 30
0.0
 11
-20.279615
 21
77.102689
 31
0.0
  0
LINE
  8
LY_1
  6
CONTINUOUS
 62
   251
  5
C3
 10
-21.274446
 20
102.513141
 30
0.0
 11
-16.386248
 21
74.790794
 31
0.0
  0
LINE
  8
LY_1
  6
CENTER
 62
     7
  5
C4
 10
-89.24749
 20
0.0
 30
0.0
 11
96.754761
 21
0.0
 31
0.0
  0
LINE
  8
LY_1
  6
CENTER
 62
     7
  5
C5
 10
0.0
 20
123.716336
 30
0.0
 11
0.0
 21
-128.0
 31
0.0
  0
LINE
  8
LY_1
  6
CENTER
 62
     7
  5
C6
 10
61.127974
 20
35.292527
 30
0.0
 11
48.663952
 21
28.096422
 31
0.0
  0
LINE
  8
LY_1
  6
CONTINUOUS
 62
   251
  5
C7
 10
87.5
 20
-99.0
 30
0.0
 11
87.5
 21
-115.0
 31
0.0
  0
LINE
  8
LY_1
  6
CONTINUOUS
 62
   251
  5
C8
 10
-87.5
 20
-115.0
 30
0.0
 11
-47.5
 21
-115.0
 31
0.0
  0
LINE
  8
LY_1
  6
CONTINUOUS
 62
   251
  5
C9
 10
-87.5
 20
-99.0
 30
0.0
 11
-47.5
 21
-99.0
 31
0.0
  0
LINE
  8
LY_1
  6
CONTINUOUS
 62
   251
  5
CA
 10
-47.5
 20
-99.0
 30
0.0
 11
-47.5
 21
-115.0
 31
0.0
  0
LINE
  8
LY_1
  6
CONTINUOUS
 62
   251
  5
CB
 10
47.5
 20
-99.0
 30
0.0
 11
47.5
 21
-115.0
 31
0.0
  0
LINE
  8
LY_1
  6
CONTINUOUS
 62
   251
  5
CC
 10
47.5
 20
-99.0
 30
0.0
 11
87.5
 21
-99.0
 31
0.0
  0
LINE
  8
LY_1
  6
CONTINUOUS
 62
   251
  5
CD
 10
47.5
 20
-115.0
 30
0.0
 11
87.5
 21
-115.0
 31
0.0
  0
LINE
  8
LY_1
  6
CONTINUOUS
 62
   251
  5
CE
 10
-44.5
 20
-112.0
 30
0.0
 11
44.5
 21
-112.0
 31
0.0
  0
LINE
  8
LY_1
  6
CONTINUOUS
 62
   251
  5
CF
 10
28.83281
 20
-47.711999
 30
0.0
 11
47.50013
 21
-99.000037
 31
0.0
  0
LINE
  8
LY_1
  6
CONTINUOUS
 62
   251
  5
D0
 10
34.605942
 20
-40.183114
 30
0.0
 11
54.816099
 21
-95.710062
 31
0.0
  0
LINE
  8
LY_1
  6
CONTINUOUS
 62
   251
  5
D1
 10
87.500112
 20
-98.999916
 30
0.0
 11
72.377527
 21
6.043539
 31
0.0
  0
LINE
  8
LY_1
  6
CONTINUOUS
 62
   251
  5
D2
 10
52.820068
 20
10.330963
 30
0.0
 11
67.428467
 21
10.330963
 31
0.0
  0
LINE
  8
LY_1
  6
CONTINUOUS
 62
   251
  5
D3
 10
79.60544
 20
-93.28756
 30
0.0
 11
68.279849
 21
-14.618521
 31
0.0
  0
LINE
  8
LY_1
  6
CONTINUOUS
 62
   251
  5
D4
 10
52.820068
 20
-10.330963
 30
0.0
 11
63.330933
 21
-10.330963
 31
0.0
  0
LINE
  8
LY_1
  6
CONTINUOUS
 62
   251
  5
D5
 10
-28.83254
 20
-47.711955
 30
0.0
 11
-47.49986
 21
-98.999992
 31
0.0
  0
LINE
  8
LY_1
  6
CONTINUOUS
 62
   251
  5
D6
 10
-34.605943
 20
-40.1831
 30
0.0
 11
-54.81609
 21
-95.710021
 31
0.0
  0
LINE
  8
LY_1
  6
CONTINUOUS
 62
   251
  5
D7
 10
-79.605453
 20
-93.287452
 30
0.0
 11
-68.279861
 21
-14.618406
 31
0.0
  0
LINE
  8
LY_1
  6
CONTINUOUS
 62
   251
  5
D8
 10
-87.500017
 20
-98.999916
 30
0.0
 11
-72.377435
 21
6.043516
 31
0.0
  0
LINE
  8
LY_1
  6
CONTINUOUS
 62
   251
  5
D9
 10
-52.820068
 20
-10.330963
 30
0.0
 11
-63.330811
 21
-10.330963
 31
0.0
  0
LINE
  8
LY_1
  6
CONTINUOUS
 62
   251
  5
DA
 10
-52.820068
 20
10.330963
 30
0.0
 11
-67.428467
 21
10.330963
 31
0.0
  0
LINE
  8
LY_1
  6
CENTER
 62
     7
  5
DB
 10
-61.128113
 20
35.292427
 30
0.0
 11
-48.663986
 21
28.09626
 31
0.0
  0
LINE
  8
LY_1
  6
CENTER
 62
     7
  5
DC
 10
-61.128215
 20
-35.292166
 30
0.0
 11
-48.664193
 21
-28.096062
 31
0.0
  0
LINE
  8
LY_1
  6
CENTER
 62
     7
  5
DD
 10
61.128229
 20
-35.292244
 30
0.0
 11
48.664103
 21
-28.096076
 31
0.0
  0
LINE
  8
LY_1
  6
CENTER
 62
     7
  5
DE
 10
-72.5
 20
-94.0
 30
0.0
 11
-72.5
 21
-119.827759
 31
0.0
  0
LINE
  8
LY_1
  6
CENTER
 62
     7
  5
DF
 10
72.5
 20
-94.0
 30
0.0
 11
72.5
 21
-119.827759
 31
0.0
  0
LINE
  8
LY_1
  6
DASHED
 62
     7
  5
E1
 10
-78.5
 20
-99.0
 30
0.0
 11
-78.5
 21
-115.0
 31
0.0
  0
LINE
  8
LY_1
  6
DASHED
 62
     7
  5
E2
 10
-66.5
 20
-99.0
 30
0.0
 11
-66.5
 21
-115.0
 31
0.0
  0
LINE
  8
LY_1
  6
DASHED
 62
     7
  5
E3
 10
66.5
 20
-99.0
 30
0.0
 11
66.5
 21
-115.0
 31
0.0
  0
LINE
  8
LY_1
  6
DASHED
 62
     7
  5
E4
 10
78.5
 20
-99.0
 30
0.0
 11
78.5
 21
-115.0
 31
0.0
  0
LINE
  8
LY_1
  6
CONTINUOUS
 62
   251
  5
E5
 10
-87.5
 20
-99.0
 30
0.0
 11
-87.5
 21
-115.0
 31
0.0
  0
LINE
  8
LY_1
  6
CONTINUOUS
 62
   251
  5
E6
 10
10.0
 20
4.0
 30
0.0
 11
10.0
 21
-4.0
 31
0.0
  0
LINE
  8
LY_1
  6
CONTINUOUS
 62
   251
  5
E7
 10
17.0
 20
-4.0
 30
0.0
 11
10.0
 21
-4.0
 31
0.0
  0
LINE
  8
LY_1
  6
CONTINUOUS
 62
   251
  5
E8
 10
17.0
 20
4.0
 30
0.0
 11
10.0
 21
4.0
 31
0.0
  0
LINE
  8
LY_1
  6
CONTINUOUS
 62
   251
  5
E9
 10
18.204399
 20
74.500672
 30
0.0
 11
17.858363
 21
72.842835
 31
0.0
  0
LINE
  8
LY_1
  6
CONTINUOUS
 62
   251
  5
EA
 10
18.971462
 20
81.473403
 30
0.0
 11
17.755925
 21
74.579749
 31
0.0
  0
LINE
  8
LY_1
  6
CONTINUOUS
 62
   251
  5
EB
 10
10.038197
 20
83.048579
 30
0.0
 11
8.822659
 21
76.154925
 31
0.0
  0
LINE
  8
LY_1
  6
CONTINUOUS
 62
   251
  5
EC
 10
8.374176
 20
76.234001
 30
0.0
 11
8.13233
 21
74.557797
 31
0.0
  0
LINE
  8
LY_1
  6
CONTINUOUS
 62
   251
  5
ED
 10
18.971462
 20
81.473403
 30
0.0
 11
10.038197
 21
83.048579
 31
0.0
  0
LINE
  8
LY_1
  6
CONTINUOUS
 62
   251
  5
EE
 10
18.20439
 20
74.500673
 30
0.0
 11
8.374164
 21
76.234007
 31
0.0
  0
LINE
  8
LY_1
  6
CENTER
 62
     7
  5
EF
 10
140.116089
 20
0.0
 30
0.0
 11
555.594111
 21
0.0
 31
0.0
  0
LINE
  8
LY_1
  6
CONTINUOUS
 62
   251
  5
F0
 10
210.0
 20
-115.0
 30
0.0
 11
345.000015
 21
-115.0
 31
0.0
  0
LINE
  8
LY_1
  6
CONTINUOUS
 62
   251
  5
F1
 10
210.0
 20
-99.0
 30
0.0
 11
210.0
 21
-115.0
 31
0.0
  0
LINE
  8
LY_1
  6
CONTINUOUS
 62
   251
  5
F2
 10
195.0
 20
37.5
 30
0.0
 11
195.0
 21
-37.5
 31
0.0
  0
LINE
  8
LY_1
  6
CONTINUOUS
 62
   251
  5
F3
 10
345.000015
 20
-99.0
 30
0.0
 11
345.000015
 21
-115.0
 31
0.0
  0
LINE
  8
LY_1
  6
CONTINUOUS
 62
   251
  5
F4
 10
210.0
 20
-99.0
 30
0.0
 11
236.0
 21
-99.0
 31
0.0
  0
LINE
  8
LY_1
  6
CONTINUOUS
 62
   251
  5
F5
 10
197.0
 20
-50.0
 30
0.0
 11
215.0
 21
-50.0
 31
0.0
  0
LINE
  8
LY_1
  6
CONTINUOUS
 62
   251
  5
F6
 10
197.0
 20
50.000014
 30
0.0
 11
215.0
 21
50.000014
 31
0.0
  0
LINE
  8
LY_1
  6
CONTINUOUS
 62
   251
  5
F7
 10
263.0
 20
72.5
 30
0.0
 11
263.0
 21
-32.31604
 31
0.0
  0
LINE
  8
LY_1
  6
CONTINUOUS
 62
   251
  5
F8
 10
251.0
 20
72.500023
 30
0.0
 11
251.0
 21
15.330963
 31
0.0
  0
LINE
  8
LY_1
  6
CONTINUOUS
 62
   251
  5
F9
 10
197.0
 20
50.000014
 30
0.0
 11
197.0
 21
-50.0
 31
0.0
  0
LINE
  8
LY_1
  6
CONTINUOUS
 62
   251
  5
FA
 10
195.000162
 20
37.499843
 30
0.0
 11
197.000202
 21
38.654567
 31
0.0
  0
LINE
  8
LY_1
  6
CONTINUOUS
 62
   251
  5
FB
 10
195.000215
 20
-37.499668
 30
0.0
 11
197.000256
 21
-38.654392
 31
0.0
  0
LINE
  8
LY_1
  6
CONTINUOUS
 62
   251
  5
FC
 10
215.400083
 20
-94.435839
 30
0.0
 11
219.938586
 21
-42.560546
 31
0.0
  0
LINE
  8
LY_1
  6
CONTINUOUS
 62
   251
  5
FD
 10
263.000351
 20
-32.315923
 30
0.0
 11
292.840106
 21
-83.999889
 31
0.0
  0
LINE
  8
LY_1
  6
CONTINUOUS
 62
   251
  5
FE
 10
241.0
 20
2.681854
 30
0.0
 11
241.0
 21
-94.0
 31
0.0
  0
LINE
  8
LY_1
  6
CENTER
 62
     7
  5
FF
 10
225.0
 20
-94.0
 30
0.0
 11
225.0
 21
-121.026062
 31
0.0
  0
LINE
  8
LY_1
  6
CENTER
 62
     7
  5
100
 10
330.0
 20
-94.0
 30
0.0
 11
330.0
 21
-121.026062
 31
0.0
  0
LINE
  8
LY_1
  6
DASHED
 62
     7
  5
101
 10
231.0
 20
-99.0
 30
0.0
 11
231.0
 21
-115.0
 31
0.0
  0
LINE
  8
LY_1
  6
DASHED
 62
     7
  5
102
 10
219.0
 20
-99.0
 30
0.0
 11
219.0
 21
-115.0
 31
0.0
  0
LINE
  8
LY_1
  6
DASHED
 62
     7
  5
103
 10
324.0
 20
-99.0
 30
0.0
 11
324.0
 21
-115.0
 31
0.0
  0
LINE
  8
LY_1
  6
DASHED
 62
     7
  5
104
 10
336.000015
 20
-99.0
 30
0.0
 11
336.000015
 21
-115.0
 31
0.0
  0
LINE
  8
LY_1
  6
CONTINUOUS
 62
   251
  5
105
 10
214.999773
 20
50.000057
 30
0.0
 11
246.26168
 21
51.638425
 31
0.0
  0
LINE
  8
LY_1
  6
CONTINUOUS
 62
   251
  5
106
 10
214.999742
 20
-50.000093
 30
0.0
 11
219.26813
 21
-50.22379
 31
0.0
  0
LINE
  8
LY_1
  6
CONTINUOUS
 62
   251
  5
107
 10
318.820557
 20
-99.0
 30
0.0
 11
345.000015
 21
-99.0
 31
0.0
  0
LINE
  8
LY_1
  6
CONTINUOUS
 62
   251
  5
108
 10
150.0
 20
14.0
 30
0.0
 11
150.0
 21
-14.0
 31
0.0
  0
LINE
  8
LY_1
  6
CONTINUOUS
 62
   251
  5
109
 10
150.0
 20
14.0
 30
0.0
 11
190.0
 21
14.0
 31
0.0
  0
LINE
  8
LY_1
  6
CONTINUOUS
 62
   251
  5
10A
 10
150.0
 20
4.0
 30
0.0
 11
184.0
 21
4.0
 31
0.0
  0
LINE
  8
LY_1
  6
CONTINUOUS
 62
   251
  5
10B
 10
150.0
 20
-4.0
 30
0.0
 11
184.0
 21
-4.0
 31
0.0
  0
LINE
  8
LY_1
  6
CONTINUOUS
 62
   251
  5
10C
 10
190.0
 20
17.5
 30
0.0
 11
190.0
 21
-17.5
 31
0.0
  0
LINE
  8
LY_1
  6
CONTINUOUS
 62
   251
  5
10D
 10
190.0
 20
17.5
 30
0.0
 11
195.0
 21
17.5
 31
0.0
  0
LINE
  8
LY_1
  6
CONTINUOUS
 62
   251
  5
10E
 10
150.0
 20
-14.0
 30
0.0
 11
190.0
 21
-14.0
 31
0.0
  0
LINE
  8
LY_1
  6
CONTINUOUS
 62
   251
  5
10F
 10
190.0
 20
-17.5
 30
0.0
 11
195.0
 21
-17.5
 31
0.0
  0
LINE
  8
LY_1
  6
DASHED
 62
     7
  5
110
 10
219.26813
 20
-50.22379
 30
0.0
 11
237.516251
 21
-51.180133
 31
0.0
  0
LINE
  8
LY_1
  6
CENTER
 62
     7
  5
111
 10
228.0
 20
-67.914307
 30
0.0
 11
228.0
 21
-43.987724
 31
0.0
  0
LINE
  8
LY_1
  6
CONTINUOUS
 62
   251
  5
112
 10
287.644012
 20
-75.0
 30
0.0
 11
299.499878
 21
-75.0
 31
0.0
  0
LINE
  8
LY_1
  6
CONTINUOUS
 62
   251
  5
113
 10
266.5
 20
75.0
 30
0.0
 11
299.5
 21
75.0
 31
0.0
  0
LINE
  8
LY_1
  6
CONTINUOUS
 62
   251
  5
114
 10
266.500092
 20
74.999983
 30
0.0
 11
263.000086
 21
70.839088
 31
0.0
  0
LINE
  8
LY_1
  6
CONTINUOUS
 62
   251
  5
115
 10
299.500065
 20
75.000042
 30
0.0
 11
303.000071
 21
70.839147
 31
0.0
  0
LINE
  8
LY_1
  6
CONTINUOUS
 62
   251
  5
116
 10
299.500061
 20
-75.000039
 30
0.0
 11
303.000067
 21
-70.839144
 31
0.0
  0
LINE
  8
LY_1
  6
CONTINUOUS
 62
   251
  5
117
 10
-59.982562
 20
45.023366
 30
0.0
 11
-57.496012
 21
44.164012
 31
0.0
  0
LINE
  8
LY_1
  6
CONTINUOUS
 62
   251
  5
118
 10
-68.982565
 20
29.434903
 30
0.0
 11
-66.99509
 21
27.711185
 31
0.0
  0
LINE
  8
LY_1
  6
CONTINUOUS
 62
   251
  5
119
 10
-72.073901
 20
20.744803
 30
0.0
 11
-69.493517
 21
20.661594
 31
0.0
  0
LINE
  8
LY_1
  6
CONTINUOUS
 62
   251
  5
11A
 10
-73.873684
 20
12.94982
 30
0.0
 11
-71.517813
 21
11.893352
 31
0.0
  0
LINE
  8
LY_1
  6
CONTINUOUS
 62
   251
  5
11B
 10
-74.893194
 20
3.99999
 30
0.0
 11
-72.606733
 21
4.450774
 31
0.0
  0
LINE
  8
LY_1
  6
CONTINUOUS
 62
   251
  5
11C
 10
-74.893236
 20
-3.999948
 30
0.0
 11
-73.85287
 21
-4.205066
 31
0.0
  0
LINE
  8
LY_1
  6
CONTINUOUS
 62
   251
  5
11D
 10
-54.002777
 20
52.045291
 30
0.0
 11
-52.640458
 21
49.852114
 31
0.0
  0
LINE
  8
LY_1
  6
CONTINUOUS
 62
   251
  5
11E
 10
-48.15176
 20
57.501345
 30
0.0
 11
-46.059019
 21
55.989424
 31
0.0
  0
LINE
  8
LY_1
  6
CONTINUOUS
 62
   251
  5
11F
 10
-40.910818
 20
62.859425
 30
0.0
 11
-40.076792
 21
60.416061
 31
0.0
  0
LINE
  8
LY_1
  6
CONTINUOUS
 62
   251
  5
120
 10
-33.98246
 20
66.859526
 30
0.0
 11
-32.283433
 21
64.915557
 31
0.0
  0
LINE
  8
LY_1
  6
CONTINUOUS
 62
   251
  5
121
 10
-25.721859
 20
70.450995
 30
0.0
 11
-25.458879
 21
67.882951
 31
0.0
  0
LINE
  8
LY_1
  6
CONTINUOUS
 62
   251
  5
122
 10
-18.071462
 20
72.790168
 30
0.0
 11
-16.853337
 21
70.513933
 31
0.0
  0
LINE
  8
LY_1
  6
CONTINUOUS
 62
   251
  5
123
 10
74.893206
 20
-4.000023
 30
0.0
 11
73.852988
 21
-4.205106
 31
0.0
  0
LINE
  8
LY_1
  6
CONTINUOUS
 62
   251
  5
124
 10
74.89322
 20
4.000016
 30
0.0
 11
72.606821
 21
4.450803
 31
0.0
  0
LINE
  8
LY_1
  6
CONTINUOUS
 62
   251
  5
125
 10
73.873375
 20
12.949647
 30
0.0
 11
71.517819
 21
11.893339
 31
0.0
  0
LINE
  8
LY_1
  6
CONTINUOUS
 62
   251
  5
126
 10
72.073789
 20
20.744759
 30
0.0
 11
69.493521
 21
20.66157
 31
0.0
  0
LINE
  8
LY_1
  6
CONTINUOUS
 62
   251
  5
127
 10
-9.000262
 20
74.45791
 30
0.0
 11
-9.499282
 21
71.874986
 31
0.0
  0
LINE
  8
LY_1
  6
CONTINUOUS
 62
   251
  5
128
 10
68.982498
 20
29.434624
 30
0.0
 11
66.995147
 21
27.711013
 31
0.0
  0
LINE
  8
LY_1
  6
CONTINUOUS
 62
   251
  5
129
 10
266.5
 20
29.434677
 30
0.0
 11
299.5
 21
29.434677
 31
0.0
  0
LINE
  8
LY_1
  6
CONTINUOUS
 62
   251
  5
12A
 10
266.5
 20
20.74472
 30
0.0
 11
299.5
 21
20.74472
 31
0.0
  0
LINE
  8
LY_1
  6
CONTINUOUS
 62
   251
  5
12B
 10
266.5
 20
12.949753
 30
0.0
 11
299.5
 21
12.949753
 31
0.0
  0
LINE
  8
LY_1
  6
CONTINUOUS
 62
   251
  5
12C
 10
266.5
 20
3.999924
 30
0.0
 11
281.334839
 21
3.999924
 31
0.0
  0
LINE
  8
LY_1
  6
CONTINUOUS
 62
   251
  5
12D
 10
266.5
 20
-4.000099
 30
0.0
 11
281.334839
 21
-4.000099
 31
0.0
  0
LINE
  8
LY_1
  6
CONTINUOUS
 62
   251
  5
12E
 10
266.5
 20
-12.949913
 30
0.0
 11
299.5
 21
-12.949913
 31
0.0
  0
LINE
  8
LY_1
  6
CONTINUOUS
 62
   251
  5
12F
 10
266.5
 20
-20.744888
 30
0.0
 11
299.5
 21
-20.744888
 31
0.0
  0
LINE
  8
LY_1
  6
CONTINUOUS
 62
   251
  5
130
 10
266.5
 20
-29.434776
 30
0.0
 11
299.5
 21
-29.434776
 31
0.0
  0
LINE
  8
LY_1
  6
CONTINUOUS
 62
   251
  5
131
 10
270.336929
 20
-45.023254
 30
0.0
 11
299.5
 21
-45.023254
 31
0.0
  0
LINE
  8
LY_1
  6
CONTINUOUS
 62
   251
  5
132
 10
274.39119
 20
-52.045441
 30
0.0
 11
299.5
 21
-52.045441
 31
0.0
  0
LINE
  8
LY_1
  6
CONTINUOUS
 62
   251
  5
133
 10
277.541214
 20
-57.501434
 30
0.0
 11
299.5
 21
-57.501434
 31
0.0
  0
LINE
  8
LY_1
  6
CONTINUOUS
 62
   251
  5
134
 10
280.634659
 20
-62.859451
 30
0.0
 11
299.5
 21
-62.859451
 31
0.0
  0
LINE
  8
LY_1
  6
CONTINUOUS
 62
   251
  5
135
 10
282.944061
 20
-66.859451
 30
0.0
 11
299.5
 21
-66.859451
 31
0.0
  0
LINE
  8
LY_1
  6
CONTINUOUS
 62
   251
  5
136
 10
285.017807
 20
-70.451279
 30
0.0
 11
299.5
 21
-70.451279
 31
0.0
  0
LINE
  8
LY_1
  6
CONTINUOUS
 62
   251
  5
137
 10
290.500005
 20
4.949731
 30
0.0
 11
285.550257
 21
-0.000016
 31
0.0
  0
LINE
  8
LY_1
  6
CONTINUOUS
 62
   251
  5
138
 10
285.550254
 20
0.000012
 30
0.0
 11
290.500002
 21
-4.949735
 31
0.0
  0
LINE
  8
LY_1
  6
CONTINUOUS
 62
   251
  5
139
 10
290.500003
 20
-4.949764
 30
0.0
 11
295.449752
 21
-0.000017
 31
0.0
  0
LINE
  8
LY_1
  6
CONTINUOUS
 62
   251
  5
13A
 10
295.449744
 20
0.000017
 30
0.0
 11
290.499996
 21
4.949764
 31
0.0
  0
LINE
  8
LY_1
  6
CENTER
 62
     7
  5
13B
 10
290.5
 20
6.990936
 30
0.0
 11
290.5
 21
-6.990936
 31
0.0
  0
LINE
  8
LY_1
  6
CONTINUOUS
 62
   251
  5
13C
 10
81.030029
 20
-4.535534
 30
0.0
 11
74.030029
 21
-4.535534
 31
0.0
  0
LINE
  8
LY_1
  6
CONTINUOUS
 62
   251
  5
13D
 10
81.030029
 20
4.535534
 30
0.0
 11
74.030029
 21
4.535534
 31
0.0
  0
LINE
  8
LY_1
  6
CONTINUOUS
 62
   251
  5
13E
 10
74.030028
 20
4.990938
 30
0.0
 11
72.535793
 21
4.944243
 31
0.0
  0
LINE
  8
LY_1
  6
CONTINUOUS
 62
   251
  5
13F
 10
81.030029
 20
-4.535534
 30
0.0
 11
81.030029
 21
4.535534
 31
0.0
  0
LINE
  8
LY_1
  6
CONTINUOUS
 62
   251
  5
140
 10
74.030029
 20
-4.990936
 30
0.0
 11
74.030029
 21
-4.453045
 31
0.0
  0
LINE
  8
LY_1
  6
CONTINUOUS
 62
   251
  5
141
 10
81.030029
 20
0.0
 30
0.0
 11
74.030029
 21
0.0
 31
0.0
  0
LINE
  8
LY_1
  6
CONTINUOUS
 62
     7
  5
142
 10
81.030015
 20
-4.535547
 30
0.0
 11
75.290238
 21
-0.816554
 31
0.0
  0
LINE
  8
LY_1
  6
CONTINUOUS
 62
     7
  5
143
 10
81.029999
 20
-0.000019
 30
0.0
 11
75.2495
 21
-3.745397
 31
0.0
  0
LINE
  8
LY_1
  6
CONTINUOUS
 62
     7
  5
144
 10
75.308779
 20
0.828565
 30
0.0
 11
81.030013
 21
4.535544
 31
0.0
  0
LINE
  8
LY_1
  6
CONTINUOUS
 62
     7
  5
145
 10
81.030001
 20
0.000016
 30
0.0
 11
75.122725
 21
3.827537
 31
0.0
  0
LINE
  8
LY_1
  6
CONTINUOUS
 62
   251
  5
146
 10
74.030029
 20
4.473602
 30
0.0
 11
74.030029
 21
4.990936
 31
0.0
  0
LINE
  8
LY_1
  6
CONTINUOUS
 62
     7
  5
147
 10
13.289275
 20
75.367335
 30
0.0
 11
18.971463
 21
81.473402
 31
0.0
  0
LINE
  8
LY_1
  6
CONTINUOUS
 62
     7
  5
148
 10
14.504806
 20
82.260994
 30
0.0
 11
17.755918
 21
74.579744
 31
0.0
  0
LINE
  8
LY_1
  6
CONTINUOUS
 62
     7
  5
149
 10
13.28927
 20
75.367336
 30
0.0
 11
10.038188
 21
83.048581
 31
0.0
  0
LINE
  8
LY_1
  6
CONTINUOUS
 62
     7
  5
14A
 10
14.504815
 20
82.260983
 30
0.0
 11
8.822666
 21
76.15492
 31
0.0
  0
LINE
  8
LY_1
  6
DASHED
 62
     7
  5
14B
 10
222.050247
 20
-63.67141
 30
0.0
 11
233.949753
 21
-63.67141
 31
0.0
  0
LINE
  8
LY_1
  6
DASHED
 62
     7
  5
14C
 10
221.264069
 20
-55.67141
 30
0.0
 11
234.735931
 21
-55.67141
 31
0.0
  0
LINE
  8
LY_1
  6
DASHED
 62
     7
  5
14D
 10
221.264068
 20
-55.671409
 30
0.0
 11
221.430764
 21
-50.33713
 31
0.0
  0
LINE
  8
LY_1
  6
DASHED
 62
     7
  5
14E
 10
234.735943
 20
-55.671406
 30
0.0
 11
234.590799
 21
-51.026815
 31
0.0
  0
LINE
  8
LY_1
  6
DASHED
 62
     7
  5
14F
 10
222.050247
 20
-63.67141
 30
0.0
 11
222.050247
 21
-55.67141
 31
0.0
  0
LINE
  8
LY_1
  6
DASHED
 62
     7
  5
150
 10
233.949753
 20
-63.67141
 30
0.0
 11
233.949753
 21
-55.67141
 31
0.0
  0
LINE
  8
LY_1
  6
DASHED
 62
     7
  5
151
 10
222.050249
 20
-63.671405
 30
0.0
 11
227.999996
 21
-55.671405
 31
0.0
  0
LINE
  8
LY_1
  6
DASHED
 62
     7
  5
152
 10
228.000002
 20
-63.67141
 30
0.0
 11
222.050258
 21
-55.671413
 31
0.0
  0
LINE
  8
LY_1
  6
CENTER
 62
     7
  5
153
 10
227.999998
 20
-55.671403
 30
0.0
 11
233.949751
 21
-63.671412
 31
0.0
  0
LINE
  8
LY_1
  6
DASHED
 62
     7
  5
154
 10
233.949743
 20
-55.671406
 30
0.0
 11
227.999997
 21
-63.671405
 31
0.0
  0
LINE
  8
LY_1
  6
CONTINUOUS
 62
   251
  5
155
 10
-5.949738
 20
-62.989998
 30
0.0
 11
5.949738
 21
-62.989998
 31
0.0
  0
LINE
  8
LY_1
  6
CONTINUOUS
 62
   251
  5
156
 10
-6.735931
 20
-54.989998
 30
0.0
 11
6.735931
 21
-54.989998
 31
0.0
  0
LINE
  8
LY_1
  6
CONTINUOUS
 62
   251
  5
157
 10
-6.735932
 20
-54.989998
 30
0.0
 11
-6.566461
 21
-49.56694
 31
0.0
  0
LINE
  8
LY_1
  6
CONTINUOUS
 62
   251
  5
158
 10
6.735933
 20
-54.990001
 30
0.0
 11
6.566462
 21
-49.566943
 31
0.0
  0
LINE
  8
LY_1
  6
CONTINUOUS
 62
   251
  5
159
 10
-5.949738
 20
-62.989998
 30
0.0
 11
-5.949738
 21
-54.989998
 31
0.0
  0
LINE
  8
LY_1
  6
CONTINUOUS
 62
   251
  5
15A
 10
5.949738
 20
-62.989998
 30
0.0
 11
5.949738
 21
-54.989998
 31
0.0
  0
LINE
  8
LY_1
  6
CONTINUOUS
 62
   251
  5
15B
 10
0.0
 20
-62.989998
 30
0.0
 11
0.0
 21
-54.989998
 31
0.0
  0
LINE
  8
LY_1
  6
CONTINUOUS
 62
     7
  5
15C
 10
-5.949744
 20
-62.989989
 30
0.0
 11
-0.000009
 21
-54.990004
 31
0.0
  0
LINE
  8
LY_1
  6
CONTINUOUS
 62
     7
  5
15D
 10
-0.000001
 20
-62.989998
 30
0.0
 11
-5.949746
 21
-54.990002
 31
0.0
  0
LINE
  8
LY_1
  6
CONTINUOUS
 62
     7
  5
15E
 10
-0.000013
 20
-54.990007
 30
0.0
 11
5.949736
 21
-62.990009
 31
0.0
  0
LINE
  8
LY_1
  6
CONTINUOUS
 62
     7
  5
15F
 10
5.94974
 20
-54.990002
 30
0.0
 11
0.000005
 21
-62.989987
 31
0.0
  0
LINE
  8
LY_1
  6
CONTINUOUS
 62
   251
  5
160
 10
303.0
 20
72.5
 30
0.0
 11
306.107117
 21
72.5
 31
0.0
  0
LINE
  8
LY_1
  6
CENTER
 62
     7
  5
161
 10
311.0
 20
66.816597
 30
0.0
 11
311.0
 21
108.744186
 31
0.0
  0
LINE
  8
LY_1
  6
CONTINUOUS
 62
   251
  5
162
 10
306.5
 20
75.36734
 30
0.0
 11
306.5
 21
82.260994
 31
0.0
  0
LINE
  8
LY_1
  6
CONTINUOUS
 62
   251
  5
163
 10
315.5
 20
75.36734
 30
0.0
 11
315.5
 21
82.260994
 31
0.0
  0
LINE
  8
LY_1
  6
CONTINUOUS
 62
   251
  5
164
 10
306.500027
 20
75.367335
 30
0.0
 11
310.999986
 21
74.579755
 31
0.0
  0
LINE
  8
LY_1
  6
CONTINUOUS
 62
   251
  5
165
 10
311.000023
 20
74.579751
 30
0.0
 11
315.500041
 21
75.367342
 31
0.0
  0
LINE
  8
LY_1
  6
CONTINUOUS
 62
   251
  5
166
 10
311.000026
 20
81.473402
 30
0.0
 11
315.499985
 21
82.260982
 31
0.0
  0
LINE
  8
LY_1
  6
CONTINUOUS
 62
   251
  5
167
 10
315.500013
 20
82.260986
 30
0.0
 11
310.999994
 21
83.048576
 31
0.0
  0
LINE
  8
LY_1
  6
CONTINUOUS
 62
   251
  5
168
 10
311.000008
 20
83.048587
 30
0.0
 11
306.499989
 21
82.260997
 31
0.0
  0
LINE
  8
LY_1
  6
CONTINUOUS
 62
   251
  5
169
 10
306.500011
 20
82.260988
 30
0.0
 11
311.000029
 21
81.473398
 31
0.0
  0
LINE
  8
LY_1
  6
CONTINUOUS
 62
     7
  5
16A
 10
315.49998
 20
75.367342
 30
0.0
 11
310.999984
 21
81.473403
 31
0.0
  0
LINE
  8
LY_1
  6
CONTINUOUS
 62
     7
  5
16B
 10
315.500016
 20
82.260995
 30
0.0
 11
311.000009
 21
74.579741
 31
0.0
  0
LINE
  8
LY_1
  6
CONTINUOUS
 62
     7
  5
16C
 10
310.999971
 20
74.579739
 30
0.0
 11
306.499979
 21
82.260967
 31
0.0
  0
LINE
  8
LY_1
  6
CONTINUOUS
 62
     7
  5
16D
 10
310.999996
 20
81.473422
 30
0.0
 11
306.5
 21
75.36736
 31
0.0
  0
LINE
  8
LY_1
  6
CONTINUOUS
 62
   251
  5
16E
 10
306.150088
 20
71.232987
 30
0.0
 11
306.01009
 21
75.362229
 31
0.0
  0
LINE
  8
LY_1
  6
CONTINUOUS
 62
   251
  5
16F
 10
315.989926
 20
75.362231
 30
0.0
 11
315.849928
 21
71.232989
 31
0.0
  0
LINE
  8
LY_1
  6
CONTINUOUS
 62
   251
  5
170
 10
303.000027
 20
72.910133
 30
0.0
 11
303.590246
 21
76.257429
 31
0.0
  0
LINE
  8
LY_1
  6
CONTINUOUS
 62
   251
  5
171
 10
318.409761
 20
76.257423
 30
0.0
 11
318.999978
 21
72.910135
 31
0.0
  0
LINE
  8
LY_1
  6
CONTINUOUS
 62
   251
  5
172
 10
304.869711
 20
77.787285
 30
0.0
 11
305.812303
 21
78.133816
 31
0.0
  0
LINE
  8
LY_1
  6
CONTINUOUS
 62
   251
  5
173
 10
315.957069
 20
78.218607
 30
0.0
 11
317.130297
 21
77.787287
 31
0.0
  0
LINE
  8
LY_1
  6
CONTINUOUS
 62
   251
  5
174
 10
302.998718
 20
72.910133
 30
0.0
 11
306.093201
 21
72.910133
 31
0.0
  0
LINE
  8
LY_1
  6
CONTINUOUS
 62
   251
  5
175
 10
318.700012
 20
72.910133
 30
0.0
 11
318.700012
 21
70.910133
 31
0.0
  0
LINE
  8
LY_1
  6
CONTINUOUS
 62
   251
  5
176
 10
303.299988
 20
72.910133
 30
0.0
 11
303.299988
 21
72.5
 31
0.0
  0
LINE
  8
LY_1
  6
CENTER
 62
     7
  5
177
 10
291.579224
 20
89.910133
 30
0.0
 11
329.956116
 21
89.910133
 31
0.0
  0
LINE
  8
LY_1
  6
CONTINUOUS
 62
   251
  5
178
 10
318.0
 20
70.910133
 30
0.0
 11
318.700012
 21
70.910133
 31
0.0
  0
LINE
  8
LY_1
  6
CONTINUOUS
 62
   251
  5
179
 10
315.906799
 20
72.910133
 30
0.0
 11
319.0
 21
72.910133
 31
0.0
  0
LINE
  8
LY_1
  6
CONTINUOUS
 62
   251
  5
17A
 10
315.892883
 20
72.5
 30
0.0
 11
318.0
 21
72.5
 31
0.0
  0
LINE
  8
LY_1
  6
CONTINUOUS
 62
   251
  5
17B
 10
17.0
 20
4.0
 30
0.0
 11
17.0
 21
-4.0
 31
0.0
  0
LINE
  8
LY_1
  6
CONTINUOUS
 62
   251
  5
17C
 10
182.0
 20
4.0
 30
0.0
 11
182.0
 21
-4.0
 31
0.0
  0
ENDSEC
  0
EOF
