  0
SECTION
  2
HEADER
  9
$ACADVER
  1
AC1009
  9
$DWGCODEPAGE
  3
dos932
  9
$INSBASE
 10
0.0
 20
0.0
 30
0.0
  9
$EXTMIN
 10
-96.083857
 20
-105.000019
 30
0.0
  9
$EXTMAX
 10
531.978732
 20
124.327586
 30
0.0
  9
$LIMMIN
 10
-96.083857
 20
-105.000019
  9
$LIMMAX
 10
531.978732
 20
124.327586
  9
$ORTHOMODE
 70
     0
  9
$REGENMODE
 70
     1
  9
$FILLMODE
 70
     1
  9
$QTEXTMODE
 70
     0
  9
$MIRRTEXT
 70
     1
  9
$DRAGMODE
 70
     2
  9
$LTSCALE
 40
1.0
  9
$OSMODE
 70
     0
  9
$ATTMODE
 70
     1
  9
$TEXTSIZE
 40
3.15
  9
$TRACEWID
 40
0.05
  9
$TEXTSTYLE
  7
MX_NOTE_STANDARD
  9
$CLAYER
  8
LY_1
  9
$CELTYPE
  6
CONTINUOUS
  9
$CECOLOR
 62
   256
  9
$DIMSCALE
 40
1.0
  9
$DIMASZ
 40
2.5
  9
$DIMEXO
 40
1.0
  9
$DIMDLI
 40
3.75
  9
$DIMRND
 40
0.0
  9
$DIMDLE
 40
0.0
  9
$DIMEXE
 40
1.5
  9
$DIMTP
 40
0.0
  9
$DIMTM
 40
0.0
  9
$DIMTXT
 40
3.15
  9
$DIMCEN
 40
2.5
  9
$DIMTSZ
 40
0.0
  9
$DIMTOL
 70
     0
  9
$DIMLIM
 70
     0
  9
$DIMTIH
 70
     0
  9
$DIMTOH
 70
     0
  9
$DIMSE1
 70
     0
  9
$DIMSE2
 70
     0
  9
$DIMTAD
 70
     1
  9
$DIMZIN
 70
     8
  9
$DIMBLK
  1

  9
$DIMASO
 70
     1
  9
$DIMSHO
 70
     1
  9
$DIMPOST
  1

  9
$DIMAPOST
  1

  9
$DIMALT
 70
     0
  9
$DIMALTD
 70
     4
  9
$DIMALTF
 40
0.03937
  9
$DIMLFAC
 40
1.0
  9
$DIMTOFL
 70
     1
  9
$DIMTVP
 40
0.0
  9
$DIMTIX
 70
     0
  9
$DIMSOXD
 70
     0
  9
$DIMSAH
 70
     0
  9
$DIMBLK1
  1

  9
$DIMBLK2
  1

  9
$DIMSTYLE
  2
MXDIMSTYLE
  9
$DIMCLRD
 70
     0
  9
$DIMCLRE
 70
     0
  9
$DIMCLRT
 70
     0
  9
$DIMTFAC
 40
1.0
  9
$DIMGAP
 40
1.0
  9
$LUNITS
 70
     2
  9
$LUPREC
 70
     4
  9
$AXISMODE
 70
     0
  9
$AXISUNIT
 10
0.0
 20
0.0
  9
$SKETCHINC
 40
0.1
  9
$FILLETRAD
 40
0.0
  9
$AUNITS
 70
     0
  9
$AUPREC
 70
     0
  9
$MENU
  1
acad
  9
$ELEVATION
 40
0.0
  9
$PELEVATION
 40
0.0
  9
$THICKNESS
 40
0.0
  9
$LIMCHECK
 70
     0
  9
$BLIPMODE
 70
     1
  9
$CHAMFERA
 40
0.0
  9
$CHAMFERB
 40
0.0
  9
$SKPOLY
 70
     0
  9
$TDCREATE
 40
2453665.670150463
  9
$TDUPDATE
 40
2453665.670150463
  9
$TDINDWG
 40
0.0000000000
  9
$TDUSRTIMER
 40
0.0000000000
  9
$USRTIMER
 70
     1
  9
$ANGBASE
 50
0.0
  9
$ANGDIR
 70
     0
  9
$PDMODE
 70
     0
  9
$PDSIZE
 40
0.0
  9
$PLINEWID
 40
0.0
  9
$COORDS
 70
     1
  9
$SPLFRAME
 70
     0
  9
$SPLINETYPE
 70
     6
  9
$SPLINESEGS
 70
     8
  9
$ATTDIA
 70
     0
  9
$ATTREQ
 70
     1
  9
$HANDLING
 70
     1
  9
$HANDSEED
  5
1B4
  9
$SURFTAB1
 70
     6
  9
$SURFTAB2
 70
     6
  9
$SURFTYPE
 70
     6
  9
$SURFU
 70
     6
  9
$SURFV
 70
     6
  9
$UCSNAME
  2

  9
$UCSORG
 10
0.0
 20
0.0
 30
0.0
  9
$UCSXDIR
 10
1.0
 20
0.0
 30
0.0
  9
$UCSYDIR
 10
0.0
 20
1.0
 30
0.0
  9
$PUCSNAME
  2

  9
$PUCSORG
 10
0.0
 20
0.0
 30
0.0
  9
$PUCSXDIR
 10
1.0
 20
0.0
 30
0.0
  9
$PUCSYDIR
 10
0.0
 20
1.0
 30
0.0
  9
$USERI1
 70
     0
  9
$USERI2
 70
     0
  9
$USERI3
 70
     0
  9
$USERI4
 70
     0
  9
$USERI5
 70
     0
  9
$USERR1
 40
0.0
  9
$USERR2
 40
0.0
  9
$USERR3
 40
0.0
  9
$USERR4
 40
0.0
  9
$USERR5
 40
0.0
  9
$WORLDVIEW
 70
     1
  9
$SHADEDGE
 70
     3
  9
$SHADEDIF
 70
    70
  9
$TILEMODE
 70
     1
  9
$MAXACTVP
 70
    16
  9
$PINSBASE
 10
0.0
 20
0.0
 30
0.0
  9
$PLIMCHECK
 70
     0
  9
$PEXTMIN
 10
1.000000E+20
 20
1.000000E+20
 30
1.000000E+20
  9
$PEXTMAX
 10
-1.000000E+20
 20
-1.000000E+20
 30
-1.000000E+20
  9
$PLIMMIN
 10
0.0
 20
0.0
  9
$PLIMMAX
 10
12.0
 20
9.0
  9
$UNITMODE
 70
     0
  9
$VISRETAIN
 70
     0
  9
$PLINEGEN
 70
     1
  9
$PSLTSCALE
 70
     0
  9
$TREEDEPTH
 70
  3020
  9
$DWGCODEPAGE
  3
dos932
  0
ENDSEC
  0
SECTION
  2
TABLES
  0
TABLE
  2
VPORT
 70
     1
  0
VPORT
  2
*ACTIVE
 70
     0
 10
0.0
 20
0.0
 11
1.0
 21
1.0
 12
217.947437
 22
9.663784
 13
0.0
 23
0.0
 14
1.0
 24
1.0
 15
0.0
 25
0.0
 16
0.0
 26
0.0
 36
1.0
 17
0.0
 27
0.0
 37
0.0
 40
231.620881
 41
1.732051
 42
50.0
 43
0.0
 44
0.0
 50
0.0
 51
0.0
 71
     0
 72
   100
 73
     1
 74
     1
 75
     0
 76
     0
 77
     0
 78
     0
  0
ENDTAB
  0
TABLE
  2
LTYPE
 70
     3
  0
LTYPE
  2
CONTINUOUS
 70
    64
  3
Solid line
 72
    65
 73
     0
 40
0.0
  0
LTYPE
  2
CENTER
 70
    64
  3
Center ____ _ ____ _ ____ _ ____ _ ____ _ ____
 72
    65
 73
     4
 40
50.8
 49
31.75
 49
-6.35
 49
6.35
 49
-6.35
  0
LTYPE
  2
DASHED
 70
    64
  3
Dashed __ __ __ __ __ __ __ __ __ __ __ __ __ _
 72
    65
 73
     2
 40
19.05
 49
12.7
 49
-6.35
  0
ENDTAB
  0
TABLE
  2
LAYER
 70
     3
  0
LAYER
  2
0
 70
     0
 62
     7
  6
CONTINUOUS
  0
LAYER
  2
LY_1
 70
     0
 62
     7
  6
CONTINUOUS
  0
LAYER
  2
DEFPOINTS
 70
     0
 62
     7
  6
CONTINUOUS
  0
ENDTAB
  0
TABLE
  2
STYLE
 70
     1
  0
STYLE
  2
MX_NOTE_STANDARD
 70
     0
 40
0.0
 41
1.0
 50
0.0
 71
     0
 42
3.15
  3
txt.shx
  4
extfont.shx
  0
ENDTAB
  0
TABLE
  2
VIEW
 70
     0
  0
ENDTAB
  0
TABLE
  2
UCS
 70
     0
  0
ENDTAB
  0
TABLE
  2
APPID
 70
     1
  0
APPID
  2
ACAD
 70
     0
  0
ENDTAB
  0
TABLE
  2
DIMSTYLE
 70
     1
  0
DIMSTYLE
  2
MXDIMSTYLE
 70
     0
  3

  4

  5

  6

  7

 40
1.0
 41
2.5
 42
1.0
 43
3.75
 44
1.5
 45
0.0
 46
0.0
 47
0.0
 48
0.0
 71
     0
 72
     0
 73
     0
 74
     0
 75
     0
 76
     0
 77
     1
 78
     8
140
3.15
141
2.5
142
0.0
143
0.03937
144
1.0
145
0.0
146
1.0
147
1.0
170
     0
171
     4
172
     1
173
     0
174
     0
175
     0
176
     0
177
     0
178
     0
  0
ENDTAB
  0
ENDSEC
  0
SECTION
  2
BLOCKS
  0
ENDSEC
  0
SECTION
  2
ENTITIES
  0
LINE
  8
LY_1
  6
CONTINUOUS
 62
   251
  5
1F
 10
433.400034
 20
92.00012
 30
0.0
 11
433.400034
 21
110.00012
 31
0.0
  0
LINE
  8
LY_1
  6
CONTINUOUS
 62
   251
  5
20
 10
433.400094
 20
110.00019
 30
0.0
 11
432.400094
 21
111.00016
 31
0.0
  0
LINE
  8
LY_1
  6
CONTINUOUS
 62
   251
  5
21
 10
432.400034
 20
111.0001
 30
0.0
 11
399.600044
 21
111.0001
 31
0.0
  0
LINE
  8
LY_1
  6
CONTINUOUS
 62
   251
  5
22
 10
399.600144
 20
111.00003
 30
0.0
 11
398.600144
 21
110.00001
 31
0.0
  0
LINE
  8
LY_1
  6
CONTINUOUS
 62
   251
  5
23
 10
398.600044
 20
110.00012
 30
0.0
 11
398.600044
 21
92.00012
 31
0.0
  0
LINE
  8
LY_1
  6
CONTINUOUS
 62
   251
  5
24
 10
398.600044
 20
92.00012
 30
0.0
 11
398.600044
 21
95.00012
 31
0.0
  0
LINE
  8
LY_1
  6
CONTINUOUS
 62
   251
  5
25
 10
395.500014
 20
88.20013
 30
0.0
 11
395.500014
 21
92.00012
 31
0.0
  0
LINE
  8
LY_1
  6
CONTINUOUS
 62
   251
  5
26
 10
395.500014
 20
92.0001
 30
0.0
 11
436.500014
 21
92.0001
 31
0.0
  0
LINE
  8
LY_1
  6
CONTINUOUS
 62
   251
  5
27
 10
436.500014
 20
92.00012
 30
0.0
 11
436.500014
 21
88.20013
 31
0.0
  0
LINE
  8
LY_1
  6
CONTINUOUS
 62
   251
  5
28
 10
393.500134
 20
88.19918
 30
0.0
 11
438.500014
 21
88.19918
 31
0.0
  0
LINE
  8
LY_1
  6
CONTINUOUS
 62
   251
  5
29
 10
438.500014
 20
65.02215
 30
0.0
 11
438.500014
 21
88.20013
 31
0.0
  0
LINE
  8
LY_1
  6
CONTINUOUS
 62
   251
  5
2A
 10
383.500014
 20
65.99998
 30
0.0
 11
383.500014
 21
64.99998
 31
0.0
  0
LINE
  8
LY_1
  6
CENTER
 62
     7
  5
2C
 10
416.000014
 20
117.94021
 30
0.0
 11
416.000014
 21
81.06567
 31
0.0
  0
LINE
  8
LY_1
  6
CONTINUOUS
 62
   251
  5
2D
 10
440.300034
 20
-65.0
 30
0.0
 11
440.300034
 21
64.99998
 31
0.0
  0
LINE
  8
LY_1
  6
CONTINUOUS
 62
   251
  5
2E
 10
444.800034
 20
64.99998
 30
0.0
 11
444.800034
 21
-65.0
 31
0.0
  0
LINE
  8
LY_1
  6
CONTINUOUS
 62
   251
  5
2F
 10
380.500014
 20
-65.0
 30
0.0
 11
380.500014
 21
64.99998
 31
0.0
  0
LINE
  8
LY_1
  6
CONTINUOUS
 62
   251
  5
30
 10
376.500014
 20
64.99998
 30
0.0
 11
376.500014
 21
-65.0
 31
0.0
  0
LINE
  8
LY_1
  6
CONTINUOUS
 62
   251
  5
31
 10
380.500014
 20
28.0
 30
0.0
 11
440.300034
 21
28.0
 31
0.0
  0
LINE
  8
LY_1
  6
CONTINUOUS
 62
   251
  5
32
 10
380.500014
 20
25.0
 30
0.0
 11
440.300034
 21
25.0
 31
0.0
  0
LINE
  8
LY_1
  6
CONTINUOUS
 62
   251
  5
33
 10
380.500014
 20
22.0
 30
0.0
 11
440.300034
 21
22.0
 31
0.0
  0
LINE
  8
LY_1
  6
CONTINUOUS
 62
   251
  5
34
 10
380.500014
 20
19.0
 30
0.0
 11
440.300034
 21
19.0
 31
0.0
  0
LINE
  8
LY_1
  6
CONTINUOUS
 62
   251
  5
35
 10
380.500014
 20
-19.0
 30
0.0
 11
440.300034
 21
-19.0
 31
0.0
  0
LINE
  8
LY_1
  6
CONTINUOUS
 62
   251
  5
36
 10
380.500014
 20
-22.0
 30
0.0
 11
440.300034
 21
-22.0
 31
0.0
  0
LINE
  8
LY_1
  6
CONTINUOUS
 62
   251
  5
37
 10
380.500014
 20
-25.0
 30
0.0
 11
440.300034
 21
-25.0
 31
0.0
  0
LINE
  8
LY_1
  6
CONTINUOUS
 62
   251
  5
38
 10
380.500014
 20
-28.0
 30
0.0
 11
440.300034
 21
-28.0
 31
0.0
  0
LINE
  8
LY_1
  6
CONTINUOUS
 62
   251
  5
39
 10
512.800034
 20
62.19998
 30
0.0
 11
512.800034
 21
80.49997
 31
0.0
  0
LINE
  8
LY_1
  6
CONTINUOUS
 62
   251
  5
3A
 10
512.800064
 20
80.50001
 30
0.0
 11
511.800064
 21
81.5
 31
0.0
  0
LINE
  8
LY_1
  6
CONTINUOUS
 62
   251
  5
3B
 10
511.800034
 20
81.49997
 30
0.0
 11
484.200024
 21
81.49997
 31
0.0
  0
LINE
  8
LY_1
  6
CONTINUOUS
 62
   251
  5
3C
 10
484.200024
 20
81.49997
 30
0.0
 11
483.200024
 21
80.49997
 31
0.0
  0
LINE
  8
LY_1
  6
CONTINUOUS
 62
   251
  5
3D
 10
483.200024
 20
80.49997
 30
0.0
 11
483.200024
 21
62.19998
 31
0.0
  0
LINE
  8
LY_1
  6
CENTER
 62
     7
  5
3E
 10
498.000014
 20
54.94079
 30
0.0
 11
498.000014
 21
88.24273
 31
0.0
  0
LINE
  8
LY_1
  6
CONTINUOUS
 62
   251
  5
3F
 10
478.950024
 20
58.39997
 30
0.0
 11
478.950024
 21
62.19998
 31
0.0
  0
LINE
  8
LY_1
  6
CONTINUOUS
 62
   251
  5
40
 10
478.950024
 20
62.19998
 30
0.0
 11
517.050034
 21
62.19998
 31
0.0
  0
LINE
  8
LY_1
  6
CONTINUOUS
 62
   251
  5
41
 10
517.050034
 20
62.19998
 30
0.0
 11
517.050034
 21
58.39997
 31
0.0
  0
LINE
  8
LY_1
  6
CONTINUOUS
 62
   251
  5
42
 10
474.000014
 20
-27.46296
 30
0.0
 11
472.800034
 21
-27.46296
 31
0.0
  0
LINE
  8
LY_1
  6
CONTINUOUS
 62
   251
  5
43
 10
472.800034
 20
-27.5037
 30
0.0
 11
491.000014
 21
-27.5037
 31
0.0
  0
LINE
  8
LY_1
  6
CONTINUOUS
 62
   251
  5
44
 10
491.000044
 20
-40.03482
 30
0.0
 11
515.355904
 21
-39.1843
 31
0.0
  0
LINE
  8
LY_1
  6
CONTINUOUS
 62
   251
  5
45
 10
491.000014
 20
-42.5
 30
0.0
 11
376.500014
 21
-42.5
 31
0.0
  0
LINE
  8
LY_1
  6
CONTINUOUS
 62
   251
  5
46
 10
491.000014
 20
-42.5
 30
0.0
 11
491.000014
 21
42.5
 31
0.0
  0
LINE
  8
LY_1
  6
CONTINUOUS
 62
   251
  5
47
 10
491.000014
 20
27.50344
 30
0.0
 11
472.800034
 21
27.50344
 31
0.0
  0
LINE
  8
LY_1
  6
CONTINUOUS
 62
   251
  5
48
 10
517.500014
 20
58.39997
 30
0.0
 11
478.500014
 21
58.39997
 31
0.0
  0
LINE
  8
LY_1
  6
CONTINUOUS
 62
   251
  5
49
 10
478.500014
 20
58.39997
 30
0.0
 11
478.500014
 21
42.5
 31
0.0
  0
LINE
  8
LY_1
  6
CONTINUOUS
 62
   251
  5
4A
 10
517.500014
 20
58.39997
 30
0.0
 11
517.500014
 21
-29.99308
 31
0.0
  0
LINE
  8
LY_1
  6
CONTINUOUS
 62
   251
  5
4B
 10
491.000014
 20
34.34738
 30
0.0
 11
517.500014
 21
34.34738
 31
0.0
  0
LINE
  8
LY_1
  6
CONTINUOUS
 62
   251
  5
4C
 10
491.000014
 20
42.5
 30
0.0
 11
376.500014
 21
42.5
 31
0.0
  0
LINE
  8
LY_1
  6
CONTINUOUS
 62
   251
  5
4D
 10
485.000014
 20
-42.5
 30
0.0
 11
485.000014
 21
42.5
 31
0.0
  0
LINE
  8
LY_1
  6
CONTINUOUS
 62
   251
  5
4E
 10
472.800034
 20
63.99998
 30
0.0
 11
472.800034
 21
-65.0
 31
0.0
  0
ARC
  8
LY_1
  6
CONTINUOUS
 62
   251
  5
4F
 10
471.800034
 20
63.99998
 30
0.0
 40
1.0
 50
359.99998
 51
90.00003
  0
ARC
  8
LY_1
  6
CONTINUOUS
 62
   251
  5
50
 10
471.800034
 20
-64.0
 30
0.0
 40
1.0
 50
269.999982
 51
359.99996
  0
ARC
  8
LY_1
  6
CONTINUOUS
 62
   251
  5
51
 10
487.451854
 20
-29.99308
 30
0.0
 40
30.048155
 50
343.61989
 51
359.9868
  0
ARC
  8
LY_1
  6
CONTINUOUS
 62
   251
  5
52
 10
515.320994
 20
-38.18491
 30
0.0
 40
1.0
 50
272.000742
 51
343.61965
  0
ARC
  8
LY_1
  6
CONTINUOUS
 62
   251
  5
53
 10
442.067824
 20
52.96881
 30
0.0
 40
60.0
 50
144.04333
 51
167.45615
  0
LINE
  8
LY_1
  6
CONTINUOUS
 62
   251
  5
54
 10
471.800034
 20
-65.0
 30
0.0
 11
364.500014
 21
-65.0
 31
0.0
  0
LINE
  8
LY_1
  6
CONTINUOUS
 62
   251
  5
55
 10
364.500014
 20
64.99998
 30
0.0
 11
471.800034
 21
64.99998
 31
0.0
  0
LINE
  8
LY_1
  6
CONTINUOUS
 62
   251
  5
56
 10
364.500014
 20
-50.80603
 30
0.0
 11
376.500014
 21
-50.80603
 31
0.0
  0
LINE
  8
LY_1
  6
CONTINUOUS
 62
   251
  5
57
 10
364.500014
 20
50.80596
 30
0.0
 11
376.500014
 21
50.80596
 31
0.0
  0
LINE
  8
LY_1
  6
CONTINUOUS
 62
   251
  5
58
 10
-18.750676
 20
88.2
 30
0.0
 11
-20.5
 21
88.2
 31
0.0
  0
LINE
  8
LY_1
  6
CONTINUOUS
 62
   251
  5
59
 10
-19.420715
 20
91.99998
 30
0.0
 11
-20.5
 21
91.99998
 31
0.0
  0
LINE
  8
LY_1
  6
CONTINUOUS
 62
   251
  5
5A
 10
20.5
 20
88.2
 30
0.0
 11
-12.35349
 21
88.2
 31
0.0
  0
LINE
  8
LY_1
  6
CONTINUOUS
 62
   251
  5
5B
 10
20.5
 20
91.99998
 30
0.0
 11
-13.023529
 21
91.99998
 31
0.0
  0
LINE
  8
LY_1
  6
CONTINUOUS
 62
   251
  5
5C
 10
17.40002
 20
91.99998
 30
0.0
 11
17.40002
 21
109.99998
 31
0.0
  0
LINE
  8
LY_1
  6
CONTINUOUS
 62
   251
  5
5D
 10
17.40002
 20
109.99997
 30
0.0
 11
16.40002
 21
110.99997
 31
0.0
  0
LINE
  8
LY_1
  6
CONTINUOUS
 62
   251
  5
5E
 10
16.40002
 20
110.99998
 30
0.0
 11
-16.40002
 21
110.99998
 31
0.0
  0
LINE
  8
LY_1
  6
CONTINUOUS
 62
   251
  5
5F
 10
-16.39996
 20
110.99997
 30
0.0
 11
-17.40002
 21
109.99995
 31
0.0
  0
LINE
  8
LY_1
  6
CONTINUOUS
 62
   251
  5
60
 10
-17.40002
 20
109.99998
 30
0.0
 11
-17.40002
 21
106.114001
 31
0.0
  0
LINE
  8
LY_1
  6
CONTINUOUS
 62
   251
  5
61
 10
20.5
 20
70.583281
 30
0.0
 11
20.5
 21
91.99998
 31
0.0
  0
LINE
  8
LY_1
  6
CONTINUOUS
 62
   251
  5
62
 10
-20.5
 20
91.99998
 30
0.0
 11
-20.5
 21
76.945795
 31
0.0
  0
LINE
  8
LY_1
  6
CONTINUOUS
 62
   251
  5
63
 10
282.500027
 20
81.473407
 30
0.0
 11
282.499998
 21
74.579743
 31
0.0
  0
LINE
  8
LY_1
  6
CONTINUOUS
 62
   251
  5
64
 10
14.504855
 20
82.260989
 30
0.0
 11
13.289273
 21
75.367345
 31
0.0
  0
LINE
  8
LY_1
  6
CONTINUOUS
 62
   251
  5
65
 10
81.02533
 20
0.0
 30
0.0
 11
84.530004
 21
0.0
 31
0.0
  0
LINE
  8
LY_1
  6
CONTINUOUS
 62
   251
  5
66
 10
0.0
 20
-53.530014
 30
0.0
 11
0.0
 21
-46.530011
 31
0.0
  0
POLYLINE
  8
LY_1
  6
CONTINUOUS
 62
   251
  5
67
 66
     1
 10
0.0
 20
0.0
 30
0.0
  0
VERTEX
  8
LY_1
  6
CONTINUOUS
 62
   251
  5
179
 10
277.650013
 20
71.237971
 30
0.0
  0
VERTEX
  8
LY_1
  6
CONTINUOUS
 62
   251
  5
17A
 10
277.691505
 20
71.127819
 30
0.0
  0
VERTEX
  8
LY_1
  6
CONTINUOUS
 62
   251
  5
17B
 10
277.815272
 20
71.019551
 30
0.0
  0
VERTEX
  8
LY_1
  6
CONTINUOUS
 62
   251
  5
17C
 10
278.019196
 20
70.915021
 30
0.0
  0
VERTEX
  8
LY_1
  6
CONTINUOUS
 62
   251
  5
17D
 10
278.299787
 20
70.816016
 30
0.0
  0
VERTEX
  8
LY_1
  6
CONTINUOUS
 62
   251
  5
17E
 10
278.652245
 20
70.724231
 30
0.0
  0
VERTEX
  8
LY_1
  6
CONTINUOUS
 62
   251
  5
17F
 10
279.070539
 20
70.641237
 30
0.0
  0
VERTEX
  8
LY_1
  6
CONTINUOUS
 62
   251
  5
180
 10
279.547512
 20
70.568453
 30
0.0
  0
VERTEX
  8
LY_1
  6
CONTINUOUS
 62
   251
  5
181
 10
280.075003
 20
70.507124
 30
0.0
  0
VERTEX
  8
LY_1
  6
CONTINUOUS
 62
   251
  5
182
 10
280.643986
 20
70.4583
 30
0.0
  0
VERTEX
  8
LY_1
  6
CONTINUOUS
 62
   251
  5
183
 10
281.244726
 20
70.422817
 30
0.0
  0
VERTEX
  8
LY_1
  6
CONTINUOUS
 62
   251
  5
184
 10
281.866944
 20
70.401281
 30
0.0
  0
VERTEX
  8
LY_1
  6
CONTINUOUS
 62
   251
  5
185
 10
282.499994
 20
70.394061
 30
0.0
  0
VERTEX
  8
LY_1
  6
CONTINUOUS
 62
   251
  5
186
 10
283.133043
 20
70.401281
 30
0.0
  0
VERTEX
  8
LY_1
  6
CONTINUOUS
 62
   251
  5
187
 10
283.755261
 20
70.422817
 30
0.0
  0
VERTEX
  8
LY_1
  6
CONTINUOUS
 62
   251
  5
188
 10
284.356001
 20
70.4583
 30
0.0
  0
VERTEX
  8
LY_1
  6
CONTINUOUS
 62
   251
  5
189
 10
284.924984
 20
70.507124
 30
0.0
  0
VERTEX
  8
LY_1
  6
CONTINUOUS
 62
   251
  5
18A
 10
285.452475
 20
70.568453
 30
0.0
  0
VERTEX
  8
LY_1
  6
CONTINUOUS
 62
   251
  5
18B
 10
285.929448
 20
70.641237
 30
0.0
  0
VERTEX
  8
LY_1
  6
CONTINUOUS
 62
   251
  5
18C
 10
286.347742
 20
70.724231
 30
0.0
  0
VERTEX
  8
LY_1
  6
CONTINUOUS
 62
   251
  5
18D
 10
286.7002
 20
70.816016
 30
0.0
  0
VERTEX
  8
LY_1
  6
CONTINUOUS
 62
   251
  5
18E
 10
286.980792
 20
70.915021
 30
0.0
  0
VERTEX
  8
LY_1
  6
CONTINUOUS
 62
   251
  5
18F
 10
287.184715
 20
71.019551
 30
0.0
  0
VERTEX
  8
LY_1
  6
CONTINUOUS
 62
   251
  5
190
 10
287.308482
 20
71.127819
 30
0.0
  0
VERTEX
  8
LY_1
  6
CONTINUOUS
 62
   251
  5
191
 10
287.349974
 20
71.237971
 30
0.0
  0
SEQEND
  8
LY_1
  6
CONTINUOUS
 62
   251
  5
192
  0
POLYLINE
  8
LY_1
  6
CONTINUOUS
 62
   251
  5
68
 66
     1
 10
0.0
 20
0.0
 30
0.0
  0
VERTEX
  8
LY_1
  6
CONTINUOUS
 62
   251
  5
193
 10
277.999497
 20
75.741683
 30
0.0
  0
VERTEX
  8
LY_1
  6
CONTINUOUS
 62
   251
  5
194
 10
277.742005
 20
75.628529
 30
0.0
  0
VERTEX
  8
LY_1
  6
CONTINUOUS
 62
   251
  5
195
 10
277.578289
 20
75.510228
 30
0.0
  0
VERTEX
  8
LY_1
  6
CONTINUOUS
 62
   251
  5
196
 10
277.511576
 20
75.389111
 30
0.0
  0
VERTEX
  8
LY_1
  6
CONTINUOUS
 62
   251
  5
197
 10
277.54318
 20
75.267564
 30
0.0
  0
VERTEX
  8
LY_1
  6
CONTINUOUS
 62
   251
  5
198
 10
277.672478
 20
75.147984
 30
0.0
  0
VERTEX
  8
LY_1
  6
CONTINUOUS
 62
   251
  5
199
 10
277.896923
 20
75.032727
 30
0.0
  0
VERTEX
  8
LY_1
  6
CONTINUOUS
 62
   251
  5
19A
 10
278.212091
 20
74.924066
 30
0.0
  0
VERTEX
  8
LY_1
  6
CONTINUOUS
 62
   251
  5
19B
 10
278.611769
 20
74.82414
 30
0.0
  0
VERTEX
  8
LY_1
  6
CONTINUOUS
 62
   251
  5
19C
 10
279.088081
 20
74.734921
 30
0.0
  0
VERTEX
  8
LY_1
  6
CONTINUOUS
 62
   251
  5
19D
 10
279.631639
 20
74.658166
 30
0.0
  0
VERTEX
  8
LY_1
  6
CONTINUOUS
 62
   251
  5
19E
 10
280.23173
 20
74.595389
 30
0.0
  0
VERTEX
  8
LY_1
  6
CONTINUOUS
 62
   251
  5
19F
 10
280.876526
 20
74.547826
 30
0.0
  0
VERTEX
  8
LY_1
  6
CONTINUOUS
 62
   251
  5
1A0
 10
281.55332
 20
74.516414
 30
0.0
  0
VERTEX
  8
LY_1
  6
CONTINUOUS
 62
   251
  5
1A1
 10
282.248772
 20
74.501774
 30
0.0
  0
VERTEX
  8
LY_1
  6
CONTINUOUS
 62
   251
  5
1A2
 10
282.949175
 20
74.504194
 30
0.0
  0
VERTEX
  8
LY_1
  6
CONTINUOUS
 62
   251
  5
1A3
 10
283.640725
 20
74.523625
 30
0.0
  0
VERTEX
  8
LY_1
  6
CONTINUOUS
 62
   251
  5
1A4
 10
284.309792
 20
74.559685
 30
0.0
  0
VERTEX
  8
LY_1
  6
CONTINUOUS
 62
   251
  5
1A5
 10
284.943189
 20
74.611663
 30
0.0
  0
VERTEX
  8
LY_1
  6
CONTINUOUS
 62
   251
  5
1A6
 10
285.528434
 20
74.678535
 30
0.0
  0
VERTEX
  8
LY_1
  6
CONTINUOUS
 62
   251
  5
1A7
 10
286.05399
 20
74.758983
 30
0.0
  0
VERTEX
  8
LY_1
  6
CONTINUOUS
 62
   251
  5
1A8
 10
286.5095
 20
74.851421
 30
0.0
  0
VERTEX
  8
LY_1
  6
CONTINUOUS
 62
   251
  5
1A9
 10
286.885986
 20
74.954027
 30
0.0
  0
VERTEX
  8
LY_1
  6
CONTINUOUS
 62
   251
  5
1AA
 10
287.176028
 20
75.06478
 30
0.0
  0
VERTEX
  8
LY_1
  6
CONTINUOUS
 62
   251
  5
1AB
 10
287.373909
 20
75.181495
 30
0.0
  0
VERTEX
  8
LY_1
  6
CONTINUOUS
 62
   251
  5
1AC
 10
287.47573
 20
75.301874
 30
0.0
  0
VERTEX
  8
LY_1
  6
CONTINUOUS
 62
   251
  5
1AD
 10
287.479483
 20
75.423542
 30
0.0
  0
VERTEX
  8
LY_1
  6
CONTINUOUS
 62
   251
  5
1AE
 10
287.385094
 20
75.544103
 30
0.0
  0
VERTEX
  8
LY_1
  6
CONTINUOUS
 62
   251
  5
1AF
 10
287.194424
 20
75.66118
 30
0.0
  0
VERTEX
  8
LY_1
  6
CONTINUOUS
 62
   251
  5
1B0
 10
287.103064
 20
75.701952
 30
0.0
  0
VERTEX
  8
LY_1
  6
CONTINUOUS
 62
   251
  5
1B1
 10
286.999973
 20
75.74187
 30
0.0
  0
SEQEND
  8
LY_1
  6
CONTINUOUS
 62
   251
  5
1B2
  0
ARC
  8
LY_1
  6
CONTINUOUS
 62
   251
  5
69
 10
51.265242
 20
51.265242
 30
0.0
 40
3.35
 50
331.108781
 51
118.891219
  0
ARC
  8
LY_1
  6
CONTINUOUS
 62
     7
  5
6A
 10
51.265242
 20
51.265242
 30
0.0
 40
4.0
 50
327.952152
 51
122.047848
  0
ARC
  8
LY_1
  6
CONTINUOUS
 62
   251
  5
6B
 10
-51.265242
 20
51.265242
 30
0.0
 40
3.35
 50
61.108781
 51
208.891219
  0
ARC
  8
LY_1
  6
CONTINUOUS
 62
     7
  5
6C
 10
-51.265242
 20
51.265242
 30
0.0
 40
4.0
 50
57.952152
 51
212.047848
  0
ARC
  8
LY_1
  6
CONTINUOUS
 62
   251
  5
6D
 10
0.0
 20
0.0
 30
0.0
 40
82.500003
 50
128.01228
 51
141.98772
  0
ARC
  8
LY_1
  6
CONTINUOUS
 62
   251
  5
6E
 10
0.0
 20
0.0
 30
0.0
 40
82.500003
 50
38.01228
 51
51.98772
  0
ARC
  8
LY_1
  6
CONTINUOUS
 62
   251
  5
6F
 10
294.499989
 20
-52.000001
 30
0.0
 40
5.0
 50
90.000003
 51
180.000005
  0
ARC
  8
LY_1
  6
CONTINUOUS
 62
   251
  5
70
 10
345.499999
 20
-52.000001
 30
0.0
 40
5.0
 50
0.0
 51
90.000003
  0
ARC
  8
LY_1
  6
CONTINUOUS
 62
   251
  5
71
 10
345.499999
 20
52.0
 30
0.0
 40
5.0
 50
269.999997
 51
0.0
  0
ARC
  8
LY_1
  6
CONTINUOUS
 62
   251
  5
72
 10
294.499989
 20
52.0
 30
0.0
 40
5.0
 50
179.999991
 51
270.000001
  0
ARC
  8
LY_1
  6
CONTINUOUS
 62
   251
  5
73
 10
0.0
 20
0.0
 30
0.0
 40
52.000001
 50
275.003801
 51
312.795774
  0
CIRCLE
  8
LY_1
  6
CONTINUOUS
 62
   251
  5
74
 10
263.249989
 20
0.0
 30
0.0
 40
4.990937
  0
ARC
  8
LY_1
  6
CONTINUOUS
 62
   251
  5
75
 10
294.456781
 20
73.505106
 30
0.0
 40
4.0
 50
126.08644
 51
188.554038
  0
ARC
  8
LY_1
  6
CONTINUOUS
 62
   251
  5
76
 10
270.543207
 20
73.505106
 30
0.0
 40
4.0
 50
351.445928
 51
53.913579
  0
ARC
  8
LY_1
  6
CONTINUOUS
 62
   251
  5
77
 10
287.940184
 20
75.910136
 30
0.0
 40
2.0
 50
10.000004
 51
89.999982
  0
ARC
  8
LY_1
  6
CONTINUOUS
 62
   251
  5
78
 10
277.059803
 20
75.910136
 30
0.0
 40
2.0
 50
89.999982
 51
170.000021
  0
ARC
  8
LY_1
  6
CONTINUOUS
 62
   251
  5
79
 10
282.499994
 20
89.910138
 30
0.0
 40
10.0
 50
302.703858
 51
236.438609
  0
ARC
  8
LY_1
  6
CONTINUOUS
 62
   251
  5
7A
 10
282.499994
 20
89.910138
 30
0.0
 40
16.3
 50
306.086414
 51
233.913543
  0
ARC
  8
LY_1
  6
CONTINUOUS
 62
   251
  5
7B
 10
0.0
 20
0.0
 30
0.0
 40
11.0
 50
15.826613
 51
344.173369
  0
ARC
  8
LY_1
  6
CONTINUOUS
 62
   251
  5
7C
 10
-19.815241
 20
76.217025
 30
0.0
 40
1.0
 50
117.667084
 51
179.99995
  0
ARC
  8
LY_1
  6
CONTINUOUS
 62
   251
  5
7D
 10
-17.371038
 20
74.617151
 30
0.0
 40
1.0
 50
279.999961
 51
10.0
  0
ARC
  8
LY_1
  6
CONTINUOUS
 62
   251
  5
7E
 10
-9.197133
 20
76.058432
 30
0.0
 40
1.0
 50
189.999979
 51
280.000016
  0
ARC
  8
LY_1
  6
CONTINUOUS
 62
   251
  5
7F
 10
-18.172302
 20
103.060137
 30
0.0
 40
3.15
 50
10.0
 51
189.999962
  0
ARC
  8
LY_1
  6
CONTINUOUS
 62
   251
  5
80
 10
-7.44751
 20
78.397789
 30
0.0
 40
1.0
 50
20.000013
 51
82.332883
  0
ARC
  8
LY_1
  6
CONTINUOUS
 62
   251
  5
81
 10
0.0
 20
0.0
 30
0.0
 40
72.5
 50
309.081858
 51
0.0
  0
ARC
  8
LY_1
  6
CONTINUOUS
 62
   251
  5
82
 10
0.0
 20
0.0
 30
0.0
 40
72.5
 50
234.255084
 51
305.744915
  0
ARC
  8
LY_1
  6
CONTINUOUS
 62
   251
  5
83
 10
-78.0277
 20
-69.000015
 30
0.0
 40
5.0
 50
174.999992
 51
270.000001
  0
ARC
  8
LY_1
  6
CONTINUOUS
 62
   251
  5
84
 10
-55.306854
 20
-69.000015
 30
0.0
 40
5.0
 50
269.999997
 51
341.243324
  0
ARC
  8
LY_1
  6
CONTINUOUS
 62
   251
  5
85
 10
78.027687
 20
-69.000015
 30
0.0
 40
5.0
 50
269.999997
 51
5.000003
  0
ARC
  8
LY_1
  6
CONTINUOUS
 62
   251
  5
86
 10
55.306854
 20
-69.000015
 30
0.0
 40
5.0
 50
198.756678
 51
269.999997
  0
ARC
  8
LY_1
  6
CONTINUOUS
 62
   251
  5
87
 10
76.852112
 20
10.0
 30
0.0
 40
5.0
 50
187.413674
 51
269.999997
  0
ARC
  8
LY_1
  6
CONTINUOUS
 62
   251
  5
88
 10
-76.852137
 20
10.0
 30
0.0
 40
5.0
 50
269.999997
 51
352.586327
  0
ARC
  8
LY_1
  6
CONTINUOUS
 62
   251
  5
89
 10
0.0
 20
0.0
 30
0.0
 40
72.5
 50
0.0
 51
230.91815
  0
ARC
  8
LY_1
  6
CONTINUOUS
 62
   251
  5
8A
 10
174.999981
 20
0.0
 30
0.0
 40
3.0
 50
269.999997
 51
90.000003
  0
ARC
  8
LY_1
  6
CONTINUOUS
 62
   251
  5
8B
 10
42.5
 20
-78.000011
 30
0.0
 40
5.0
 50
269.999997
 51
0.0
  0
ARC
  8
LY_1
  6
CONTINUOUS
 62
   251
  5
8C
 10
-42.5
 20
-78.000011
 30
0.0
 40
5.0
 50
179.999991
 51
270.000001
  0
ARC
  8
LY_1
  6
CENTER
 62
     7
  5
8D
 10
0.0
 20
0.0
 30
0.0
 40
64.000003
 50
202.972353
 51
216.65023
  0
ARC
  8
LY_1
  6
CENTER
 62
     7
  5
8E
 10
0.0
 20
0.0
 30
0.0
 40
64.000003
 50
143.091425
 51
156.504195
  0
ARC
  8
LY_1
  6
CENTER
 62
     7
  5
8F
 10
0.0
 20
0.0
 30
0.0
 40
64.000003
 50
83.359406
 51
95.803293
  0
ARC
  8
LY_1
  6
CENTER
 62
     7
  5
90
 10
0.0
 20
0.0
 30
0.0
 40
64.000003
 50
23.808626
 51
36.973426
  0
ARC
  8
LY_1
  6
CENTER
 62
     7
  5
91
 10
0.0
 20
0.0
 30
0.0
 40
64.000003
 50
323.756441
 51
336.287528
  0
ARC
  8
LY_1
  6
CONTINUOUS
 62
   251
  5
92
 10
0.0
 20
0.0
 30
0.0
 40
52.000001
 50
227.204225
 51
264.996201
  0
ARC
  8
LY_1
  6
CONTINUOUS
 62
   251
  5
93
 10
55.425606
 20
-31.999938
 30
0.0
 40
8.5
 50
250.172177
 51
49.827821
  0
ARC
  8
LY_1
  6
CONTINUOUS
 62
   251
  5
94
 10
0.0
 20
-63.999952
 30
0.0
 40
8.5
 50
190.172182
 51
349.827827
  0
ARC
  8
LY_1
  6
CONTINUOUS
 62
   251
  5
95
 10
-55.425593
 20
-31.999938
 30
0.0
 40
8.5
 50
130.172177
 51
289.827821
  0
ARC
  8
LY_1
  6
CONTINUOUS
 62
   251
  5
96
 10
-55.425593
 20
31.999999
 30
0.0
 40
8.5
 50
70.172182
 51
229.827833
  0
ARC
  8
LY_1
  6
CONTINUOUS
 62
   251
  5
97
 10
0.0
 20
63.999999
 30
0.0
 40
8.5
 50
10.172187
 51
169.827832
  0
ARC
  8
LY_1
  6
CONTINUOUS
 62
   251
  5
98
 10
55.425606
 20
31.999999
 30
0.0
 40
8.5
 50
310.172172
 51
109.827816
  0
ARC
  8
LY_1
  6
CENTER
 62
     7
  5
99
 10
0.0
 20
0.0
 30
0.0
 40
64.000003
 50
262.723517
 51
276.652882
  0
CIRCLE
  8
LY_1
  6
CONTINUOUS
 62
   251
  5
9A
 10
0.0
 20
0.0
 30
0.0
 40
36.000001
  0
ARC
  8
LY_1
  6
CONTINUOUS
 62
   251
  5
9B
 10
0.0
 20
0.0
 30
0.0
 40
52.000001
 50
317.204227
 51
222.795771
  0
ARC
  8
LY_1
  6
CONTINUOUS
 62
   251
  5
9C
 10
0.0
 20
0.0
 30
0.0
 40
73.499997
 50
5.136056
 51
174.863935
  0
ARC
  8
LY_1
  6
CONTINUOUS
 62
   251
  5
9D
 10
297.502181
 20
-62.000014
 30
0.0
 40
12.0
 50
195.000006
 51
270.000018
  0
ARC
  8
LY_1
  6
CONTINUOUS
 62
   251
  5
9E
 10
226.874676
 20
-69.000015
 30
0.0
 40
5.0
 50
270.000018
 51
349.999952
  0
ARC
  8
LY_1
  6
CONTINUOUS
 62
   251
  5
9F
 10
266.999976
 20
5.0
 30
0.0
 40
15.0
 50
179.999978
 51
270.000028
  0
ARC
  8
LY_1
  6
CONTINUOUS
 62
   251
  5
A0
 10
197.999986
 20
-29.003385
 30
0.0
 40
5.0
 50
0.0
 51
89.999982
  0
ARC
  8
LY_1
  6
CONTINUOUS
 62
   251
  5
A1
 10
211.999976
 20
0.0
 30
0.0
 40
8.0
 50
96.693943
 51
264.219147
  0
LINE
  8
LY_1
  6
CONTINUOUS
 62
   251
  5
A2
 10
13.5
 20
2.999999
 30
0.0
 11
13.5
 21
-3.000002
 31
0.0
  0
LINE
  8
LY_1
  6
CONTINUOUS
 62
   251
  5
A3
 10
175.000001
 20
2.999999
 30
0.0
 11
175.000001
 21
-3.000002
 31
0.0
  0
LINE
  8
LY_1
  6
CENTER
 62
     7
  5
A4
 10
50.204876
 20
50.204876
 30
0.0
 11
55.148515
 21
55.148515
 31
0.0
  0
LINE
  8
LY_1
  6
CENTER
 62
     7
  5
A5
 10
-50.204876
 20
50.204876
 30
0.0
 11
-55.148515
 21
55.148515
 31
0.0
  0
LINE
  8
LY_1
  6
CONTINUOUS
 62
   251
  5
A6
 10
34.311067
 20
65.000003
 30
0.0
 11
50.806006
 21
65.000003
 31
0.0
  0
LINE
  8
LY_1
  6
CONTINUOUS
 62
   251
  5
A7
 10
65.000003
 20
50.806006
 30
0.0
 11
65.000003
 21
34.311067
 31
0.0
  0
LINE
  8
LY_1
  6
CONTINUOUS
 62
   251
  5
A8
 10
-65.000003
 20
50.806006
 30
0.0
 11
-65.000003
 21
34.311067
 31
0.0
  0
LINE
  8
LY_1
  6
CONTINUOUS
 62
   251
  5
A9
 10
-50.806006
 20
65.000003
 30
0.0
 11
-34.311067
 21
65.000003
 31
0.0
  0
LINE
  8
LY_1
  6
CONTINUOUS
 62
   251
  5
AA
 10
294.499989
 20
-47.000001
 30
0.0
 11
345.499999
 21
-47.000001
 31
0.0
  0
LINE
  8
LY_1
  6
CONTINUOUS
 62
   251
  5
AB
 10
294.499989
 20
47.0
 30
0.0
 11
345.499999
 21
47.0
 31
0.0
  0
LINE
  8
LY_1
  6
CONTINUOUS
 62
   251
  5
AC
 10
350.499999
 20
-65.0
 30
0.0
 11
350.499999
 21
65.0
 31
0.0
  0
LINE
  8
LY_1
  6
CONTINUOUS
 62
   251
  5
AD
 10
364.500014
 20
-65.0
 30
0.0
 11
364.500014
 21
65.0
 31
0.0
  0
LINE
  8
LY_1
  6
CONTINUOUS
 62
   251
  5
AE
 10
350.499999
 20
-65.0
 30
0.0
 11
364.500014
 21
-65.0
 31
0.0
  0
LINE
  8
LY_1
  6
CONTINUOUS
 62
   251
  5
AF
 10
350.499999
 20
65.0
 30
0.0
 11
364.500014
 21
65.0
 31
0.0
  0
LINE
  8
LY_1
  6
CONTINUOUS
 62
     7
  5
B0
 10
84.530001
 20
0.0
 30
0.0
 11
80.814722
 21
2.407253
 31
0.0
  0
LINE
  8
LY_1
  6
CONTINUOUS
 62
     7
  5
B1
 10
80.837826
 20
2.14325
 30
0.0
 11
84.530001
 21
4.535534
 31
0.0
  0
LINE
  8
LY_1
  6
CONTINUOUS
 62
     7
  5
B2
 10
84.530004
 20
0.0
 30
0.0
 11
81.213346
 21
-2.148973
 31
0.0
  0
LINE
  8
LY_1
  6
CONTINUOUS
 62
     7
  5
B3
 10
84.529998
 20
-4.535534
 30
0.0
 11
81.235376
 21
-2.400838
 31
0.0
  0
LINE
  8
LY_1
  6
CONTINUOUS
 62
   251
  5
B4
 10
84.529991
 20
-4.535535
 30
0.0
 11
84.529991
 21
4.535535
 31
0.0
  0
LINE
  8
LY_1
  6
CONTINUOUS
 62
   251
  5
B5
 10
84.529991
 20
4.535535
 30
0.0
 11
80.628522
 21
4.535535
 31
0.0
  0
LINE
  8
LY_1
  6
CONTINUOUS
 62
   251
  5
B6
 10
84.529991
 20
-4.535535
 30
0.0
 11
81.422132
 21
-4.535535
 31
0.0
  0
LINE
  8
LY_1
  6
CONTINUOUS
 62
     7
  5
B7
 10
0.0
 20
-53.530014
 30
0.0
 11
4.535532
 21
-46.530016
 31
0.0
  0
LINE
  8
LY_1
  6
CONTINUOUS
 62
     7
  5
B8
 10
0.000008
 20
-46.530005
 30
0.0
 11
4.535544
 21
-53.530008
 31
0.0
  0
LINE
  8
LY_1
  6
CONTINUOUS
 62
     7
  5
B9
 10
0.000007
 20
-53.530006
 30
0.0
 11
-4.535525
 21
-46.530008
 31
0.0
  0
LINE
  8
LY_1
  6
CONTINUOUS
 62
     7
  5
BA
 10
-4.535533
 20
-53.530011
 30
0.0
 11
-0.000001
 21
-46.530013
 31
0.0
  0
LINE
  8
LY_1
  6
CONTINUOUS
 62
   251
  5
BB
 10
-4.990946
 20
-46.530011
 30
0.0
 11
4.990946
 21
-46.530011
 31
0.0
  0
LINE
  8
LY_1
  6
CONTINUOUS
 62
   251
  5
BC
 10
-4.535522
 20
-53.530013
 30
0.0
 11
4.535522
 21
-53.530013
 31
0.0
  0
LINE
  8
LY_1
  6
CONTINUOUS
 62
   251
  5
BD
 10
4.990931
 20
-46.530011
 30
0.0
 11
4.864994
 21
-42.500015
 31
0.0
  0
LINE
  8
LY_1
  6
CONTINUOUS
 62
   251
  5
BE
 10
4.535522
 20
-53.530013
 30
0.0
 11
4.535522
 21
-46.530011
 31
0.0
  0
LINE
  8
LY_1
  6
CONTINUOUS
 62
   251
  5
BF
 10
-4.535522
 20
-53.530013
 30
0.0
 11
-4.535522
 21
-46.530011
 31
0.0
  0
LINE
  8
LY_1
  6
CONTINUOUS
 62
   251
  5
C0
 10
-4.99093
 20
-46.530015
 30
0.0
 11
-4.864992
 21
-42.500012
 31
0.0
  0
LINE
  8
LY_1
  6
DASHED
 62
     7
  5
C2
 10
214.999977
 20
-53.530001
 30
0.0
 11
219.535511
 21
-46.530001
 31
0.0
  0
LINE
  8
LY_1
  6
DASHED
 62
     7
  5
C3
 10
214.999977
 20
-46.530005
 30
0.0
 11
219.535509
 21
-53.530002
 31
0.0
  0
LINE
  8
LY_1
  6
DASHED
 62
     7
  5
C4
 10
214.999975
 20
-53.530005
 30
0.0
 11
210.464436
 21
-46.529997
 31
0.0
  0
LINE
  8
LY_1
  6
DASHED
 62
     7
  5
C5
 10
210.464442
 20
-53.53
 30
0.0
 11
214.999976
 21
-46.53
 31
0.0
  0
LINE
  8
LY_1
  6
DASHED
 62
     7
  5
C6
 10
210.009034
 20
-46.529999
 30
0.0
 11
219.990915
 21
-46.529999
 31
0.0
  0
LINE
  8
LY_1
  6
DASHED
 62
     7
  5
C7
 10
210.464446
 20
-53.53
 30
0.0
 11
219.535503
 21
-53.53
 31
0.0
  0
LINE
  8
LY_1
  6
DASHED
 62
     7
  5
C8
 10
219.990913
 20
-46.53
 30
0.0
 11
219.860229
 21
-42.348113
 31
0.0
  0
LINE
  8
LY_1
  6
DASHED
 62
     7
  5
C9
 10
219.535503
 20
-53.53
 30
0.0
 11
219.535503
 21
-46.529999
 31
0.0
  0
LINE
  8
LY_1
  6
DASHED
 62
     7
  5
CA
 10
210.464446
 20
-53.53
 30
0.0
 11
210.464446
 21
-46.529999
 31
0.0
  0
LINE
  8
LY_1
  6
DASHED
 62
     7
  5
CB
 10
210.00904
 20
-46.53
 30
0.0
 11
210.134977
 21
-42.499997
 31
0.0
  0
LINE
  8
LY_1
  6
CENTER
 62
     7
  5
CC
 10
263.249989
 20
6.990938
 30
0.0
 11
263.249989
 21
-6.990938
 31
0.0
  0
LINE
  8
LY_1
  6
CONTINUOUS
 62
   251
  5
CD
 10
268.199737
 20
0.000001
 30
0.0
 11
263.249993
 21
4.949744
 31
0.0
  0
LINE
  8
LY_1
  6
CONTINUOUS
 62
   251
  5
CE
 10
263.249993
 20
-4.94975
 30
0.0
 11
268.199737
 21
-0.000007
 31
0.0
  0
LINE
  8
LY_1
  6
CONTINUOUS
 62
   251
  5
CF
 10
258.300234
 20
-0.000001
 30
0.0
 11
263.249988
 21
-4.949753
 31
0.0
  0
LINE
  8
LY_1
  6
CONTINUOUS
 62
   251
  5
D0
 10
263.249985
 20
4.949746
 30
0.0
 11
258.300241
 21
0.000003
 31
0.0
  0
LINE
  8
LY_1
  6
CENTER
 62
     7
  5
D1
 10
214.999968
 20
-39.132951
 30
0.0
 11
214.999968
 21
-55.852356
 31
0.0
  0
LINE
  8
LY_1
  6
CONTINUOUS
 62
     7
  5
D2
 10
14.504818
 20
82.261009
 30
0.0
 11
8.822645
 21
76.154935
 31
0.0
  0
LINE
  8
LY_1
  6
CONTINUOUS
 62
     7
  5
D3
 10
13.289287
 20
75.367338
 30
0.0
 11
10.038192
 21
83.048589
 31
0.0
  0
LINE
  8
LY_1
  6
CONTINUOUS
 62
     7
  5
D4
 10
14.504845
 20
82.261014
 30
0.0
 11
17.75594
 21
74.579764
 31
0.0
  0
LINE
  8
LY_1
  6
CONTINUOUS
 62
     7
  5
D5
 10
18.971446
 20
81.47342
 30
0.0
 11
13.289273
 21
75.367345
 31
0.0
  0
LINE
  8
LY_1
  6
CONTINUOUS
 62
   251
  5
D6
 10
18.204422
 20
74.500673
 30
0.0
 11
8.374201
 21
76.234006
 31
0.0
  0
LINE
  8
LY_1
  6
CONTINUOUS
 62
   251
  5
D7
 10
18.971428
 20
81.473412
 30
0.0
 11
10.038193
 21
83.048582
 31
0.0
  0
LINE
  8
LY_1
  6
CONTINUOUS
 62
   251
  5
D8
 10
8.374167
 20
76.234006
 30
0.0
 11
7.917984
 21
73.07226
 31
0.0
  0
LINE
  8
LY_1
  6
CONTINUOUS
 62
   251
  5
D9
 10
10.038193
 20
83.048582
 30
0.0
 11
8.822656
 21
76.154931
 31
0.0
  0
LINE
  8
LY_1
  6
CONTINUOUS
 62
   251
  5
DA
 10
18.971428
 20
81.473412
 30
0.0
 11
17.755892
 21
74.579761
 31
0.0
  0
LINE
  8
LY_1
  6
CONTINUOUS
 62
   251
  5
DB
 10
18.204442
 20
74.500664
 30
0.0
 11
17.551733
 21
71.37357
 31
0.0
  0
LINE
  8
LY_1
  6
CENTER
 62
     7
  5
DC
 10
12.3116
 20
69.822681
 30
0.0
 11
15.037653
 21
85.282895
 31
0.0
  0
LINE
  8
LY_1
  6
CONTINUOUS
 62
   251
  5
DD
 10
287.392877
 20
72.500003
 30
0.0
 11
289.499989
 21
72.500003
 31
0.0
  0
LINE
  8
LY_1
  6
CONTINUOUS
 62
   251
  5
DE
 10
287.406788
 20
72.910137
 30
0.0
 11
290.499999
 21
72.910137
 31
0.0
  0
LINE
  8
LY_1
  6
CONTINUOUS
 62
   251
  5
DF
 10
289.499989
 20
70.910136
 30
0.0
 11
290.200011
 21
70.910136
 31
0.0
  0
LINE
  8
LY_1
  6
CENTER
 62
     7
  5
E0
 10
263.079217
 20
89.910138
 30
0.0
 11
301.456114
 21
89.910138
 31
0.0
  0
LINE
  8
LY_1
  6
CONTINUOUS
 62
   251
  5
E1
 10
274.799976
 20
72.910137
 30
0.0
 11
274.799976
 21
72.500003
 31
0.0
  0
LINE
  8
LY_1
  6
CONTINUOUS
 62
   251
  5
E2
 10
290.200011
 20
72.910137
 30
0.0
 11
290.200011
 21
70.910136
 31
0.0
  0
LINE
  8
LY_1
  6
CONTINUOUS
 62
   251
  5
E3
 10
274.498717
 20
72.910137
 30
0.0
 11
277.593199
 21
72.910137
 31
0.0
  0
LINE
  8
LY_1
  6
CONTINUOUS
 62
   251
  5
E4
 10
287.457064
 20
78.218605
 30
0.0
 11
288.630292
 21
77.787285
 31
0.0
  0
LINE
  8
LY_1
  6
CONTINUOUS
 62
   251
  5
E5
 10
276.369708
 20
77.787292
 30
0.0
 11
277.312286
 21
78.133817
 31
0.0
  0
LINE
  8
LY_1
  6
CONTINUOUS
 62
   251
  5
E6
 10
289.909763
 20
76.257428
 30
0.0
 11
290.49998
 21
72.910139
 31
0.0
  0
LINE
  8
LY_1
  6
CONTINUOUS
 62
   251
  5
E7
 10
274.500015
 20
72.910137
 30
0.0
 11
275.090234
 21
76.257433
 31
0.0
  0
LINE
  8
LY_1
  6
CONTINUOUS
 62
   251
  5
E8
 10
287.489905
 20
75.362236
 30
0.0
 11
287.349907
 21
71.232993
 31
0.0
  0
LINE
  8
LY_1
  6
CONTINUOUS
 62
   251
  5
E9
 10
277.650063
 20
71.23299
 30
0.0
 11
277.510065
 21
75.36223
 31
0.0
  0
LINE
  8
LY_1
  6
CONTINUOUS
 62
     7
  5
EA
 10
282.499987
 20
81.473421
 30
0.0
 11
277.999988
 21
75.367356
 31
0.0
  0
LINE
  8
LY_1
  6
CONTINUOUS
 62
     7
  5
EB
 10
282.499968
 20
74.579755
 30
0.0
 11
277.999979
 21
82.260978
 31
0.0
  0
LINE
  8
LY_1
  6
CONTINUOUS
 62
     7
  5
EC
 10
287.000007
 20
82.260999
 30
0.0
 11
282.499998
 21
74.579743
 31
0.0
  0
LINE
  8
LY_1
  6
CONTINUOUS
 62
     7
  5
ED
 10
286.999974
 20
75.367346
 30
0.0
 11
282.499979
 21
81.473407
 31
0.0
  0
LINE
  8
LY_1
  6
CONTINUOUS
 62
   251
  5
EE
 10
277.999995
 20
82.260992
 30
0.0
 11
282.500023
 21
81.4734
 31
0.0
  0
LINE
  8
LY_1
  6
CONTINUOUS
 62
   251
  5
EF
 10
282.5
 20
83.04859
 30
0.0
 11
277.999971
 21
82.260998
 31
0.0
  0
LINE
  8
LY_1
  6
CONTINUOUS
 62
   251
  5
F0
 10
286.999994
 20
82.260991
 30
0.0
 11
282.499978
 21
83.04858
 31
0.0
  0
LINE
  8
LY_1
  6
CONTINUOUS
 62
   251
  5
F1
 10
282.500027
 20
81.473407
 30
0.0
 11
286.99998
 21
82.260987
 31
0.0
  0
LINE
  8
LY_1
  6
CONTINUOUS
 62
   251
  5
F2
 10
282.500004
 20
74.579753
 30
0.0
 11
287.000032
 21
75.367346
 31
0.0
  0
LINE
  8
LY_1
  6
CONTINUOUS
 62
   251
  5
F3
 10
278.000015
 20
75.367337
 30
0.0
 11
282.499981
 21
74.579755
 31
0.0
  0
LINE
  8
LY_1
  6
CONTINUOUS
 62
   251
  5
F4
 10
286.999989
 20
75.367343
 30
0.0
 11
286.999989
 21
82.260997
 31
0.0
  0
LINE
  8
LY_1
  6
CONTINUOUS
 62
   251
  5
F5
 10
277.999999
 20
75.367343
 30
0.0
 11
277.999999
 21
82.260997
 31
0.0
  0
LINE
  8
LY_1
  6
CENTER
 62
     7
  5
F6
 10
282.499994
 20
66.8166
 30
0.0
 11
282.499994
 21
108.744189
 31
0.0
  0
LINE
  8
LY_1
  6
CONTINUOUS
 62
   251
  5
F7
 10
274.499989
 20
72.500003
 30
0.0
 11
277.60711
 21
72.500003
 31
0.0
  0
LINE
  8
LY_1
  6
CONTINUOUS
 62
   251
  5
F8
 10
7.5
 20
2.999999
 30
0.0
 11
7.5
 21
-3.000002
 31
0.0
  0
LINE
  8
LY_1
  6
CONTINUOUS
 62
   251
  5
F9
 10
7.5
 20
-3.000002
 30
0.0
 11
13.5
 21
-3.000002
 31
0.0
  0
LINE
  8
LY_1
  6
CONTINUOUS
 62
   251
  5
FA
 10
7.5
 20
2.999999
 30
0.0
 11
13.5
 21
2.999999
 31
0.0
  0
LINE
  8
LY_1
  6
CENTER
 62
     7
  5
FB
 10
0.0
 20
124.327586
 30
0.0
 11
0.0
 21
-105.000019
 31
0.0
  0
LINE
  8
LY_1
  6
CENTER
 62
     7
  5
FC
 10
-96.083857
 20
0.0
 30
0.0
 11
96.082611
 21
0.0
 31
0.0
  0
LINE
  8
LY_1
  6
CONTINUOUS
 62
   251
  5
FD
 10
-12.93678
 20
73.368164
 30
0.0
 11
-11.770349
 21
72.55142
 31
0.0
  0
LINE
  8
LY_1
  6
CONTINUOUS
 62
   251
  5
FE
 10
-13.740168
 20
72.204271
 30
0.0
 11
-14.906433
 21
73.020898
 31
0.0
  0
LINE
  8
LY_1
  6
CONTINUOUS
 62
   251
  5
FF
 10
-20.519842
 20
72.031078
 30
0.0
 11
-20.275962
 21
70.647964
 31
0.0
  0
LINE
  8
LY_1
  6
CONTINUOUS
 62
   251
  5
100
 10
-5.353769
 20
74.705266
 30
0.0
 11
-5.10989
 21
73.322159
 31
0.0
  0
LINE
  8
LY_1
  6
CONTINUOUS
 62
   251
  5
101
 10
-20.815273
 20
71.978986
 30
0.0
 11
-5.058338
 21
74.757359
 31
0.0
  0
LINE
  8
LY_1
  6
CONTINUOUS
 62
   251
  5
102
 10
-21.274468
 20
102.513137
 30
0.0
 11
-16.386271
 21
74.790793
 31
0.0
  0
LINE
  8
LY_1
  6
CONTINUOUS
 62
   251
  5
103
 10
-17.088839
 20
78.77555
 30
0.0
 11
-20.279609
 21
77.102693
 31
0.0
  0
LINE
  8
LY_1
  6
CONTINUOUS
 62
   251
  5
104
 10
-20.815252
 20
76.217025
 30
0.0
 11
-20.815252
 21
71.978989
 31
0.0
  0
LINE
  8
LY_1
  6
CONTINUOUS
 62
   251
  5
105
 10
-15.070181
 20
103.60712
 30
0.0
 11
-10.181984
 21
75.884776
 31
0.0
  0
LINE
  8
LY_1
  6
CONTINUOUS
 62
   251
  5
106
 10
-10.884562
 20
79.869513
 30
0.0
 11
-7.314094
 21
79.388852
 31
0.0
  0
LINE
  8
LY_1
  6
CONTINUOUS
 62
   251
  5
107
 10
-6.507787
 20
78.739828
 30
0.0
 11
-5.058296
 21
74.757385
 31
0.0
  0
LINE
  8
LY_1
  6
CENTER
 62
     7
  5
108
 10
-11.709173
 20
66.405925
 30
0.0
 11
-19.501738
 21
110.599754
 31
0.0
  0
LINE
  8
LY_1
  6
CONTINUOUS
 62
   251
  5
109
 10
-76.571948
 20
5.007846
 30
0.0
 11
-83.008674
 21
-68.564225
 31
0.0
  0
LINE
  8
LY_1
  6
CONTINUOUS
 62
   251
  5
10A
 10
-28.006856
 20
-25.178423
 30
0.0
 11
-38.815889
 21
-35.987455
 31
0.0
  0
LINE
  8
LY_1
  6
CONTINUOUS
 62
   251
  5
10B
 10
-25.178436
 20
-28.006843
 30
0.0
 11
-35.328153
 21
-38.156559
 31
0.0
  0
LINE
  8
LY_1
  6
CONTINUOUS
 62
   251
  5
10C
 10
-38.815874
 20
-35.987465
 30
0.0
 11
-50.572379
 21
-70.607759
 31
0.0
  0
LINE
  8
LY_1
  6
CONTINUOUS
 62
   251
  5
10D
 10
-35.328135
 20
-38.156569
 30
0.0
 11
-47.5
 21
-74.000007
 31
0.0
  0
LINE
  8
LY_1
  6
CONTINUOUS
 62
   251
  5
10E
 10
38.815883
 20
-35.987447
 30
0.0
 11
50.57239
 21
-70.607747
 31
0.0
  0
LINE
  8
LY_1
  6
CONTINUOUS
 62
   251
  5
10F
 10
35.328122
 20
-38.156566
 30
0.0
 11
47.499991
 21
-74.000015
 31
0.0
  0
LINE
  8
LY_1
  6
CONTINUOUS
 62
   251
  5
110
 10
28.006832
 20
-25.178423
 30
0.0
 11
38.815873
 21
-35.987464
 31
0.0
  0
LINE
  8
LY_1
  6
CONTINUOUS
 62
   251
  5
111
 10
25.178403
 20
-28.006852
 30
0.0
 11
35.328128
 21
-38.156577
 31
0.0
  0
LINE
  8
LY_1
  6
CONTINUOUS
 62
   251
  5
112
 10
76.571916
 20
5.007861
 30
0.0
 11
83.008644
 21
-68.564225
 31
0.0
  0
LINE
  8
LY_1
  6
CONTINUOUS
 62
   251
  5
113
 10
174.999981
 20
2.999999
 30
0.0
 11
150.0
 21
2.999999
 31
0.0
  0
LINE
  8
LY_1
  6
CONTINUOUS
 62
   251
  5
114
 10
174.999981
 20
-3.000002
 30
0.0
 11
150.0
 21
-3.000002
 31
0.0
  0
LINE
  8
LY_1
  6
CONTINUOUS
 62
   251
  5
115
 10
-42.5
 20
-83.000011
 30
0.0
 11
42.5
 21
-83.000011
 31
0.0
  0
LINE
  8
LY_1
  6
CONTINUOUS
 62
   251
  5
116
 10
41.00001
 20
9.433044
 30
0.0
 11
41.00001
 21
-9.434023
 31
0.0
  0
LINE
  8
LY_1
  6
CONTINUOUS
 62
   251
  5
117
 10
-9.835256
 20
-42.500013
 30
0.0
 11
9.834417
 21
-42.500013
 31
0.0
  0
LINE
  8
LY_1
  6
CONTINUOUS
 62
   251
  5
118
 10
-40.999985
 20
9.432921
 30
0.0
 11
-40.999985
 21
-9.433107
 31
0.0
  0
LINE
  8
LY_1
  6
CONTINUOUS
 62
   251
  5
119
 10
-9.834951
 20
42.499999
 30
0.0
 11
9.834976
 21
42.499999
 31
0.0
  0
LINE
  8
LY_1
  6
CONTINUOUS
 62
   251
  5
11A
 10
36.326213
 20
-9.733581
 30
0.0
 11
47.330367
 21
-12.682136
 31
0.0
  0
LINE
  8
LY_1
  6
CONTINUOUS
 62
   251
  5
11B
 10
9.733544
 20
-36.326224
 30
0.0
 11
12.682097
 21
-47.330374
 31
0.0
  0
LINE
  8
LY_1
  6
CONTINUOUS
 62
   251
  5
11C
 10
-9.733571
 20
-36.326231
 30
0.0
 11
-12.682122
 21
-47.330373
 31
0.0
  0
LINE
  8
LY_1
  6
CONTINUOUS
 62
   251
  5
11D
 10
-36.326237
 20
-9.733585
 30
0.0
 11
-47.330416
 21
-12.682146
 31
0.0
  0
LINE
  8
LY_1
  6
CONTINUOUS
 62
   251
  5
11E
 10
-36.326214
 20
9.733578
 30
0.0
 11
-47.330344
 21
12.682126
 31
0.0
  0
LINE
  8
LY_1
  6
CONTINUOUS
 62
   251
  5
11F
 10
-26.592655
 20
26.592626
 30
0.0
 11
-34.648255
 21
34.648226
 31
0.0
  0
LINE
  8
LY_1
  6
CONTINUOUS
 62
   251
  5
120
 10
-9.733617
 20
36.326208
 30
0.0
 11
-12.682169
 21
47.330356
 31
0.0
  0
LINE
  8
LY_1
  6
CONTINUOUS
 62
   251
  5
121
 10
9.733591
 20
36.326208
 30
0.0
 11
12.682145
 21
47.33036
 31
0.0
  0
LINE
  8
LY_1
  6
CONTINUOUS
 62
   251
  5
122
 10
26.592613
 20
26.592626
 30
0.0
 11
34.648204
 21
34.648217
 31
0.0
  0
LINE
  8
LY_1
  6
CONTINUOUS
 62
   251
  5
123
 10
36.326214
 20
9.733581
 30
0.0
 11
47.330344
 21
12.682129
 31
0.0
  0
LINE
  8
LY_1
  6
DASHED
 62
     7
  5
124
 10
66.500003
 20
-74.000022
 30
0.0
 11
66.500003
 21
-90.000019
 31
0.0
  0
LINE
  8
LY_1
  6
DASHED
 62
     7
  5
125
 10
78.499997
 20
-74.000022
 30
0.0
 11
78.499997
 21
-90.000019
 31
0.0
  0
LINE
  8
LY_1
  6
DASHED
 62
     7
  5
126
 10
-66.49999
 20
-74.000022
 30
0.0
 11
-66.49999
 21
-90.000019
 31
0.0
  0
LINE
  8
LY_1
  6
DASHED
 62
     7
  5
127
 10
-78.499985
 20
-74.000022
 30
0.0
 11
-78.499985
 21
-90.000019
 31
0.0
  0
LINE
  8
LY_1
  6
CENTER
 62
     7
  5
128
 10
72.5
 20
-69.135329
 30
0.0
 11
72.5
 21
-93.350302
 31
0.0
  0
LINE
  8
LY_1
  6
CENTER
 62
     7
  5
129
 10
-72.5
 20
-69.525897
 30
0.0
 11
-72.5
 21
-93.350302
 31
0.0
  0
LINE
  8
LY_1
  6
CONTINUOUS
 62
   251
  5
12A
 10
-76.852137
 20
5.0
 30
0.0
 11
-80.588379
 21
5.0
 31
0.0
  0
LINE
  8
LY_1
  6
CONTINUOUS
 62
   251
  5
12B
 10
-80.589069
 20
5.000101
 30
0.0
 11
-87.500675
 21
-73.999871
 31
0.0
  0
LINE
  8
LY_1
  6
CONTINUOUS
 62
   251
  5
12C
 10
80.587886
 20
4.999998
 30
0.0
 11
87.499499
 21
-74.000041
 31
0.0
  0
LINE
  8
LY_1
  6
CONTINUOUS
 62
   251
  5
12D
 10
76.852112
 20
5.0
 30
0.0
 11
80.588379
 21
5.0
 31
0.0
  0
LINE
  8
LY_1
  6
CENTER
 62
     7
  5
12E
 10
48.330741
 20
-27.903555
 30
0.0
 11
62.055209
 21
-35.827381
 31
0.0
  0
LINE
  8
LY_1
  6
CONTINUOUS
 62
   251
  5
12F
 10
41.561127
 20
-36.036757
 30
0.0
 11
52.542305
 21
-39.996264
 31
0.0
  0
LINE
  8
LY_1
  6
CONTINUOUS
 62
   251
  5
130
 10
51.988327
 20
-17.975777
 30
0.0
 11
60.907946
 21
-25.506006
 31
0.0
  0
LINE
  8
LY_1
  6
CONTINUOUS
 62
   251
  5
131
 10
-10.431248
 20
-54.011936
 30
0.0
 11
-8.369691
 21
-65.501671
 31
0.0
  0
LINE
  8
LY_1
  6
CONTINUOUS
 62
   251
  5
132
 10
10.424555
 20
-54.01068
 30
0.0
 11
8.362994
 21
-65.500411
 31
0.0
  0
LINE
  8
LY_1
  6
CENTER
 62
     7
  5
133
 10
-47.644012
 20
-27.507829
 30
0.0
 11
-62.041629
 21
-35.820292
 31
0.0
  0
LINE
  8
LY_1
  6
CONTINUOUS
 62
   251
  5
134
 10
-51.991006
 20
-17.972798
 30
0.0
 11
-60.910656
 21
-25.50305
 31
0.0
  0
LINE
  8
LY_1
  6
CONTINUOUS
 62
   251
  5
135
 10
-41.561938
 20
-36.034782
 30
0.0
 11
-52.543105
 21
-39.99428
 31
0.0
  0
LINE
  8
LY_1
  6
CENTER
 62
     7
  5
136
 10
-47.12597
 20
27.208344
 30
0.0
 11
-61.030836
 21
35.236326
 31
0.0
  0
LINE
  8
LY_1
  6
CONTINUOUS
 62
   251
  5
137
 10
-41.561358
 20
36.03669
 30
0.0
 11
-52.542548
 21
39.996199
 31
0.0
  0
LINE
  8
LY_1
  6
CONTINUOUS
 62
   251
  5
138
 10
-51.98982
 20
17.973955
 30
0.0
 11
-60.909449
 21
25.504191
 31
0.0
  0
LINE
  8
LY_1
  6
CENTER
 62
     7
  5
139
 10
50.247909
 20
29.01187
 30
0.0
 11
62.636271
 21
36.164293
 31
0.0
  0
LINE
  8
LY_1
  6
CONTINUOUS
 62
   251
  5
13A
 10
10.426752
 20
54.011268
 30
0.0
 11
8.365199
 21
65.500968
 31
0.0
  0
LINE
  8
LY_1
  6
CONTINUOUS
 62
   251
  5
13B
 10
-10.429588
 20
54.011659
 30
0.0
 11
-8.368015
 21
65.501468
 31
0.0
  0
LINE
  8
LY_1
  6
CONTINUOUS
 62
   251
  5
13C
 10
51.987177
 20
17.977433
 30
0.0
 11
60.906819
 21
25.507674
 31
0.0
  0
LINE
  8
LY_1
  6
CONTINUOUS
 62
   251
  5
13D
 10
41.560121
 20
36.03952
 30
0.0
 11
52.541301
 21
39.999021
 31
0.0
  0
LINE
  8
LY_1
  6
CONTINUOUS
 62
   251
  5
13E
 10
47.5
 20
-90.000019
 30
0.0
 11
87.5
 21
-90.000019
 31
0.0
  0
LINE
  8
LY_1
  6
CONTINUOUS
 62
   251
  5
13F
 10
47.5
 20
-74.000022
 30
0.0
 11
87.5
 21
-74.000022
 31
0.0
  0
LINE
  8
LY_1
  6
CONTINUOUS
 62
   251
  5
140
 10
47.5
 20
-74.000022
 30
0.0
 11
47.5
 21
-90.000019
 31
0.0
  0
LINE
  8
LY_1
  6
CONTINUOUS
 62
   251
  5
141
 10
-47.5
 20
-74.000022
 30
0.0
 11
-47.5
 21
-90.000019
 31
0.0
  0
LINE
  8
LY_1
  6
CONTINUOUS
 62
   251
  5
142
 10
-47.5
 20
-87.000014
 30
0.0
 11
47.5
 21
-87.000014
 31
0.0
  0
LINE
  8
LY_1
  6
CONTINUOUS
 62
   251
  5
143
 10
-87.5
 20
-74.000022
 30
0.0
 11
-47.5
 21
-74.000022
 31
0.0
  0
LINE
  8
LY_1
  6
CONTINUOUS
 62
   251
  5
144
 10
87.5
 20
-74.000022
 30
0.0
 11
87.5
 21
-90.000019
 31
0.0
  0
LINE
  8
LY_1
  6
CONTINUOUS
 62
   251
  5
145
 10
-87.5
 20
-74.000022
 30
0.0
 11
-87.5
 21
-90.000019
 31
0.0
  0
LINE
  8
LY_1
  6
CONTINUOUS
 62
   251
  5
146
 10
-87.5
 20
-90.000019
 30
0.0
 11
-47.5
 21
-90.000019
 31
0.0
  0
LINE
  8
LY_1
  6
CONTINUOUS
 62
   251
  5
147
 10
297.502181
 20
-74.000022
 30
0.0
 11
319.999994
 21
-74.000022
 31
0.0
  0
LINE
  8
LY_1
  6
CONTINUOUS
 62
   251
  5
148
 10
244.999981
 20
15.886016
 30
0.0
 11
244.999981
 21
5.0
 31
0.0
  0
LINE
  8
LY_1
  6
DASHED
 62
     7
  5
149
 10
298.999983
 20
-74.000022
 30
0.0
 11
298.999983
 21
-90.000019
 31
0.0
  0
LINE
  8
LY_1
  6
DASHED
 62
     7
  5
14A
 10
310.999978
 20
-74.000022
 30
0.0
 11
310.999978
 21
-90.000019
 31
0.0
  0
LINE
  8
LY_1
  6
DASHED
 62
     7
  5
14B
 10
208.999983
 20
-74.000022
 30
0.0
 11
208.999983
 21
-90.000019
 31
0.0
  0
LINE
  8
LY_1
  6
DASHED
 62
     7
  5
14C
 10
220.999978
 20
-74.000022
 30
0.0
 11
220.999978
 21
-90.000019
 31
0.0
  0
LINE
  8
LY_1
  6
CONTINUOUS
 62
   251
  5
14D
 10
179.999981
 20
15.0
 30
0.0
 11
183.999983
 21
15.0
 31
0.0
  0
LINE
  8
LY_1
  6
CONTINUOUS
 62
   251
  5
14E
 10
179.999981
 20
-15.0
 30
0.0
 11
183.999983
 21
-15.0
 31
0.0
  0
LINE
  8
LY_1
  6
CONTINUOUS
 62
   251
  5
14F
 10
179.999981
 20
15.0
 30
0.0
 11
179.999981
 21
-15.0
 31
0.0
  0
LINE
  8
LY_1
  6
CONTINUOUS
 62
   251
  5
150
 10
150.0
 20
-11.000001
 30
0.0
 11
179.999981
 21
-11.000001
 31
0.0
  0
LINE
  8
LY_1
  6
CONTINUOUS
 62
   251
  5
151
 10
150.0
 20
10.999999
 30
0.0
 11
179.999981
 21
10.999999
 31
0.0
  0
LINE
  8
LY_1
  6
CONTINUOUS
 62
   251
  5
152
 10
150.0
 20
10.999999
 30
0.0
 11
150.0
 21
-11.000001
 31
0.0
  0
LINE
  8
LY_1
  6
CONTINUOUS
 62
   251
  5
153
 10
211.193038
 20
-7.959291
 30
0.0
 11
223.74159
 21
-9.434148
 31
0.0
  0
LINE
  8
LY_1
  6
CONTINUOUS
 62
   251
  5
154
 10
223.741722
 20
9.432855
 30
0.0
 11
211.067513
 21
7.945319
 31
0.0
  0
LINE
  8
LY_1
  6
CONTINUOUS
 62
   251
  5
155
 10
190.999978
 20
35.999999
 30
0.0
 11
190.999978
 21
-36.000017
 31
0.0
  0
LINE
  8
LY_1
  6
CONTINUOUS
 62
   251
  5
156
 10
204.483458
 20
34.354707
 30
0.0
 11
227.000123
 21
46.919756
 31
0.0
  0
LINE
  8
LY_1
  6
CENTER
 62
     7
  5
157
 10
304.999994
 20
-69.927858
 30
0.0
 11
304.999994
 21
-93.293463
 31
0.0
  0
LINE
  8
LY_1
  6
CENTER
 62
     7
  5
158
 10
214.999981
 20
-69.927858
 30
0.0
 11
214.999981
 21
-93.293463
 31
0.0
  0
LINE
  8
LY_1
  6
CONTINUOUS
 62
   251
  5
159
 10
271.145513
 20
-9.999988
 30
0.0
 11
285.911076
 21
-65.105815
 31
0.0
  0
LINE
  8
LY_1
  6
CONTINUOUS
 62
   251
  5
15A
 10
241.999976
 20
15.886016
 30
0.0
 11
244.999981
 21
15.886016
 31
0.0
  0
LINE
  8
LY_1
  6
CONTINUOUS
 62
   251
  5
15B
 10
266.999976
 20
-10.0
 30
0.0
 11
271.145484
 21
-10.0
 31
0.0
  0
LINE
  8
LY_1
  6
CONTINUOUS
 62
   251
  5
15C
 10
231.798655
 20
-69.868233
 30
0.0
 11
244.99995
 21
5.000012
 31
0.0
  0
LINE
  8
LY_1
  6
CONTINUOUS
 62
   251
  5
15D
 10
244.999981
 20
5.0
 30
0.0
 11
251.999976
 21
5.0
 31
0.0
  0
LINE
  8
LY_1
  6
CONTINUOUS
 62
   251
  5
15E
 10
214.483488
 20
-24.003246
 30
0.0
 11
227.000152
 21
-35.329052
 31
0.0
  0
LINE
  8
LY_1
  6
CONTINUOUS
 62
   251
  5
15F
 10
226.999976
 20
-35.329208
 30
0.0
 11
237.888838
 21
-35.329208
 31
0.0
  0
LINE
  8
LY_1
  6
CONTINUOUS
 62
   251
  5
160
 10
202.999986
 20
-24.003385
 30
0.0
 11
214.483318
 21
-24.003385
 31
0.0
  0
LINE
  8
LY_1
  6
DASHED
 62
     7
  5
161
 10
202.999986
 20
-42.5
 30
0.0
 11
224.799379
 21
-42.5
 31
0.0
  0
LINE
  8
LY_1
  6
CONTINUOUS
 62
   251
  5
162
 10
226.999957
 20
-14.12511
 30
0.0
 11
204.483349
 21
-10.758312
 31
0.0
  0
LINE
  8
LY_1
  6
CONTINUOUS
 62
   251
  5
163
 10
227.000058
 20
14.124735
 30
0.0
 11
204.483412
 21
10.757931
 31
0.0
  0
LINE
  8
LY_1
  6
CONTINUOUS
 62
   251
  5
164
 10
204.483315
 20
24.373074
 30
0.0
 11
227.000012
 21
33.571346
 31
0.0
  0
LINE
  8
LY_1
  6
CONTINUOUS
 62
   251
  5
165
 10
226.999976
 20
52.0
 30
0.0
 11
226.999976
 21
-35.329208
 31
0.0
  0
LINE
  8
LY_1
  6
CONTINUOUS
 62
   251
  5
166
 10
226.999976
 20
52.0
 30
0.0
 11
241.999976
 21
52.0
 31
0.0
  0
LINE
  8
LY_1
  6
CONTINUOUS
 62
   251
  5
167
 10
241.999976
 20
72.5
 30
0.0
 11
251.999976
 21
72.5
 31
0.0
  0
LINE
  8
LY_1
  6
CONTINUOUS
 62
   251
  5
168
 10
241.999976
 20
72.5
 30
0.0
 11
241.999976
 21
15.886016
 31
0.0
  0
LINE
  8
LY_1
  6
CONTINUOUS
 62
   251
  5
169
 10
184.00004
 20
-25.49997
 30
0.0
 11
191.000058
 21
-29.541431
 31
0.0
  0
LINE
  8
LY_1
  6
CONTINUOUS
 62
   251
  5
16A
 10
183.999952
 20
25.500092
 30
0.0
 11
190.999964
 21
29.541551
 31
0.0
  0
LINE
  8
LY_1
  6
CONTINUOUS
 62
   251
  5
16B
 10
183.999983
 20
25.5
 30
0.0
 11
183.999983
 21
-25.499999
 31
0.0
  0
LINE
  8
LY_1
  6
CONTINUOUS
 62
   251
  5
16C
 10
190.999978
 20
35.999999
 30
0.0
 11
207.431227
 21
35.999999
 31
0.0
  0
LINE
  8
LY_1
  6
CONTINUOUS
 62
   251
  5
16D
 10
190.999978
 20
-36.000017
 30
0.0
 11
202.999986
 21
-36.000017
 31
0.0
  0
LINE
  8
LY_1
  6
CONTINUOUS
 62
   251
  5
16E
 10
202.999986
 20
-29.003385
 30
0.0
 11
202.999986
 21
-74.000022
 31
0.0
  0
LINE
  8
LY_1
  6
CONTINUOUS
 62
   251
  5
16F
 10
199.999981
 20
-74.000022
 30
0.0
 11
226.874676
 21
-74.000022
 31
0.0
  0
LINE
  8
LY_1
  6
CONTINUOUS
 62
   251
  5
170
 10
199.999981
 20
-90.000019
 30
0.0
 11
319.999994
 21
-90.000019
 31
0.0
  0
LINE
  8
LY_1
  6
CONTINUOUS
 62
   251
  5
171
 10
319.999994
 20
-74.000022
 30
0.0
 11
319.999994
 21
-90.000019
 31
0.0
  0
LINE
  8
LY_1
  6
CONTINUOUS
 62
   251
  5
172
 10
199.999981
 20
-74.000022
 30
0.0
 11
199.999981
 21
-90.000019
 31
0.0
  0
LINE
  8
LY_1
  6
CONTINUOUS
 62
   251
  5
173
 10
251.999976
 20
73.500001
 30
0.0
 11
251.999976
 21
5.0
 31
0.0
  0
LINE
  8
LY_1
  6
CENTER
 62
     7
  5
174
 10
531.978732
 20
0.0
 30
0.0
 11
135.0
 21
0.0
 31
0.0
  0
LINE
  8
LY_1
  6
CONTINUOUS
 62
   251
  5
175
 10
289.499989
 20
72.5
 30
0.0
 11
289.499989
 21
-70.942319
 31
0.0
  0
LINE
  8
LY_1
  6
CONTINUOUS
 62
   251
  5
176
 10
274.499989
 20
73.500001
 30
0.0
 11
274.499989
 21
-22.519073
 31
0.0
  0
LINE
  8
LY_1
  6
CONTINUOUS
 62
   251
  5
177
 10
251.999976
 20
73.500001
 30
0.0
 11
274.499989
 21
73.500001
 31
0.0
  0
ENDSEC
  0
EOF
