  0
SECTION
  2
HEADER
  9
$ACADVER
  1
AC1009
  9
$DWGCODEPAGE
  3
dos932
  9
$INSBASE
 10
0.0
 20
0.0
 30
0.0
  9
$EXTMIN
 10
-229.612222
 20
-231.666768
 30
0.0
  9
$EXTMAX
 10
1301.981522
 20
247.333349
 30
0.0
  9
$LIMMIN
 10
-229.612222
 20
-231.666768
  9
$LIMMAX
 10
1301.981522
 20
247.333349
  9
$ORTHOMODE
 70
     0
  9
$REGENMODE
 70
     1
  9
$FILLMODE
 70
     1
  9
$QTEXTMODE
 70
     0
  9
$MIRRTEXT
 70
     1
  9
$DRAGMODE
 70
     2
  9
$LTSCALE
 40
1.0
  9
$OSMODE
 70
     0
  9
$ATTMODE
 70
     1
  9
$TEXTSIZE
 40
3.15
  9
$TRACEWID
 40
0.05
  9
$TEXTSTYLE
  7
MX_NOTE_STANDARD
  9
$CLAYER
  8
LY_1
  9
$CELTYPE
  6
CONTINUOUS
  9
$CECOLOR
 62
   256
  9
$DIMSCALE
 40
1.0
  9
$DIMASZ
 40
2.5
  9
$DIMEXO
 40
1.0
  9
$DIMDLI
 40
3.75
  9
$DIMRND
 40
0.0
  9
$DIMDLE
 40
0.0
  9
$DIMEXE
 40
1.5
  9
$DIMTP
 40
0.0
  9
$DIMTM
 40
0.0
  9
$DIMTXT
 40
3.15
  9
$DIMCEN
 40
2.5
  9
$DIMTSZ
 40
0.0
  9
$DIMTOL
 70
     0
  9
$DIMLIM
 70
     0
  9
$DIMTIH
 70
     0
  9
$DIMTOH
 70
     0
  9
$DIMSE1
 70
     0
  9
$DIMSE2
 70
     0
  9
$DIMTAD
 70
     1
  9
$DIMZIN
 70
     8
  9
$DIMBLK
  1

  9
$DIMASO
 70
     1
  9
$DIMSHO
 70
     1
  9
$DIMPOST
  1

  9
$DIMAPOST
  1

  9
$DIMALT
 70
     0
  9
$DIMALTD
 70
     4
  9
$DIMALTF
 40
0.03937
  9
$DIMLFAC
 40
1.0
  9
$DIMTOFL
 70
     1
  9
$DIMTVP
 40
0.0
  9
$DIMTIX
 70
     0
  9
$DIMSOXD
 70
     0
  9
$DIMSAH
 70
     0
  9
$DIMBLK1
  1

  9
$DIMBLK2
  1

  9
$DIMSTYLE
  2
MXDIMSTYLE
  9
$DIMCLRD
 70
     0
  9
$DIMCLRE
 70
     0
  9
$DIMCLRT
 70
     0
  9
$DIMTFAC
 40
1.0
  9
$DIMGAP
 40
1.0
  9
$LUNITS
 70
     2
  9
$LUPREC
 70
     4
  9
$AXISMODE
 70
     0
  9
$AXISUNIT
 10
0.0
 20
0.0
  9
$SKETCHINC
 40
0.1
  9
$FILLETRAD
 40
0.0
  9
$AUNITS
 70
     0
  9
$AUPREC
 70
     0
  9
$MENU
  1
acad
  9
$ELEVATION
 40
0.0
  9
$PELEVATION
 40
0.0
  9
$THICKNESS
 40
0.0
  9
$LIMCHECK
 70
     0
  9
$BLIPMODE
 70
     1
  9
$CHAMFERA
 40
0.0
  9
$CHAMFERB
 40
0.0
  9
$SKPOLY
 70
     0
  9
$TDCREATE
 40
2453665.670127315
  9
$TDUPDATE
 40
2453665.670127315
  9
$TDINDWG
 40
0.0000000000
  9
$TDUSRTIMER
 40
0.0000000000
  9
$USRTIMER
 70
     1
  9
$ANGBASE
 50
0.0
  9
$ANGDIR
 70
     0
  9
$PDMODE
 70
     0
  9
$PDSIZE
 40
0.0
  9
$PLINEWID
 40
0.0
  9
$COORDS
 70
     1
  9
$SPLFRAME
 70
     0
  9
$SPLINETYPE
 70
     6
  9
$SPLINESEGS
 70
     8
  9
$ATTDIA
 70
     0
  9
$ATTREQ
 70
     1
  9
$HANDLING
 70
     1
  9
$HANDSEED
  5
156
  9
$SURFTAB1
 70
     6
  9
$SURFTAB2
 70
     6
  9
$SURFTYPE
 70
     6
  9
$SURFU
 70
     6
  9
$SURFV
 70
     6
  9
$UCSNAME
  2

  9
$UCSORG
 10
0.0
 20
0.0
 30
0.0
  9
$UCSXDIR
 10
1.0
 20
0.0
 30
0.0
  9
$UCSYDIR
 10
0.0
 20
1.0
 30
0.0
  9
$PUCSNAME
  2

  9
$PUCSORG
 10
0.0
 20
0.0
 30
0.0
  9
$PUCSXDIR
 10
1.0
 20
0.0
 30
0.0
  9
$PUCSYDIR
 10
0.0
 20
1.0
 30
0.0
  9
$USERI1
 70
     0
  9
$USERI2
 70
     0
  9
$USERI3
 70
     0
  9
$USERI4
 70
     0
  9
$USERI5
 70
     0
  9
$USERR1
 40
0.0
  9
$USERR2
 40
0.0
  9
$USERR3
 40
0.0
  9
$USERR4
 40
0.0
  9
$USERR5
 40
0.0
  9
$WORLDVIEW
 70
     1
  9
$SHADEDGE
 70
     3
  9
$SHADEDIF
 70
    70
  9
$TILEMODE
 70
     1
  9
$MAXACTVP
 70
    16
  9
$PINSBASE
 10
0.0
 20
0.0
 30
0.0
  9
$PLIMCHECK
 70
     0
  9
$PEXTMIN
 10
1.000000E+20
 20
1.000000E+20
 30
1.000000E+20
  9
$PEXTMAX
 10
-1.000000E+20
 20
-1.000000E+20
 30
-1.000000E+20
  9
$PLIMMIN
 10
0.0
 20
0.0
  9
$PLIMMAX
 10
12.0
 20
9.0
  9
$UNITMODE
 70
     0
  9
$VISRETAIN
 70
     0
  9
$PLINEGEN
 70
     1
  9
$PSLTSCALE
 70
     0
  9
$TREEDEPTH
 70
  3020
  9
$DWGCODEPAGE
  3
dos932
  0
ENDSEC
  0
SECTION
  2
TABLES
  0
TABLE
  2
VPORT
 70
     1
  0
VPORT
  2
*ACTIVE
 70
     0
 10
0.0
 20
0.0
 11
1.0
 21
1.0
 12
536.18465
 22
7.83329
 13
0.0
 23
0.0
 14
1.0
 24
1.0
 15
0.0
 25
0.0
 16
0.0
 26
0.0
 36
1.0
 17
0.0
 27
0.0
 37
0.0
 40
483.790118
 41
1.732051
 42
50.0
 43
0.0
 44
0.0
 50
0.0
 51
0.0
 71
     0
 72
   100
 73
     1
 74
     1
 75
     0
 76
     0
 77
     0
 78
     0
  0
ENDTAB
  0
TABLE
  2
LTYPE
 70
     3
  0
LTYPE
  2
CONTINUOUS
 70
    64
  3
Solid line
 72
    65
 73
     0
 40
0.0
  0
LTYPE
  2
CENTER
 70
    64
  3
Center ____ _ ____ _ ____ _ ____ _ ____ _ ____
 72
    65
 73
     4
 40
50.8
 49
31.75
 49
-6.35
 49
6.35
 49
-6.35
  0
LTYPE
  2
DASHED
 70
    64
  3
Dashed __ __ __ __ __ __ __ __ __ __ __ __ __ _
 72
    65
 73
     2
 40
19.05
 49
12.7
 49
-6.35
  0
ENDTAB
  0
TABLE
  2
LAYER
 70
     3
  0
LAYER
  2
0
 70
     0
 62
     7
  6
CONTINUOUS
  0
LAYER
  2
LY_1
 70
     0
 62
     7
  6
CONTINUOUS
  0
LAYER
  2
DEFPOINTS
 70
     0
 62
     7
  6
CONTINUOUS
  0
ENDTAB
  0
TABLE
  2
STYLE
 70
     1
  0
STYLE
  2
MX_NOTE_STANDARD
 70
     0
 40
0.0
 41
1.0
 50
0.0
 71
     0
 42
3.15
  3
txt.shx
  4
extfont.shx
  0
ENDTAB
  0
TABLE
  2
VIEW
 70
     0
  0
ENDTAB
  0
TABLE
  2
UCS
 70
     0
  0
ENDTAB
  0
TABLE
  2
APPID
 70
     1
  0
APPID
  2
ACAD
 70
     0
  0
ENDTAB
  0
TABLE
  2
DIMSTYLE
 70
     1
  0
DIMSTYLE
  2
MXDIMSTYLE
 70
     0
  3

  4

  5

  6

  7

 40
1.0
 41
2.5
 42
1.0
 43
3.75
 44
1.5
 45
0.0
 46
0.0
 47
0.0
 48
0.0
 71
     0
 72
     0
 73
     0
 74
     0
 75
     0
 76
     0
 77
     1
 78
     8
140
3.15
141
2.5
142
0.0
143
0.03937
144
1.0
145
0.0
146
1.0
147
1.0
170
     0
171
     4
172
     1
173
     0
174
     0
175
     0
176
     0
177
     0
178
     0
  0
ENDTAB
  0
ENDSEC
  0
SECTION
  2
BLOCKS
  0
ENDSEC
  0
SECTION
  2
ENTITIES
  0
LINE
  8
LY_1
  6
CONTINUOUS
 62
   251
  5
1F
 10
1105.499906
 20
88.999997
 30
0.0
 11
1105.499906
 21
88.043637
 31
0.0
  0
LINE
  8
LY_1
  6
CONTINUOUS
 62
   251
  5
20
 10
1127.499906
 20
150.0
 30
0.0
 11
1126.499906
 21
149.0
 31
0.0
  0
LINE
  8
LY_1
  6
CONTINUOUS
 62
   251
  5
21
 10
1175.499907
 20
150.0
 30
0.0
 11
1176.499907
 21
149.0
 31
0.0
  0
LINE
  8
LY_1
  6
CONTINUOUS
 62
   251
  5
22
 10
1175.499907
 20
150.0
 30
0.0
 11
1127.499906
 21
150.0
 31
0.0
  0
LINE
  8
LY_1
  6
CONTINUOUS
 62
   251
  5
23
 10
1179.949907
 20
125.850001
 30
0.0
 11
1179.949907
 21
122.000001
 31
0.0
  0
LINE
  8
LY_1
  6
CONTINUOUS
 62
   251
  5
24
 10
1176.499907
 20
149.0
 30
0.0
 11
1176.499907
 21
125.850001
 31
0.0
  0
LINE
  8
LY_1
  6
CONTINUOUS
 62
   251
  5
25
 10
1180.499907
 20
122.000001
 30
0.0
 11
1112.623298
 21
122.000001
 31
0.0
  0
LINE
  8
LY_1
  6
CONTINUOUS
 62
   251
  5
26
 10
1123.049906
 20
125.850001
 30
0.0
 11
1123.049906
 21
122.000001
 31
0.0
  0
LINE
  8
LY_1
  6
CONTINUOUS
 62
   251
  5
27
 10
1179.949907
 20
125.850001
 30
0.0
 11
1125.389906
 21
125.850001
 31
0.0
  0
LINE
  8
LY_1
  6
CONTINUOUS
 62
   251
  5
28
 10
1180.049906
 20
125.850001
 30
0.0
 11
1124.269906
 21
125.850001
 31
0.0
  0
LINE
  8
LY_1
  6
CONTINUOUS
 62
   251
  5
29
 10
1126.499906
 20
149.0
 30
0.0
 11
1126.499906
 21
125.850001
 31
0.0
  0
LINE
  8
LY_1
  6
CONTINUOUS
 62
   251
  5
2A
 10
1180.049906
 20
125.850001
 30
0.0
 11
1123.049906
 21
125.850001
 31
0.0
  0
LINE
  8
LY_1
  6
CENTER
 62
     7
  5
2C
 10
1151.499907
 20
154.92
 30
0.0
 11
1151.499907
 21
84.999997
 31
0.0
  0
LINE
  8
LY_1
  6
CONTINUOUS
 62
   251
  5
2D
 10
1180.499907
 20
122.000001
 30
0.0
 11
1180.499907
 21
87.999997
 31
0.0
  0
LINE
  8
LY_1
  6
CENTER
 62
     7
  5
2E
 10
1211.999891
 20
121.549861
 30
0.0
 11
1211.999891
 21
87.999997
 31
0.0
  0
LINE
  8
LY_1
  6
CONTINUOUS
 62
   251
  5
2F
 10
1219.938089
 20
115.331291
 30
0.0
 11
1219.300089
 21
115.699631
 31
0.0
  0
LINE
  8
LY_1
  6
CONTINUOUS
 62
   251
  5
30
 10
1198.499891
 20
100.000001
 30
0.0
 11
1198.499891
 21
87.999997
 31
0.0
  0
LINE
  8
LY_1
  6
CONTINUOUS
 62
   251
  5
31
 10
1219.300089
 20
115.699631
 30
0.0
 11
1204.700087
 21
115.699631
 31
0.0
  0
LINE
  8
LY_1
  6
CONTINUOUS
 62
   251
  5
32
 10
1204.062086
 20
115.331291
 30
0.0
 11
1204.700087
 21
115.699631
 31
0.0
  0
LINE
  8
LY_1
  6
CONTINUOUS
 62
   251
  5
33
 10
1204.062086
 20
115.331291
 30
0.0
 11
1204.062086
 21
102.199631
 31
0.0
  0
LINE
  8
LY_1
  6
CONTINUOUS
 62
   251
  5
34
 10
1199.300085
 20
102.199631
 30
0.0
 11
1199.300085
 21
100.000001
 31
0.0
  0
LINE
  8
LY_1
  6
CONTINUOUS
 62
   251
  5
35
 10
1225.499889
 20
100.000001
 30
0.0
 11
1225.499889
 21
87.999997
 31
0.0
  0
LINE
  8
LY_1
  6
CONTINUOUS
 62
   251
  5
36
 10
1225.499889
 20
100.000001
 30
0.0
 11
1198.499891
 21
100.000001
 31
0.0
  0
LINE
  8
LY_1
  6
CONTINUOUS
 62
   251
  5
37
 10
1219.938089
 20
115.331291
 30
0.0
 11
1219.938089
 21
102.199631
 31
0.0
  0
LINE
  8
LY_1
  6
CONTINUOUS
 62
   251
  5
38
 10
1224.700089
 20
102.199631
 30
0.0
 11
1224.700089
 21
100.000001
 31
0.0
  0
LINE
  8
LY_1
  6
CONTINUOUS
 62
   251
  5
39
 10
1224.700089
 20
102.199631
 30
0.0
 11
1199.300085
 21
102.199631
 31
0.0
  0
LINE
  8
LY_1
  6
CONTINUOUS
 62
   251
  5
3A
 10
1246.699889
 20
80.100003
 30
0.0
 11
1247.699889
 21
81.100003
 31
0.0
  0
LINE
  8
LY_1
  6
CONTINUOUS
 62
   251
  5
3B
 10
1276.299899
 20
80.100003
 30
0.0
 11
1275.299899
 21
81.100003
 31
0.0
  0
LINE
  8
LY_1
  6
CONTINUOUS
 62
   251
  5
3C
 10
1275.299899
 20
81.100003
 30
0.0
 11
1247.699889
 21
81.100003
 31
0.0
  0
LINE
  8
LY_1
  6
CONTINUOUS
 62
   251
  5
3D
 10
1242.449889
 20
61.8
 30
0.0
 11
1242.449889
 21
58.000001
 31
0.0
  0
LINE
  8
LY_1
  6
CONTINUOUS
 62
   251
  5
3E
 10
1239.499889
 20
87.999997
 30
0.0
 11
1239.499889
 21
-88.000003
 31
0.0
  0
LINE
  8
LY_1
  6
CONTINUOUS
 62
   251
  5
3F
 10
1241.999889
 20
58.000001
 30
0.0
 11
1241.999889
 21
42.500001
 31
0.0
  0
LINE
  8
LY_1
  6
CONTINUOUS
 62
   251
  5
40
 10
1254.499889
 20
27.50347
 30
0.0
 11
1239.499889
 21
27.50347
 31
0.0
  0
LINE
  8
LY_1
  6
CONTINUOUS
 62
   251
  5
41
 10
1279.499889
 20
34.347386
 30
0.0
 11
1254.499889
 21
34.347386
 31
0.0
  0
LINE
  8
LY_1
  6
CONTINUOUS
 62
   251
  5
42
 10
1280.999889
 20
33.484971
 30
0.0
 11
1279.499889
 21
34.347386
 31
0.0
  0
LINE
  8
LY_1
  6
CENTER
 62
     7
  5
43
 10
1261.499889
 20
87.842755
 30
0.0
 11
1261.499889
 21
54.54081
 31
0.0
  0
LINE
  8
LY_1
  6
CONTINUOUS
 62
   251
  5
44
 10
1254.499889
 20
42.500001
 30
0.0
 11
1248.499889
 21
42.500001
 31
0.0
  0
LINE
  8
LY_1
  6
CONTINUOUS
 62
   251
  5
45
 10
1276.299899
 20
80.100003
 30
0.0
 11
1276.299899
 21
61.8
 31
0.0
  0
LINE
  8
LY_1
  6
CONTINUOUS
 62
   251
  5
46
 10
1280.549899
 20
61.8
 30
0.0
 11
1242.449889
 21
61.8
 31
0.0
  0
LINE
  8
LY_1
  6
CONTINUOUS
 62
   251
  5
47
 10
1280.549899
 20
61.8
 30
0.0
 11
1280.549899
 21
58.000001
 31
0.0
  0
LINE
  8
LY_1
  6
CONTINUOUS
 62
   251
  5
48
 10
1280.999889
 20
58.000001
 30
0.0
 11
1241.999889
 21
58.000001
 31
0.0
  0
LINE
  8
LY_1
  6
CONTINUOUS
 62
   251
  5
49
 10
1248.499889
 20
42.500001
 30
0.0
 11
1239.499889
 21
42.500001
 31
0.0
  0
LINE
  8
LY_1
  6
CONTINUOUS
 62
   251
  5
4A
 10
1246.699889
 20
80.100003
 30
0.0
 11
1246.699889
 21
61.8
 31
0.0
  0
LINE
  8
LY_1
  6
CONTINUOUS
 62
   251
  5
4B
 10
1192.499891
 20
87.999997
 30
0.0
 11
1192.499891
 21
-88.000003
 31
0.0
  0
LINE
  8
LY_1
  6
CONTINUOUS
 62
   251
  5
4C
 10
1254.499889
 20
-42.499999
 30
0.0
 11
1239.499889
 21
-42.499999
 31
0.0
  0
LINE
  8
LY_1
  6
CONTINUOUS
 62
   251
  5
4D
 10
1254.499889
 20
-27.503673
 30
0.0
 11
1239.499889
 21
-27.503673
 31
0.0
  0
LINE
  8
LY_1
  6
CONTINUOUS
 62
   251
  5
4E
 10
1278.855769
 20
-39.184283
 30
0.0
 11
1254.499889
 21
-40.034808
 31
0.0
  0
LINE
  8
LY_1
  6
CONTINUOUS
 62
   251
  5
4F
 10
1254.499889
 20
42.500001
 30
0.0
 11
1254.499889
 21
-42.499999
 31
0.0
  0
LINE
  8
LY_1
  6
CONTINUOUS
 62
   251
  5
50
 10
1280.999889
 20
58.000001
 30
0.0
 11
1280.999889
 21
-29.999999
 31
0.0
  0
LINE
  8
LY_1
  6
CONTINUOUS
 62
   251
  5
51
 10
958.999889
 20
-58.000102
 30
0.0
 11
1239.499889
 21
-58.000102
 31
0.0
  0
LINE
  8
LY_1
  6
CONTINUOUS
 62
   251
  5
52
 10
958.999889
 20
57.999898
 30
0.0
 11
1239.499889
 21
57.999898
 31
0.0
  0
LINE
  8
LY_1
  6
CONTINUOUS
 62
   251
  5
53
 10
1181.999891
 20
-41.999999
 30
0.0
 11
1032.999891
 21
-41.999999
 31
0.0
  0
LINE
  8
LY_1
  6
CONTINUOUS
 62
   251
  5
54
 10
1181.999891
 20
42.000001
 30
0.0
 11
1032.999891
 21
42.000001
 31
0.0
  0
LINE
  8
LY_1
  6
CONTINUOUS
 62
   251
  5
55
 10
1181.999891
 20
45.000001
 30
0.0
 11
1032.999891
 21
45.000001
 31
0.0
  0
LINE
  8
LY_1
  6
CONTINUOUS
 62
   251
  5
56
 10
1181.999891
 20
48.000001
 30
0.0
 11
1032.999891
 21
48.000001
 31
0.0
  0
LINE
  8
LY_1
  6
CONTINUOUS
 62
   251
  5
57
 10
1181.999891
 20
51.000001
 30
0.0
 11
1032.999891
 21
51.000001
 31
0.0
  0
LINE
  8
LY_1
  6
CONTINUOUS
 62
   251
  5
58
 10
1181.999891
 20
-44.999999
 30
0.0
 11
1032.999891
 21
-44.999999
 31
0.0
  0
LINE
  8
LY_1
  6
CONTINUOUS
 62
   251
  5
59
 10
1181.999891
 20
-47.999999
 30
0.0
 11
1032.999891
 21
-47.999999
 31
0.0
  0
LINE
  8
LY_1
  6
CONTINUOUS
 62
   251
  5
5A
 10
1181.999891
 20
-50.999999
 30
0.0
 11
1032.999891
 21
-50.999999
 31
0.0
  0
LINE
  8
LY_1
  6
CONTINUOUS
 62
   251
  5
5B
 10
958.999889
 20
87.999997
 30
0.0
 11
958.999889
 21
-88.000003
 31
0.0
  0
LINE
  8
LY_1
  6
CONTINUOUS
 62
   251
  5
5C
 10
960.999889
 20
87.999997
 30
0.0
 11
960.999889
 21
-88.000003
 31
0.0
  0
LINE
  8
LY_1
  6
CONTINUOUS
 62
   251
  5
5D
 10
1181.999891
 20
87.999997
 30
0.0
 11
1181.999891
 21
-88.000003
 31
0.0
  0
LINE
  8
LY_1
  6
CONTINUOUS
 62
   251
  5
5E
 10
1032.999891
 20
-50.999999
 30
0.0
 11
960.999889
 21
-50.999999
 31
0.0
  0
LINE
  8
LY_1
  6
CONTINUOUS
 62
   251
  5
5F
 10
1032.999891
 20
-47.999999
 30
0.0
 11
960.999889
 21
-47.999999
 31
0.0
  0
LINE
  8
LY_1
  6
CONTINUOUS
 62
   251
  5
60
 10
1032.999891
 20
-44.999999
 30
0.0
 11
960.999889
 21
-44.999999
 31
0.0
  0
LINE
  8
LY_1
  6
CONTINUOUS
 62
   251
  5
61
 10
1032.999891
 20
-41.999999
 30
0.0
 11
960.999889
 21
-41.999999
 31
0.0
  0
LINE
  8
LY_1
  6
CONTINUOUS
 62
   251
  5
62
 10
1032.999891
 20
42.000001
 30
0.0
 11
960.999889
 21
42.000001
 31
0.0
  0
LINE
  8
LY_1
  6
CONTINUOUS
 62
   251
  5
63
 10
1032.999891
 20
45.000001
 30
0.0
 11
960.999889
 21
45.000001
 31
0.0
  0
LINE
  8
LY_1
  6
CONTINUOUS
 62
   251
  5
64
 10
1032.999891
 20
48.000001
 30
0.0
 11
960.999889
 21
48.000001
 31
0.0
  0
LINE
  8
LY_1
  6
CONTINUOUS
 62
   251
  5
65
 10
1032.999891
 20
51.000001
 30
0.0
 11
960.999889
 21
51.000001
 31
0.0
  0
ARC
  8
LY_1
  6
CONTINUOUS
 62
   251
  5
66
 10
1185.499907
 20
88.999997
 30
0.0
 40
80.0
 50
155.63802
 51
180.0
  0
ARC
  8
LY_1
  6
CONTINUOUS
 62
   251
  5
67
 10
1278.820879
 20
-38.184894
 30
0.0
 40
1.0
 50
271.999998
 51
343.6062
  0
ARC
  8
LY_1
  6
CONTINUOUS
 62
   251
  5
68
 10
1250.999889
 20
-29.999999
 30
0.0
 40
30.0
 50
343.6062
 51
0.00001
  0
LINE
  8
LY_1
  6
CONTINUOUS
 62
   251
  5
69
 10
940.999889
 20
-88.000003
 30
0.0
 11
1239.499889
 21
-88.000003
 31
0.0
  0
LINE
  8
LY_1
  6
CONTINUOUS
 62
   251
  5
6A
 10
958.999889
 20
73.806004
 30
0.0
 11
940.999889
 21
73.806004
 31
0.0
  0
LINE
  8
LY_1
  6
CONTINUOUS
 62
   251
  5
6B
 10
958.999889
 20
-73.806003
 30
0.0
 11
940.999889
 21
-73.806003
 31
0.0
  0
LINE
  8
LY_1
  6
CONTINUOUS
 62
   251
  5
6C
 10
940.999889
 20
87.999997
 30
0.0
 11
1239.499889
 21
87.999997
 31
0.0
  0
ARC
  8
LY_1
  6
CONTINUOUS
 62
   251
  5
6D
 10
783.99993
 20
176.500011
 30
0.0
 40
1.0
 50
0.0
 51
90.0
  0
ARC
  8
LY_1
  6
CONTINUOUS
 62
   251
  5
6E
 10
752.999971
 20
-147.500023
 30
0.0
 40
1.0
 50
270.0
 51
0.0
  0
ARC
  8
LY_1
  6
CONTINUOUS
 62
   251
  5
6F
 10
840.99993
 20
-149.000013
 30
0.0
 40
1.0
 50
180.0
 51
270.0
  0
ARC
  8
LY_1
  6
CONTINUOUS
 62
   251
  5
70
 10
840.99993
 20
149.000011
 30
0.0
 40
1.0
 50
90.0
 51
180.0
  0
ARC
  8
LY_1
  6
CONTINUOUS
 62
   251
  5
71
 10
758.999971
 20
-125.000013
 30
0.0
 40
5.0
 50
90.000003
 51
180.000005
  0
ARC
  8
LY_1
  6
CONTINUOUS
 62
   251
  5
72
 10
789.99993
 20
125.0
 30
0.0
 40
5.0
 50
179.999991
 51
270.000001
  0
ARC
  8
LY_1
  6
CONTINUOUS
 62
   251
  5
73
 10
834.99993
 20
125.0
 30
0.0
 40
5.0
 50
269.999997
 51
0.0
  0
ARC
  8
LY_1
  6
CONTINUOUS
 62
   251
  5
74
 10
834.99993
 20
-125.000013
 30
0.0
 40
5.0
 50
0.0
 51
90.000003
  0
ARC
  8
LY_1
  6
CONTINUOUS
 62
   251
  5
75
 10
-9.738312
 20
190.599988
 30
0.0
 40
1.4
 50
101.605676
 51
169.999966
  0
ARC
  8
LY_1
  6
CONTINUOUS
 62
   251
  5
76
 10
-6.399994
 20
185.800056
 30
0.0
 40
1.4
 50
269.999963
 51
0.0
  0
ARC
  8
LY_1
  6
CONTINUOUS
 62
   251
  5
77
 10
6.399994
 20
185.800056
 30
0.0
 40
1.4
 50
179.999978
 51
270.000028
  0
ARC
  8
LY_1
  6
CONTINUOUS
 62
   251
  5
78
 10
0.0
 20
229.000015
 30
0.0
 40
5.0
 50
0.0
 51
179.999964
  0
ARC
  8
LY_1
  6
CONTINUOUS
 62
   251
  5
79
 10
9.738312
 20
190.599988
 30
0.0
 40
1.4
 50
9.999995
 51
78.394289
  0
ARC
  8
LY_1
  6
CONTINUOUS
 62
   251
  5
7A
 10
700.406272
 20
184.055799
 30
0.0
 40
6.0
 50
126.423865
 51
189.999962
  0
ARC
  8
LY_1
  6
CONTINUOUS
 62
   251
  5
7B
 10
663.593553
 20
184.055799
 30
0.0
 40
6.0
 50
349.863635
 51
53.576154
  0
ARC
  8
LY_1
  6
CONTINUOUS
 62
   251
  5
7C
 10
691.234773
 20
189.999886
 30
0.0
 40
2.0
 50
9.999995
 51
89.999982
  0
ARC
  8
LY_1
  6
CONTINUOUS
 62
   251
  5
7D
 10
672.765052
 20
189.999886
 30
0.0
 40
2.0
 50
89.999982
 51
170.000021
  0
CIRCLE
  8
LY_1
  6
CONTINUOUS
 62
   251
  5
7E
 10
681.999925
 20
208.999888
 30
0.0
 40
15.0
  0
ARC
  8
LY_1
  6
CONTINUOUS
 62
   251
  5
7F
 10
681.999925
 20
208.999888
 30
0.0
 40
25.000002
 50
306.423846
 51
233.576132
  0
ARC
  8
LY_1
  6
CONTINUOUS
 62
   251
  5
80
 10
0.0
 20
0.0
 30
0.0
 40
180.000013
 50
66.231067
 51
113.768938
  0
ARC
  8
LY_1
  6
CONTINUOUS
 62
   251
  5
81
 10
0.0
 20
0.0
 30
0.0
 40
47.5
 50
15.257531
 51
344.742477
  0
CIRCLE
  8
LY_1
  6
CONTINUOUS
 62
     7
  5
82
 10
0.0
 20
0.0
 30
0.0
 40
8.0
  0
CIRCLE
  8
LY_1
  6
CONTINUOUS
 62
   251
  5
83
 10
0.0
 20
0.0
 30
0.0
 40
7.1
  0
CIRCLE
  8
LY_1
  6
CONTINUOUS
 62
   251
  5
84
 10
577.999935
 20
-105.0
 30
0.0
 40
7.4
  0
CIRCLE
  8
LY_1
  6
CONTINUOUS
 62
   251
  5
85
 10
579.99993
 20
0.0
 30
0.0
 40
8.507551
  0
ARC
  8
LY_1
  6
CONTINUOUS
 62
   251
  5
86
 10
467.500006
 20
0.0
 30
0.0
 40
12.5
 50
269.999997
 51
90.000003
  0
CIRCLE
  8
LY_1
  6
CONTINUOUS
 62
   251
  5
87
 10
0.0
 20
0.0
 30
0.0
 40
132.5
  0
CIRCLE
  8
LY_1
  6
CONTINUOUS
 62
   251
  5
88
 10
0.0
 20
0.0
 30
0.0
 40
90.0
  0
ARC
  8
LY_1
  6
CENTER
 62
     7
  5
89
 10
0.0
 20
0.0
 30
0.0
 40
117.5
 50
236.165569
 51
243.771613
  0
ARC
  8
LY_1
  6
CENTER
 62
     7
  5
8A
 10
0.0
 20
0.0
 30
0.0
 40
117.5
 50
296.165571
 51
303.771612
  0
ARC
  8
LY_1
  6
CENTER
 62
     7
  5
8B
 10
0.0
 20
0.0
 30
0.0
 40
117.5
 50
356.165568
 51
3.771612
  0
ARC
  8
LY_1
  6
CENTER
 62
     7
  5
8C
 10
0.0
 20
0.0
 30
0.0
 40
117.5
 50
56.165568
 51
63.771612
  0
ARC
  8
LY_1
  6
CENTER
 62
     7
  5
8D
 10
0.0
 20
0.0
 30
0.0
 40
117.5
 50
116.165562
 51
123.771606
  0
ARC
  8
LY_1
  6
CENTER
 62
     7
  5
8E
 10
0.0
 20
0.0
 30
0.0
 40
117.5
 50
176.165564
 51
183.771608
  0
ARC
  8
LY_1
  6
CENTER
 62
     7
  5
8F
 10
0.0
 20
0.0
 30
0.0
 40
162.5
 50
64.054675
 51
70.980774
  0
ARC
  8
LY_1
  6
CENTER
 62
     7
  5
90
 10
0.0
 20
0.0
 30
0.0
 40
162.5
 50
334.054678
 51
340.980776
  0
ARC
  8
LY_1
  6
CENTER
 62
     7
  5
91
 10
0.0
 20
0.0
 30
0.0
 40
162.5
 50
289.054682
 51
295.980774
  0
ARC
  8
LY_1
  6
CENTER
 62
     7
  5
92
 10
0.0
 20
0.0
 30
0.0
 40
162.5
 50
244.054684
 51
250.980776
  0
ARC
  8
LY_1
  6
CENTER
 62
     7
  5
93
 10
0.0
 20
0.0
 30
0.0
 40
162.5
 50
199.054679
 51
205.980778
  0
ARC
  8
LY_1
  6
CENTER
 62
     7
  5
94
 10
0.0
 20
0.0
 30
0.0
 40
162.5
 50
154.054685
 51
160.98077
  0
ARC
  8
LY_1
  6
CENTER
 62
     7
  5
95
 10
0.0
 20
0.0
 30
0.0
 40
162.5
 50
109.05468
 51
115.980779
  0
ARC
  8
LY_1
  6
CONTINUOUS
 62
   251
  5
96
 10
32.99998
 20
-182.000097
 30
0.0
 40
3.0
 50
179.999991
 51
270.000001
  0
ARC
  8
LY_1
  6
CONTINUOUS
 62
   251
  5
97
 10
-33.000031
 20
-182.000097
 30
0.0
 40
3.0
 50
269.999997
 51
0.0
  0
ARC
  8
LY_1
  6
CONTINUOUS
 62
   251
  5
98
 10
34.364878
 20
143.440983
 30
0.0
 40
15.0
 50
179.999978
 51
256.527179
  0
ARC
  8
LY_1
  6
CONTINUOUS
 62
   251
  5
99
 10
-34.36498
 20
143.440983
 30
0.0
 40
15.0
 50
283.472771
 51
0.0
  0
ARC
  8
LY_1
  6
CONTINUOUS
 62
   251
  5
9A
 10
-14.36498
 20
172.002144
 30
0.0
 40
5.0
 50
93.969551
 51
179.999964
  0
ARC
  8
LY_1
  6
CONTINUOUS
 62
   251
  5
9B
 10
14.364878
 20
172.002144
 30
0.0
 40
5.0
 50
0.0
 51
86.030467
  0
ARC
  8
LY_1
  6
CENTER
 62
     7
  5
9C
 10
0.0
 20
0.0
 30
0.0
 40
162.5
 50
19.054679
 51
25.980776
  0
ARC
  8
LY_1
  6
CONTINUOUS
 62
   251
  5
9D
 10
-135.0
 20
-59.424311
 30
0.0
 40
15.0
 50
0.0
 51
23.758133
  0
ARC
  8
LY_1
  6
CONTINUOUS
 62
   251
  5
9E
 10
135.000051
 20
-59.424311
 30
0.0
 40
15.0
 50
156.241889
 51
179.999964
  0
ARC
  8
LY_1
  6
CONTINUOUS
 62
   251
  5
9F
 10
-78.437246
 20
-124.915263
 30
0.0
 40
15.0
 50
57.874249
 51
170.000021
  0
ARC
  8
LY_1
  6
CONTINUOUS
 62
   251
  5
A0
 10
78.437246
 20
-124.91539
 30
0.0
 40
15.0
 50
10.000008
 51
122.125736
  0
ARC
  8
LY_1
  6
CONTINUOUS
 62
   251
  5
A1
 10
137.425893
 20
-160.000102
 30
0.0
 40
15.0
 50
189.999966
 51
270.000018
  0
ARC
  8
LY_1
  6
CONTINUOUS
 62
   251
  5
A2
 10
-137.425893
 20
-160.000102
 30
0.0
 40
15.0
 50
270.000018
 51
349.999977
  0
ARC
  8
LY_1
  6
CONTINUOUS
 62
   251
  5
A3
 10
-94.50002
 20
-177.000097
 30
0.0
 40
8.0
 50
179.999978
 51
270.000028
  0
ARC
  8
LY_1
  6
CONTINUOUS
 62
   251
  5
A4
 10
94.499969
 20
-177.000097
 30
0.0
 40
8.0
 50
270.000018
 51
0.0
  0
ARC
  8
LY_1
  6
CONTINUOUS
 62
   251
  5
A5
 10
0.0
 20
-35.0
 30
0.0
 40
212.5
 50
0.0
 51
179.999964
  0
ARC
  8
LY_1
  6
CONTINUOUS
 62
   251
  5
A6
 10
584.99993
 20
149.744577
 30
0.0
 40
15.0
 50
274.999996
 51
0.0
  0
ARC
  8
LY_1
  6
CONTINUOUS
 62
   251
  5
A7
 10
574.99993
 20
143.850528
 30
0.0
 40
10.0
 50
274.999996
 51
0.0
  0
ARC
  8
LY_1
  6
CONTINUOUS
 62
   251
  5
A8
 10
533.636786
 20
-76.062342
 30
0.0
 40
5.0
 50
355.000017
 51
89.999982
  0
ARC
  8
LY_1
  6
CONTINUOUS
 62
   251
  5
A9
 10
454.756718
 20
-117.136459
 30
0.0
 40
80.0
 50
313.672893
 51
354.999928
  0
ARC
  8
LY_1
  6
CONTINUOUS
 62
   251
  5
AA
 10
724.999955
 20
31.817818
 30
0.0
 40
100.0
 50
179.999978
 51
219.999983
  0
ARC
  8
LY_1
  6
CONTINUOUS
 62
   251
  5
AB
 10
786.652304
 20
-134.999975
 30
0.0
 40
40.0
 50
219.999987
 51
270.000018
  0
ARC
  8
LY_1
  6
CONTINUOUS
 62
   251
  5
AC
 10
579.99993
 20
-155.000102
 30
0.0
 40
20.0
 50
270.000018
 51
0.0
  0
LINE
  8
LY_1
  6
CONTINUOUS
 62
   251
  5
AD
 10
940.999889
 20
-114.000013
 30
0.0
 11
939.999889
 21
-115.000013
 31
0.0
  0
LINE
  8
LY_1
  6
CONTINUOUS
 62
   251
  5
AE
 10
939.999889
 20
115.0
 30
0.0
 11
940.999889
 21
114.0
 31
0.0
  0
LINE
  8
LY_1
  6
CONTINUOUS
 62
   251
  5
AF
 10
918.999971
 20
-114.000013
 30
0.0
 11
919.999971
 21
-115.000013
 31
0.0
  0
LINE
  8
LY_1
  6
CONTINUOUS
 62
   251
  5
B0
 10
919.999971
 20
115.0
 30
0.0
 11
918.999971
 21
114.0
 31
0.0
  0
LINE
  8
LY_1
  6
CONTINUOUS
 62
   251
  5
B1
 10
882.000052
 20
-149.000013
 30
0.0
 11
881.000052
 21
-150.000013
 31
0.0
  0
LINE
  8
LY_1
  6
CONTINUOUS
 62
   251
  5
B2
 10
881.000052
 20
150.000011
 30
0.0
 11
882.000052
 21
149.000011
 31
0.0
  0
LINE
  8
LY_1
  6
CONTINUOUS
 62
   251
  5
B3
 10
919.999971
 20
-115.000013
 30
0.0
 11
939.999889
 21
-115.000013
 31
0.0
  0
LINE
  8
LY_1
  6
CONTINUOUS
 62
   251
  5
B4
 10
882.000052
 20
80.0
 30
0.0
 11
918.999971
 21
80.0
 31
0.0
  0
LINE
  8
LY_1
  6
CONTINUOUS
 62
   251
  5
B5
 10
882.000052
 20
-80.000013
 30
0.0
 11
918.999971
 21
-80.000013
 31
0.0
  0
LINE
  8
LY_1
  6
CONTINUOUS
 62
   251
  5
B6
 10
918.999971
 20
114.0
 30
0.0
 11
918.999971
 21
80.0
 31
0.0
  0
LINE
  8
LY_1
  6
CONTINUOUS
 62
   251
  5
B7
 10
882.000052
 20
-149.000013
 30
0.0
 11
882.000052
 21
-80.000013
 31
0.0
  0
LINE
  8
LY_1
  6
CONTINUOUS
 62
   251
  5
B8
 10
840.99993
 20
-150.000013
 30
0.0
 11
881.000052
 21
-150.000013
 31
0.0
  0
LINE
  8
LY_1
  6
CONTINUOUS
 62
   251
  5
B9
 10
918.999971
 20
80.0
 30
0.0
 11
918.999971
 21
-114.000013
 31
0.0
  0
LINE
  8
LY_1
  6
CONTINUOUS
 62
   251
  5
BA
 10
882.000052
 20
149.000011
 30
0.0
 11
882.000052
 21
-80.000013
 31
0.0
  0
LINE
  8
LY_1
  6
CONTINUOUS
 62
   251
  5
BB
 10
940.999889
 20
114.0
 30
0.0
 11
940.999889
 21
-114.000013
 31
0.0
  0
LINE
  8
LY_1
  6
CONTINUOUS
 62
   251
  5
BC
 10
919.999971
 20
115.0
 30
0.0
 11
939.999889
 21
115.0
 31
0.0
  0
LINE
  8
LY_1
  6
CONTINUOUS
 62
   251
  5
BD
 10
840.99993
 20
150.000011
 30
0.0
 11
881.000052
 21
150.000011
 31
0.0
  0
LINE
  8
LY_1
  6
CONTINUOUS
 62
   251
  5
BE
 10
761.013724
 20
144.214247
 30
0.0
 11
778.574352
 21
144.214247
 31
0.0
  0
LINE
  8
LY_1
  6
CONTINUOUS
 62
   251
  5
BF
 10
745.764286
 20
-148.500023
 30
0.0
 11
752.999971
 21
-148.500023
 31
0.0
  0
LINE
  8
LY_1
  6
CONTINUOUS
 62
   251
  5
C0
 10
753.999971
 20
139.431903
 30
0.0
 11
753.999971
 21
-147.500023
 31
0.0
  0
LINE
  8
LY_1
  6
CONTINUOUS
 62
   251
  5
C1
 10
784.99993
 20
176.500011
 30
0.0
 11
784.99993
 21
112.79335
 31
0.0
  0
LINE
  8
LY_1
  6
CONTINUOUS
 62
   251
  5
C2
 10
789.99993
 20
120.0
 30
0.0
 11
834.99993
 21
120.0
 31
0.0
  0
LINE
  8
LY_1
  6
CONTINUOUS
 62
   251
  5
C3
 10
758.999971
 20
-120.000013
 30
0.0
 11
834.99993
 21
-120.000013
 31
0.0
  0
LINE
  8
LY_1
  6
CONTINUOUS
 62
   251
  5
C4
 10
839.99993
 20
149.000011
 30
0.0
 11
839.99993
 21
-149.000013
 31
0.0
  0
LINE
  8
LY_1
  6
CONTINUOUS
 62
   251
  5
C5
 10
862.000052
 20
150.000011
 30
0.0
 11
862.000052
 21
-150.000013
 31
0.0
  0
LINE
  8
LY_1
  6
CONTINUOUS
 62
   251
  5
C6
 10
727.000052
 20
171.626356
 30
0.0
 11
727.000052
 21
-126.137682
 31
0.0
  0
LINE
  8
LY_1
  6
CENTER
 62
     7
  5
C7
 10
759.99993
 20
204.239945
 30
0.0
 11
759.99993
 21
171.298389
 31
0.0
  0
LINE
  8
LY_1
  6
CONTINUOUS
 62
   251
  5
C8
 10
704.99993
 20
177.500011
 30
0.0
 11
783.99993
 21
177.500011
 31
0.0
  0
LINE
  8
LY_1
  6
CONTINUOUS
 62
   251
  5
C9
 10
771.192328
 20
196.500052
 30
0.0
 11
748.807557
 21
196.500052
 31
0.0
  0
LINE
  8
LY_1
  6
CONTINUOUS
 62
   251
  5
CA
 10
773.453375
 20
185.500042
 30
0.0
 11
746.54651
 21
185.500042
 31
0.0
  0
LINE
  8
LY_1
  6
CONTINUOUS
 62
   251
  5
CB
 10
773.45336
 20
185.500034
 30
0.0
 11
773.20336
 21
177.500043
 31
0.0
  0
LINE
  8
LY_1
  6
CONTINUOUS
 62
   251
  5
CC
 10
746.546502
 20
185.50001
 30
0.0
 11
746.796502
 21
177.500019
 31
0.0
  0
LINE
  8
LY_1
  6
CONTINUOUS
 62
   251
  5
CD
 10
771.192328
 20
196.500052
 30
0.0
 11
771.192328
 21
185.500042
 31
0.0
  0
LINE
  8
LY_1
  6
CONTINUOUS
 62
   251
  5
CE
 10
748.807557
 20
196.500052
 30
0.0
 11
748.807557
 21
185.500042
 31
0.0
  0
LINE
  8
LY_1
  6
CONTINUOUS
 62
     7
  5
CF
 10
748.807507
 20
196.50006
 30
0.0
 11
759.999915
 21
185.500043
 31
0.0
  0
LINE
  8
LY_1
  6
CONTINUOUS
 62
     7
  5
D0
 10
759.999933
 20
196.500022
 30
0.0
 11
748.807544
 21
185.500024
 31
0.0
  0
LINE
  8
LY_1
  6
CONTINUOUS
 62
     7
  5
D1
 10
759.999919
 20
185.500015
 30
0.0
 11
771.192309
 21
196.500013
 31
0.0
  0
LINE
  8
LY_1
  6
CONTINUOUS
 62
     7
  5
D2
 10
771.192309
 20
185.500035
 30
0.0
 11
759.999901
 21
196.500051
 31
0.0
  0
LINE
  8
LY_1
  6
CONTINUOUS
 62
   251
  5
D3
 10
465.000005
 20
12.247448
 30
0.0
 11
465.000005
 21
-12.5
 31
0.0
  0
LINE
  8
LY_1
  6
CONTINUOUS
 62
   251
  5
D4
 10
52.500011
 20
12.500006
 30
0.0
 11
52.500011
 21
-12.5
 31
0.0
  0
LINE
  8
LY_1
  6
CENTER
 62
     7
  5
D5
 10
329.90919
 20
0.0
 30
0.0
 11
1301.981522
 21
0.0
 31
0.0
  0
LINE
  8
LY_1
  6
CONTINUOUS
 62
   251
  5
D6
 10
-12.152659
 20
184.969991
 30
0.0
 11
-13.45342
 21
184.969991
 31
0.0
  0
LINE
  8
LY_1
  6
CONTINUOUS
 62
   251
  5
D7
 10
-13.453404
 20
184.969999
 30
0.0
 11
-13.282756
 21
179.509255
 31
0.0
  0
LINE
  8
LY_1
  6
CONTINUOUS
 62
   251
  5
D8
 10
13.453393
 20
184.97
 30
0.0
 11
13.282745
 21
179.509257
 31
0.0
  0
LINE
  8
LY_1
  6
CONTINUOUS
 62
   251
  5
D9
 10
13.45342
 20
184.969991
 30
0.0
 11
12.152659
 21
184.969991
 31
0.0
  0
LINE
  8
LY_1
  6
CONTINUOUS
 62
   251
  5
DA
 10
11.192373
 20
195.970001
 30
0.0
 11
11.192373
 21
190.415955
 31
0.0
  0
LINE
  8
LY_1
  6
CONTINUOUS
 62
     7
  5
DB
 10
7.624508
 20
192.463382
 30
0.0
 11
11.192408
 21
195.969952
 31
0.0
  0
LINE
  8
LY_1
  6
CONTINUOUS
 62
   251
  5
DC
 10
11.192373
 20
195.970001
 30
0.0
 11
5.0
 21
195.970001
 31
0.0
  0
LINE
  8
LY_1
  6
CONTINUOUS
 62
     7
  5
DD
 10
-7.624438
 20
192.463407
 30
0.0
 11
-11.192411
 21
195.970049
 31
0.0
  0
LINE
  8
LY_1
  6
CONTINUOUS
 62
   251
  5
DE
 10
-5.0
 20
195.970001
 30
0.0
 11
-11.192373
 21
195.970001
 31
0.0
  0
LINE
  8
LY_1
  6
CONTINUOUS
 62
   251
  5
DF
 10
-11.192373
 20
195.970001
 30
0.0
 11
-11.192373
 21
190.415916
 31
0.0
  0
LINE
  8
LY_1
  6
CONTINUOUS
 62
   251
  5
E0
 10
-10.75002
 20
183.000018
 30
0.0
 11
-10.75002
 21
179.678713
 31
0.0
  0
LINE
  8
LY_1
  6
CONTINUOUS
 62
   251
  5
E1
 10
10.75002
 20
183.000018
 30
0.0
 11
10.75002
 21
179.678713
 31
0.0
  0
LINE
  8
LY_1
  6
CONTINUOUS
 62
   251
  5
E2
 10
-12.5
 20
183.000018
 30
0.0
 11
12.5
 21
183.000018
 31
0.0
  0
LINE
  8
LY_1
  6
CONTINUOUS
 62
   251
  5
E3
 10
-5.0
 20
229.000015
 30
0.0
 11
-5.0
 21
185.800056
 31
0.0
  0
LINE
  8
LY_1
  6
CONTINUOUS
 62
   251
  5
E4
 10
-5.000046
 20
193.00238
 30
0.0
 11
-10.019987
 21
191.971413
 31
0.0
  0
LINE
  8
LY_1
  6
CONTINUOUS
 62
   251
  5
E5
 10
-11.117075
 20
190.843103
 30
0.0
 11
-12.500029
 21
182.999987
 31
0.0
  0
LINE
  8
LY_1
  6
CONTINUOUS
 62
   251
  5
E6
 10
5.0
 20
229.000015
 30
0.0
 11
5.0
 21
185.800056
 31
0.0
  0
LINE
  8
LY_1
  6
CONTINUOUS
 62
   251
  5
E7
 10
5.000027
 20
193.002404
 30
0.0
 11
10.019969
 21
191.971437
 31
0.0
  0
LINE
  8
LY_1
  6
CONTINUOUS
 62
   251
  5
E8
 10
11.117059
 20
190.843106
 30
0.0
 11
12.500015
 21
182.999977
 31
0.0
  0
LINE
  8
LY_1
  6
CONTINUOUS
 62
   251
  5
E9
 10
671.249905
 20
182.999891
 30
0.0
 11
671.249905
 21
179.999886
 31
0.0
  0
LINE
  8
LY_1
  6
CONTINUOUS
 62
   251
  5
EA
 10
692.74992
 20
182.999891
 30
0.0
 11
692.74992
 21
179.999886
 31
0.0
  0
LINE
  8
LY_1
  6
CONTINUOUS
 62
   251
  5
EB
 10
669.499925
 20
182.999891
 30
0.0
 11
694.499925
 21
182.999891
 31
0.0
  0
LINE
  8
LY_1
  6
CONTINUOUS
 62
   251
  5
EC
 10
682.423252
 20
193.954547
 30
0.0
 11
691.658092
 21
191.95455
 31
0.0
  0
LINE
  8
LY_1
  6
CONTINUOUS
 62
   251
  5
ED
 10
672.341738
 20
191.954531
 30
0.0
 11
681.576603
 21
193.954533
 31
0.0
  0
LINE
  8
LY_1
  6
CONTINUOUS
 62
   251
  5
EE
 10
672.765052
 20
191.999893
 30
0.0
 11
691.234773
 21
191.999893
 31
0.0
  0
LINE
  8
LY_1
  6
CONTINUOUS
 62
   251
  5
EF
 10
693.20439
 20
190.3472
 30
0.0
 11
694.499927
 21
182.999849
 31
0.0
  0
LINE
  8
LY_1
  6
CONTINUOUS
 62
   251
  5
F0
 10
669.499893
 20
182.999875
 30
0.0
 11
670.795429
 21
190.347226
 31
0.0
  0
LINE
  8
LY_1
  6
CONTINUOUS
 62
   251
  5
F1
 10
624.999905
 20
179.999886
 30
0.0
 11
704.99993
 21
179.999886
 31
0.0
  0
LINE
  8
LY_1
  6
CONTINUOUS
 62
   251
  5
F2
 10
658.99992
 20
179.999886
 30
0.0
 11
658.99992
 21
-45.098292
 31
0.0
  0
LINE
  8
LY_1
  6
CENTER
 62
     7
  5
F3
 10
646.999925
 20
208.999888
 30
0.0
 11
716.999925
 21
208.999888
 31
0.0
  0
LINE
  8
LY_1
  6
CENTER
 62
     7
  5
F4
 10
681.999925
 20
243.999888
 30
0.0
 11
681.999925
 21
169.168711
 31
0.0
  0
LINE
  8
LY_1
  6
CONTINUOUS
 62
   251
  5
F5
 10
704.99993
 20
179.999886
 30
0.0
 11
704.99993
 21
-99.918976
 31
0.0
  0
LINE
  8
LY_1
  6
CONTINUOUS
 62
   251
  5
F6
 10
52.500011
 20
12.500006
 30
0.0
 11
38.50001
 21
12.500006
 31
0.0
  0
LINE
  8
LY_1
  6
CONTINUOUS
 62
   251
  5
F7
 10
52.500011
 20
-12.5
 30
0.0
 11
38.50001
 21
-12.5
 31
0.0
  0
LINE
  8
LY_1
  6
CONTINUOUS
 62
   251
  5
F8
 10
38.50001
 20
12.500006
 30
0.0
 11
38.50001
 21
-12.5
 31
0.0
  0
LINE
  8
LY_1
  6
CENTER
 62
     7
  5
F9
 10
0.0
 20
247.333349
 30
0.0
 11
0.0
 21
-231.666768
 31
0.0
  0
LINE
  8
LY_1
  6
CENTER
 62
     7
  5
FA
 10
-229.612222
 20
0.0
 30
0.0
 11
229.850515
 21
0.0
 31
0.0
  0
LINE
  8
LY_1
  6
CONTINUOUS
 62
   251
  5
FB
 10
529.99993
 20
132.500068
 30
0.0
 11
529.99993
 21
-132.499975
 31
0.0
  0
LINE
  8
LY_1
  6
CONTINUOUS
 62
   251
  5
FC
 10
588.484807
 20
0.000323
 30
0.0
 11
579.999528
 21
-8.484953
 31
0.0
  0
LINE
  8
LY_1
  6
CONTINUOUS
 62
   251
  5
FD
 10
580.000132
 20
-8.485199
 30
0.0
 11
571.514837
 21
0.000097
 31
0.0
  0
LINE
  8
LY_1
  6
CONTINUOUS
 62
   251
  5
FE
 10
579.999674
 20
8.485473
 30
0.0
 11
571.514396
 21
0.000196
 31
0.0
  0
LINE
  8
LY_1
  6
CONTINUOUS
 62
   251
  5
FF
 10
588.48511
 20
-0.000345
 30
0.0
 11
579.999814
 21
8.484951
 31
0.0
  0
LINE
  8
LY_1
  6
CENTER
 62
     7
  5
100
 10
565.40266
 20
-105.0
 30
0.0
 11
589.513556
 21
-105.0
 31
0.0
  0
LINE
  8
LY_1
  6
CENTER
 62
     7
  5
101
 10
577.999935
 20
-93.773308
 30
0.0
 11
577.999935
 21
-115.692393
 31
0.0
  0
LINE
  8
LY_1
  6
CENTER
 62
     7
  5
102
 10
579.99993
 20
15.000006
 30
0.0
 11
579.99993
 21
-15.0
 31
0.0
  0
LINE
  8
LY_1
  6
CONTINUOUS
 62
   251
  5
103
 10
874.99993
 20
-175.000102
 30
0.0
 11
874.99993
 21
-210.000102
 31
0.0
  0
LINE
  8
LY_1
  6
DASHED
 62
     7
  5
105
 10
852.49993
 20
-175.000102
 30
0.0
 11
852.49993
 21
-210.000102
 31
0.0
  0
LINE
  8
LY_1
  6
CENTER
 62
     7
  5
106
 10
839.99993
 20
-168.297958
 30
0.0
 11
839.99993
 21
-217.615814
 31
0.0
  0
LINE
  8
LY_1
  6
DASHED
 62
     7
  5
107
 10
827.49993
 20
-175.000102
 30
0.0
 11
827.49993
 21
-210.000102
 31
0.0
  0
LINE
  8
LY_1
  6
CONTINUOUS
 62
   251
  5
108
 10
509.999917
 20
-210.000102
 30
0.0
 11
874.99993
 21
-210.000102
 31
0.0
  0
LINE
  8
LY_1
  6
DASHED
 62
     7
  5
109
 10
557.49993
 20
-175.000102
 30
0.0
 11
557.49993
 21
-210.000102
 31
0.0
  0
LINE
  8
LY_1
  6
CENTER
 62
     7
  5
10A
 10
544.99993
 20
-166.654154
 30
0.0
 11
544.99993
 21
-217.615814
 31
0.0
  0
LINE
  8
LY_1
  6
DASHED
 62
     7
  5
10B
 10
532.49993
 20
-175.000102
 30
0.0
 11
532.49993
 21
-210.000102
 31
0.0
  0
LINE
  8
LY_1
  6
CONTINUOUS
 62
   251
  5
10C
 10
509.999917
 20
-175.000102
 30
0.0
 11
579.99993
 21
-175.000102
 31
0.0
  0
LINE
  8
LY_1
  6
CONTINUOUS
 62
   251
  5
10D
 10
509.999917
 20
-175.000102
 30
0.0
 11
509.999917
 21
-210.000102
 31
0.0
  0
LINE
  8
LY_1
  6
CONTINUOUS
 62
   251
  5
10E
 10
786.652304
 20
-175.000102
 30
0.0
 11
874.99993
 21
-175.000102
 31
0.0
  0
LINE
  8
LY_1
  6
CONTINUOUS
 62
   251
  5
10F
 10
350.0
 20
12.500006
 30
0.0
 11
467.500006
 21
12.500006
 31
0.0
  0
LINE
  8
LY_1
  6
CONTINUOUS
 62
   251
  5
110
 10
350.0
 20
-12.5
 30
0.0
 11
467.500006
 21
-12.5
 31
0.0
  0
LINE
  8
LY_1
  6
CONTINUOUS
 62
   251
  5
111
 10
350.0
 20
47.500064
 30
0.0
 11
489.999994
 21
47.500064
 31
0.0
  0
LINE
  8
LY_1
  6
CONTINUOUS
 62
   251
  5
112
 10
489.999994
 20
-55.0
 30
0.0
 11
498.999996
 21
-55.0
 31
0.0
  0
LINE
  8
LY_1
  6
CONTINUOUS
 62
   251
  5
113
 10
489.999994
 20
55.000064
 30
0.0
 11
498.999996
 21
55.000064
 31
0.0
  0
LINE
  8
LY_1
  6
CONTINUOUS
 62
   251
  5
114
 10
489.999994
 20
55.000064
 30
0.0
 11
489.999994
 21
-55.0
 31
0.0
  0
LINE
  8
LY_1
  6
CONTINUOUS
 62
   251
  5
115
 10
350.0
 20
-47.5
 30
0.0
 11
489.999994
 21
-47.5
 31
0.0
  0
LINE
  8
LY_1
  6
CONTINUOUS
 62
   251
  5
116
 10
350.0
 20
47.500064
 30
0.0
 11
350.0
 21
-47.5
 31
0.0
  0
LINE
  8
LY_1
  6
CONTINUOUS
 62
   251
  5
117
 10
509.999917
 20
132.500068
 30
0.0
 11
509.999917
 21
-132.499975
 31
0.0
  0
LINE
  8
LY_1
  6
CONTINUOUS
 62
   251
  5
118
 10
498.999672
 20
-90.000418
 30
0.0
 11
509.999716
 21
-101.000462
 31
0.0
  0
LINE
  8
LY_1
  6
CONTINUOUS
 62
   251
  5
119
 10
499.000372
 20
89.999516
 30
0.0
 11
510.000399
 21
100.999542
 31
0.0
  0
LINE
  8
LY_1
  6
CONTINUOUS
 62
   251
  5
11A
 10
509.999917
 20
132.500068
 30
0.0
 11
560.000057
 21
132.500068
 31
0.0
  0
LINE
  8
LY_1
  6
CONTINUOUS
 62
   251
  5
11B
 10
509.999917
 20
-132.499975
 30
0.0
 11
533.267651
 21
-132.499975
 31
0.0
  0
LINE
  8
LY_1
  6
CONTINUOUS
 62
   251
  5
11C
 10
498.999996
 20
90.000067
 30
0.0
 11
498.999996
 21
-89.999987
 31
0.0
  0
LINE
  8
LY_1
  6
CONTINUOUS
 62
     7
  5
11D
 10
138.149947
 20
0.00004
 30
0.0
 11
147.149983
 21
-8.071068
 31
0.0
  0
LINE
  8
LY_1
  6
CONTINUOUS
 62
     7
  5
11E
 10
147.150027
 20
0.00001
 30
0.0
 11
138.15003
 21
-8.071064
 31
0.0
  0
LINE
  8
LY_1
  6
CONTINUOUS
 62
     7
  5
11F
 10
138.150046
 20
8.071002
 30
0.0
 11
147.150006
 21
-0.000037
 31
0.0
  0
LINE
  8
LY_1
  6
CONTINUOUS
 62
     7
  5
120
 10
138.149951
 20
-0.000048
 30
0.0
 11
147.150063
 21
8.071127
 31
0.0
  0
LINE
  8
LY_1
  6
CONTINUOUS
 62
   251
  5
121
 10
147.150014
 20
8.071047
 30
0.0
 11
138.150075
 21
8.071047
 31
0.0
  0
LINE
  8
LY_1
  6
CONTINUOUS
 62
   251
  5
122
 10
147.150014
 20
-8.071162
 30
0.0
 11
138.150075
 21
-8.071162
 31
0.0
  0
LINE
  8
LY_1
  6
CONTINUOUS
 62
   251
  5
123
 10
138.149985
 20
8.507609
 30
0.0
 11
132.23831
 21
8.322869
 31
0.0
  0
LINE
  8
LY_1
  6
CONTINUOUS
 62
   251
  5
124
 10
138.149979
 20
-8.507514
 30
0.0
 11
132.238355
 21
-8.322776
 31
0.0
  0
LINE
  8
LY_1
  6
CONTINUOUS
 62
   251
  5
125
 10
138.150075
 20
-8.507563
 30
0.0
 11
138.150075
 21
8.507576
 31
0.0
  0
LINE
  8
LY_1
  6
CONTINUOUS
 62
   251
  5
126
 10
147.150014
 20
-8.071162
 30
0.0
 11
147.150014
 21
8.071047
 31
0.0
  0
LINE
  8
LY_1
  6
CENTER
 62
     7
  5
127
 10
-55.266148
 20
-95.724949
 30
0.0
 11
-62.180211
 21
-107.700456
 31
0.0
  0
LINE
  8
LY_1
  6
CENTER
 62
     7
  5
128
 10
55.267002
 20
-95.724304
 30
0.0
 11
62.181121
 21
-107.699911
 31
0.0
  0
LINE
  8
LY_1
  6
CENTER
 62
     7
  5
129
 10
55.266113
 20
95.724754
 30
0.0
 11
62.180227
 21
107.70035
 31
0.0
  0
LINE
  8
LY_1
  6
CENTER
 62
     7
  5
12A
 10
-55.26707
 20
95.724221
 30
0.0
 11
-62.181195
 21
107.699839
 31
0.0
  0
LINE
  8
LY_1
  6
CENTER
 62
     7
  5
12B
 10
58.92705
 20
142.26561
 30
0.0
 11
64.871585
 21
156.616985
 31
0.0
  0
LINE
  8
LY_1
  6
CENTER
 62
     7
  5
12C
 10
142.265595
 20
-58.927053
 30
0.0
 11
156.617005
 21
-64.871602
 31
0.0
  0
LINE
  8
LY_1
  6
CENTER
 62
     7
  5
12D
 10
58.929259
 20
-142.26468
 30
0.0
 11
64.87379
 21
-156.616049
 31
0.0
  0
LINE
  8
LY_1
  6
CENTER
 62
     7
  5
12E
 10
-58.927021
 20
-142.265618
 30
0.0
 11
-64.871551
 21
-156.61698
 31
0.0
  0
LINE
  8
LY_1
  6
CENTER
 62
     7
  5
12F
 10
-142.264733
 20
-58.929252
 30
0.0
 11
-156.616143
 21
-64.8738
 31
0.0
  0
LINE
  8
LY_1
  6
CENTER
 62
     7
  5
130
 10
-142.265633
 20
58.927018
 30
0.0
 11
-156.616995
 21
64.871548
 31
0.0
  0
LINE
  8
LY_1
  6
CENTER
 62
     7
  5
131
 10
-58.929341
 20
142.264698
 30
0.0
 11
-64.873869
 21
156.616061
 31
0.0
  0
LINE
  8
LY_1
  6
CENTER
 62
     7
  5
132
 10
108.270111
 20
-105.0
 30
0.0
 11
128.172455
 21
-105.0
 31
0.0
  0
LINE
  8
LY_1
  6
CONTINUOUS
 62
   251
  5
133
 10
32.99998
 20
-185.000102
 30
0.0
 11
94.499969
 21
-185.000102
 31
0.0
  0
LINE
  8
LY_1
  6
DASHED
 62
     7
  5
134
 10
162.500051
 20
-175.000102
 30
0.0
 11
162.500051
 21
-210.000102
 31
0.0
  0
LINE
  8
LY_1
  6
DASHED
 62
     7
  5
135
 10
187.500051
 20
-175.000102
 30
0.0
 11
187.500051
 21
-210.000102
 31
0.0
  0
LINE
  8
LY_1
  6
DASHED
 62
     7
  5
136
 10
-187.5
 20
-175.000102
 30
0.0
 11
-187.5
 21
-210.000102
 31
0.0
  0
LINE
  8
LY_1
  6
DASHED
 62
     7
  5
137
 10
-162.5
 20
-175.000102
 30
0.0
 11
-162.5
 21
-210.000102
 31
0.0
  0
LINE
  8
LY_1
  6
CONTINUOUS
 62
   251
  5
138
 10
-102.499932
 20
-175.000004
 30
0.0
 11
-93.209293
 21
-122.31064
 31
0.0
  0
LINE
  8
LY_1
  6
CONTINUOUS
 62
   251
  5
139
 10
19.364878
 20
172.002144
 30
0.0
 11
19.364878
 21
143.440983
 31
0.0
  0
LINE
  8
LY_1
  6
CONTINUOUS
 62
   251
  5
13A
 10
-19.36498
 20
172.002144
 30
0.0
 11
-19.36498
 21
143.440983
 31
0.0
  0
LINE
  8
LY_1
  6
CENTER
 62
     7
  5
13B
 10
142.26465
 20
58.929405
 30
0.0
 11
156.616014
 21
64.873934
 31
0.0
  0
LINE
  8
LY_1
  6
CONTINUOUS
 62
   251
  5
13C
 10
120.000051
 20
-59.424311
 30
0.0
 11
120.000051
 21
-147.55455
 31
0.0
  0
LINE
  8
LY_1
  6
CONTINUOUS
 62
   251
  5
13D
 10
-120.0
 20
-59.424311
 30
0.0
 11
-120.0
 21
-147.554296
 31
0.0
  0
LINE
  8
LY_1
  6
CONTINUOUS
 62
   251
  5
13E
 10
-122.653443
 20
-162.604738
 30
0.0
 11
-120.00001
 21
-147.556376
 31
0.0
  0
LINE
  8
LY_1
  6
CONTINUOUS
 62
   251
  5
13F
 10
122.653361
 20
-162.60482
 30
0.0
 11
119.999993
 21
-147.556808
 31
0.0
  0
LINE
  8
LY_1
  6
CONTINUOUS
 62
   251
  5
140
 10
102.499592
 20
-175.000186
 30
0.0
 11
93.209016
 21
-122.310681
 31
0.0
  0
LINE
  8
LY_1
  6
CONTINUOUS
 62
   251
  5
141
 10
102.500051
 20
-175.000102
 30
0.0
 11
212.500051
 21
-175.000102
 31
0.0
  0
LINE
  8
LY_1
  6
CONTINUOUS
 62
   251
  5
142
 10
102.500051
 20
-210.000102
 30
0.0
 11
212.500051
 21
-210.000102
 31
0.0
  0
LINE
  8
LY_1
  6
CONTINUOUS
 62
   251
  5
143
 10
-102.5
 20
-205.000102
 30
0.0
 11
102.500051
 21
-205.000102
 31
0.0
  0
LINE
  8
LY_1
  6
CONTINUOUS
 62
   251
  5
144
 10
-94.50002
 20
-185.000102
 30
0.0
 11
-33.000031
 21
-185.000102
 31
0.0
  0
LINE
  8
LY_1
  6
CONTINUOUS
 62
   251
  5
145
 10
102.500051
 20
-175.000102
 30
0.0
 11
102.500051
 21
-210.000102
 31
0.0
  0
LINE
  8
LY_1
  6
CONTINUOUS
 62
   251
  5
146
 10
-102.5
 20
-175.000102
 30
0.0
 11
-102.5
 21
-210.000102
 31
0.0
  0
LINE
  8
LY_1
  6
CENTER
 62
     7
  5
147
 10
175.000051
 20
-163.238627
 30
0.0
 11
175.000051
 21
-219.654032
 31
0.0
  0
LINE
  8
LY_1
  6
CENTER
 62
     7
  5
148
 10
-175.0
 20
-164.194921
 30
0.0
 11
-175.0
 21
-218.697866
 31
0.0
  0
LINE
  8
LY_1
  6
CONTINUOUS
 62
   251
  5
149
 10
-212.5
 20
-175.000102
 30
0.0
 11
-102.5
 21
-175.000102
 31
0.0
  0
LINE
  8
LY_1
  6
CONTINUOUS
 62
   251
  5
14A
 10
-212.5
 20
-210.000102
 30
0.0
 11
-102.5
 21
-210.000102
 31
0.0
  0
LINE
  8
LY_1
  6
CONTINUOUS
 62
   251
  5
14B
 10
-212.5
 20
-35.0
 30
0.0
 11
-212.5
 21
-210.000102
 31
0.0
  0
LINE
  8
LY_1
  6
CONTINUOUS
 62
   251
  5
14C
 10
212.500051
 20
-35.0
 30
0.0
 11
212.500051
 21
-210.000102
 31
0.0
  0
LINE
  8
LY_1
  6
CONTINUOUS
 62
   251
  5
14D
 10
538.618035
 20
-76.4982
 30
0.0
 11
534.452567
 21
-124.109031
 31
0.0
  0
LINE
  8
LY_1
  6
CONTINUOUS
 62
   251
  5
14E
 10
584.99993
 20
177.500064
 30
0.0
 11
584.99993
 21
141.077332
 31
0.0
  0
LINE
  8
LY_1
  6
CONTINUOUS
 62
   251
  5
14F
 10
560.000097
 20
132.499351
 30
0.0
 11
586.307383
 21
134.80094
 31
0.0
  0
LINE
  8
LY_1
  6
CONTINUOUS
 62
   251
  5
150
 10
584.99993
 20
177.500064
 30
0.0
 11
624.99993
 21
177.500064
 31
0.0
  0
LINE
  8
LY_1
  6
CONTINUOUS
 62
   251
  5
151
 10
599.99993
 20
177.500064
 30
0.0
 11
599.99993
 21
-155.000102
 31
0.0
  0
LINE
  8
LY_1
  6
CONTINUOUS
 62
   251
  5
152
 10
624.99993
 20
179.999886
 30
0.0
 11
624.99993
 21
31.817818
 31
0.0
  0
LINE
  8
LY_1
  6
CONTINUOUS
 62
   251
  5
153
 10
648.395789
 20
-32.460788
 30
0.0
 11
756.010787
 21
-160.711333
 31
0.0
  0
ENDSEC
  0
EOF
