  0
SECTION
  2
HEADER
  9
$ACADVER
  1
AC1009
  9
$DWGCODEPAGE
  3
dos932
  9
$INSBASE
 10
0.0
 20
0.0
 30
0.0
  9
$EXTMIN
 10
-192.132719
 20
-195.0
 30
0.0
  9
$EXTMAX
 10
970.351838
 20
219.000006
 30
0.0
  9
$LIMMIN
 10
-192.132719
 20
-195.0
  9
$LIMMAX
 10
970.351838
 20
219.000006
  9
$ORTHOMODE
 70
     0
  9
$REGENMODE
 70
     1
  9
$FILLMODE
 70
     1
  9
$QTEXTMODE
 70
     0
  9
$MIRRTEXT
 70
     1
  9
$DRAGMODE
 70
     2
  9
$LTSCALE
 40
1.0
  9
$OSMODE
 70
     0
  9
$ATTMODE
 70
     1
  9
$TEXTSIZE
 40
3.15
  9
$TRACEWID
 40
0.05
  9
$TEXTSTYLE
  7
MX_NOTE_STANDARD
  9
$CLAYER
  8
LY_1
  9
$CELTYPE
  6
CONTINUOUS
  9
$CECOLOR
 62
   256
  9
$DIMSCALE
 40
1.0
  9
$DIMASZ
 40
2.5
  9
$DIMEXO
 40
1.0
  9
$DIMDLI
 40
3.75
  9
$DIMRND
 40
0.0
  9
$DIMDLE
 40
0.0
  9
$DIMEXE
 40
1.5
  9
$DIMTP
 40
0.0
  9
$DIMTM
 40
0.0
  9
$DIMTXT
 40
3.15
  9
$DIMCEN
 40
2.5
  9
$DIMTSZ
 40
0.0
  9
$DIMTOL
 70
     0
  9
$DIMLIM
 70
     0
  9
$DIMTIH
 70
     0
  9
$DIMTOH
 70
     0
  9
$DIMSE1
 70
     0
  9
$DIMSE2
 70
     0
  9
$DIMTAD
 70
     1
  9
$DIMZIN
 70
     8
  9
$DIMBLK
  1

  9
$DIMASO
 70
     1
  9
$DIMSHO
 70
     1
  9
$DIMPOST
  1

  9
$DIMAPOST
  1

  9
$DIMALT
 70
     0
  9
$DIMALTD
 70
     4
  9
$DIMALTF
 40
0.03937
  9
$DIMLFAC
 40
1.0
  9
$DIMTOFL
 70
     1
  9
$DIMTVP
 40
0.0
  9
$DIMTIX
 70
     0
  9
$DIMSOXD
 70
     0
  9
$DIMSAH
 70
     0
  9
$DIMBLK1
  1

  9
$DIMBLK2
  1

  9
$DIMSTYLE
  2
MXDIMSTYLE
  9
$DIMCLRD
 70
     0
  9
$DIMCLRE
 70
     0
  9
$DIMCLRT
 70
     0
  9
$DIMTFAC
 40
1.0
  9
$DIMGAP
 40
1.0
  9
$LUNITS
 70
     2
  9
$LUPREC
 70
     4
  9
$AXISMODE
 70
     0
  9
$AXISUNIT
 10
0.0
 20
0.0
  9
$SKETCHINC
 40
0.1
  9
$FILLETRAD
 40
0.0
  9
$AUNITS
 70
     0
  9
$AUPREC
 70
     0
  9
$MENU
  1
acad
  9
$ELEVATION
 40
0.0
  9
$PELEVATION
 40
0.0
  9
$THICKNESS
 40
0.0
  9
$LIMCHECK
 70
     0
  9
$BLIPMODE
 70
     1
  9
$CHAMFERA
 40
0.0
  9
$CHAMFERB
 40
0.0
  9
$SKPOLY
 70
     0
  9
$TDCREATE
 40
2453665.670127315
  9
$TDUPDATE
 40
2453665.670127315
  9
$TDINDWG
 40
0.0000000000
  9
$TDUSRTIMER
 40
0.0000000000
  9
$USRTIMER
 70
     1
  9
$ANGBASE
 50
0.0
  9
$ANGDIR
 70
     0
  9
$PDMODE
 70
     0
  9
$PDSIZE
 40
0.0
  9
$PLINEWID
 40
0.0
  9
$COORDS
 70
     1
  9
$SPLFRAME
 70
     0
  9
$SPLINETYPE
 70
     6
  9
$SPLINESEGS
 70
     8
  9
$ATTDIA
 70
     0
  9
$ATTREQ
 70
     1
  9
$HANDLING
 70
     1
  9
$HANDSEED
  5
13B
  9
$SURFTAB1
 70
     6
  9
$SURFTAB2
 70
     6
  9
$SURFTYPE
 70
     6
  9
$SURFU
 70
     6
  9
$SURFV
 70
     6
  9
$UCSNAME
  2

  9
$UCSORG
 10
0.0
 20
0.0
 30
0.0
  9
$UCSXDIR
 10
1.0
 20
0.0
 30
0.0
  9
$UCSYDIR
 10
0.0
 20
1.0
 30
0.0
  9
$PUCSNAME
  2

  9
$PUCSORG
 10
0.0
 20
0.0
 30
0.0
  9
$PUCSXDIR
 10
1.0
 20
0.0
 30
0.0
  9
$PUCSYDIR
 10
0.0
 20
1.0
 30
0.0
  9
$USERI1
 70
     0
  9
$USERI2
 70
     0
  9
$USERI3
 70
     0
  9
$USERI4
 70
     0
  9
$USERI5
 70
     0
  9
$USERR1
 40
0.0
  9
$USERR2
 40
0.0
  9
$USERR3
 40
0.0
  9
$USERR4
 40
0.0
  9
$USERR5
 40
0.0
  9
$WORLDVIEW
 70
     1
  9
$SHADEDGE
 70
     3
  9
$SHADEDIF
 70
    70
  9
$TILEMODE
 70
     1
  9
$MAXACTVP
 70
    16
  9
$PINSBASE
 10
0.0
 20
0.0
 30
0.0
  9
$PLIMCHECK
 70
     0
  9
$PEXTMIN
 10
1.000000E+20
 20
1.000000E+20
 30
1.000000E+20
  9
$PEXTMAX
 10
-1.000000E+20
 20
-1.000000E+20
 30
-1.000000E+20
  9
$PLIMMIN
 10
0.0
 20
0.0
  9
$PLIMMAX
 10
12.0
 20
9.0
  9
$UNITMODE
 70
     0
  9
$VISRETAIN
 70
     0
  9
$PLINEGEN
 70
     1
  9
$PSLTSCALE
 70
     0
  9
$TREEDEPTH
 70
  3020
  9
$DWGCODEPAGE
  3
dos932
  0
ENDSEC
  0
SECTION
  2
TABLES
  0
TABLE
  2
VPORT
 70
     1
  0
VPORT
  2
*ACTIVE
 70
     0
 10
0.0
 20
0.0
 11
1.0
 21
1.0
 12
389.10956
 22
12.000003
 13
0.0
 23
0.0
 14
1.0
 24
1.0
 15
0.0
 25
0.0
 16
0.0
 26
0.0
 36
1.0
 17
0.0
 27
0.0
 37
0.0
 40
418.140006
 41
1.732051
 42
50.0
 43
0.0
 44
0.0
 50
0.0
 51
0.0
 71
     0
 72
   100
 73
     1
 74
     1
 75
     0
 76
     0
 77
     0
 78
     0
  0
ENDTAB
  0
TABLE
  2
LTYPE
 70
     3
  0
LTYPE
  2
CONTINUOUS
 70
    64
  3
Solid line
 72
    65
 73
     0
 40
0.0
  0
LTYPE
  2
CENTER
 70
    64
  3
Center ____ _ ____ _ ____ _ ____ _ ____ _ ____
 72
    65
 73
     4
 40
50.8
 49
31.75
 49
-6.35
 49
6.35
 49
-6.35
  0
LTYPE
  2
DASHED
 70
    64
  3
Dashed __ __ __ __ __ __ __ __ __ __ __ __ __ _
 72
    65
 73
     2
 40
19.05
 49
12.7
 49
-6.35
  0
ENDTAB
  0
TABLE
  2
LAYER
 70
     3
  0
LAYER
  2
0
 70
     0
 62
     7
  6
CONTINUOUS
  0
LAYER
  2
LY_1
 70
     0
 62
     7
  6
CONTINUOUS
  0
LAYER
  2
DEFPOINTS
 70
     0
 62
     7
  6
CONTINUOUS
  0
ENDTAB
  0
TABLE
  2
STYLE
 70
     1
  0
STYLE
  2
MX_NOTE_STANDARD
 70
     0
 40
0.0
 41
1.0
 50
0.0
 71
     0
 42
3.15
  3
txt.shx
  4
extfont.shx
  0
ENDTAB
  0
TABLE
  2
VIEW
 70
     0
  0
ENDTAB
  0
TABLE
  2
UCS
 70
     0
  0
ENDTAB
  0
TABLE
  2
APPID
 70
     1
  0
APPID
  2
ACAD
 70
     0
  0
ENDTAB
  0
TABLE
  2
DIMSTYLE
 70
     1
  0
DIMSTYLE
  2
MXDIMSTYLE
 70
     0
  3

  4

  5

  6

  7

 40
1.0
 41
2.5
 42
1.0
 43
3.75
 44
1.5
 45
0.0
 46
0.0
 47
0.0
 48
0.0
 71
     0
 72
     0
 73
     0
 74
     0
 75
     0
 76
     0
 77
     1
 78
     8
140
3.15
141
2.5
142
0.0
143
0.03937
144
1.0
145
0.0
146
1.0
147
1.0
170
     0
171
     4
172
     1
173
     0
174
     0
175
     0
176
     0
177
     0
178
     0
  0
ENDTAB
  0
ENDSEC
  0
SECTION
  2
BLOCKS
  0
ENDSEC
  0
SECTION
  2
ENTITIES
  0
LINE
  8
LY_1
  6
CONTINUOUS
 62
   251
  5
1F
 10
906.500024
 20
37.0
 30
0.0
 11
787.000024
 21
37.0
 31
0.0
  0
LINE
  8
LY_1
  6
CONTINUOUS
 62
   251
  5
20
 10
787.000024
 20
33.0
 30
0.0
 11
906.500024
 21
33.0
 31
0.0
  0
LINE
  8
LY_1
  6
CONTINUOUS
 62
   251
  5
21
 10
906.500024
 20
29.0
 30
0.0
 11
787.000024
 21
29.0
 31
0.0
  0
LINE
  8
LY_1
  6
CONTINUOUS
 62
   251
  5
22
 10
787.000024
 20
25.0
 30
0.0
 11
906.500024
 21
25.0
 31
0.0
  0
LINE
  8
LY_1
  6
CONTINUOUS
 62
   251
  5
23
 10
787.000024
 20
-25.0
 30
0.0
 11
906.500024
 21
-25.0
 31
0.0
  0
LINE
  8
LY_1
  6
CONTINUOUS
 62
   251
  5
24
 10
787.000024
 20
-29.0
 30
0.0
 11
906.500024
 21
-29.0
 31
0.0
  0
LINE
  8
LY_1
  6
CONTINUOUS
 62
   251
  5
25
 10
787.000024
 20
-33.0
 30
0.0
 11
906.500024
 21
-33.0
 31
0.0
  0
LINE
  8
LY_1
  6
CONTINUOUS
 62
   251
  5
26
 10
787.000024
 20
-37.0
 30
0.0
 11
906.500024
 21
-37.0
 31
0.0
  0
LINE
  8
LY_1
  6
CONTINUOUS
 62
   251
  5
27
 10
914.500024
 20
-88.0
 30
0.0
 11
914.500024
 21
88.0
 31
0.0
  0
LINE
  8
LY_1
  6
CONTINUOUS
 62
   251
  5
28
 10
906.500024
 20
-88.0
 30
0.0
 11
906.500024
 21
88.0
 31
0.0
  0
LINE
  8
LY_1
  6
CONTINUOUS
 62
   251
  5
29
 10
787.000024
 20
-88.0
 30
0.0
 11
787.000024
 21
88.0
 31
0.0
  0
LINE
  8
LY_1
  6
CONTINUOUS
 62
   251
  5
2A
 10
785.000024
 20
-88.0
 30
0.0
 11
785.000024
 21
88.0
 31
0.0
  0
LINE
  8
LY_1
  6
CONTINUOUS
 62
   251
  5
2B
 10
785.000024
 20
57.5
 30
0.0
 11
954.000024
 21
57.5
 31
0.0
  0
LINE
  8
LY_1
  6
CONTINUOUS
 62
   251
  5
2C
 10
915.449974
 20
57.5
 30
0.0
 11
915.449974
 21
62.19998
 31
0.0
  0
LINE
  8
LY_1
  6
CONTINUOUS
 62
   251
  5
2D
 10
915.449974
 20
62.19998
 30
0.0
 11
953.550014
 21
62.19998
 31
0.0
  0
LINE
  8
LY_1
  6
CONTINUOUS
 62
   251
  5
2E
 10
953.550014
 20
62.19998
 30
0.0
 11
953.550014
 21
57.5
 31
0.0
  0
LINE
  8
LY_1
  6
CONTINUOUS
 62
   251
  5
2F
 10
949.300014
 20
62.19998
 30
0.0
 11
949.300014
 21
80.49998
 31
0.0
  0
LINE
  8
LY_1
  6
CONTINUOUS
 62
   251
  5
30
 10
920.700004
 20
81.49998
 30
0.0
 11
948.300014
 21
81.49998
 31
0.0
  0
LINE
  8
LY_1
  6
CONTINUOUS
 62
   251
  5
31
 10
919.699974
 20
65.19998
 30
0.0
 11
949.300014
 21
65.19998
 31
0.0
  0
LINE
  8
LY_1
  6
CONTINUOUS
 62
   251
  5
32
 10
949.300044
 20
80.49997
 30
0.0
 11
948.300044
 21
81.49998
 31
0.0
  0
LINE
  8
LY_1
  6
CENTER
 62
     7
  5
34
 10
934.500024
 20
88.24274
 30
0.0
 11
934.500024
 21
54.94079
 31
0.0
  0
LINE
  8
LY_1
  6
CONTINUOUS
 62
   251
  5
35
 10
919.699974
 20
62.19998
 30
0.0
 11
919.699974
 21
80.49994
 31
0.0
  0
LINE
  8
LY_1
  6
CONTINUOUS
 62
   251
  5
36
 10
927.500024
 20
27.50346
 30
0.0
 11
914.500024
 21
27.50346
 31
0.0
  0
LINE
  8
LY_1
  6
CONTINUOUS
 62
   251
  5
37
 10
914.500024
 20
42.5
 30
0.0
 11
927.500024
 21
42.5
 31
0.0
  0
LINE
  8
LY_1
  6
CONTINUOUS
 62
   251
  5
38
 10
914.500024
 20
-42.5
 30
0.0
 11
927.500024
 21
-42.5
 31
0.0
  0
LINE
  8
LY_1
  6
CONTINUOUS
 62
   251
  5
39
 10
927.500024
 20
-42.5
 30
0.0
 11
927.500024
 21
42.5
 31
0.0
  0
LINE
  8
LY_1
  6
CONTINUOUS
 62
   251
  5
3A
 10
921.500024
 20
42.5
 30
0.0
 11
921.500024
 21
-42.5
 31
0.0
  0
LINE
  8
LY_1
  6
CONTINUOUS
 62
   251
  5
3B
 10
898.399984
 20
123.0
 30
0.0
 11
898.399984
 21
141.0
 31
0.0
  0
LINE
  8
LY_1
  6
CONTINUOUS
 62
   251
  5
3C
 10
898.400044
 20
141.00006
 30
0.0
 11
897.400044
 21
142.00006
 31
0.0
  0
LINE
  8
LY_1
  6
CONTINUOUS
 62
   251
  5
3D
 10
897.399984
 20
142.0
 30
0.0
 11
864.599994
 21
142.0
 31
0.0
  0
LINE
  8
LY_1
  6
CONTINUOUS
 62
   251
  5
3E
 10
864.599994
 20
142.0
 30
0.0
 11
863.599994
 21
141.0
 31
0.0
  0
LINE
  8
LY_1
  6
CONTINUOUS
 62
   251
  5
3F
 10
863.599994
 20
141.0
 30
0.0
 11
863.599994
 21
123.0
 31
0.0
  0
LINE
  8
LY_1
  6
CONTINUOUS
 62
   251
  5
40
 10
860.500024
 20
119.20001
 30
0.0
 11
860.500024
 21
123.0
 31
0.0
  0
LINE
  8
LY_1
  6
CONTINUOUS
 62
   251
  5
41
 10
860.500024
 20
123.0
 30
0.0
 11
901.500024
 21
123.0
 31
0.0
  0
LINE
  8
LY_1
  6
CONTINUOUS
 62
   251
  5
42
 10
901.500024
 20
123.0
 30
0.0
 11
901.500024
 21
119.20001
 31
0.0
  0
LINE
  8
LY_1
  6
CONTINUOUS
 62
   251
  5
43
 10
903.500024
 20
87.99998
 30
0.0
 11
903.500024
 21
119.20001
 31
0.0
  0
LINE
  8
LY_1
  6
CONTINUOUS
 62
   251
  5
44
 10
903.500024
 20
119.19926
 30
0.0
 11
858.500144
 21
119.19926
 31
0.0
  0
LINE
  8
LY_1
  6
CONTINUOUS
 62
   251
  5
45
 10
848.499964
 20
88.99997
 30
0.0
 11
848.499994
 21
88.00006
 31
0.0
  0
LINE
  8
LY_1
  6
CONTINUOUS
 62
   251
  5
46
 10
848.500024
 20
89.00049
 30
0.0
 11
903.500024
 21
89.00049
 31
0.0
  0
LINE
  8
LY_1
  6
CENTER
 62
     7
  5
47
 10
881.000024
 20
112.06555
 30
0.0
 11
881.000024
 21
149.35609
 31
0.0
  0
LINE
  8
LY_1
  6
CONTINUOUS
 62
   251
  5
48
 10
953.999964
 20
33.48492
 30
0.0
 11
952.499964
 21
34.34735
 31
0.0
  0
LINE
  8
LY_1
  6
CONTINUOUS
 62
   251
  5
49
 10
927.500024
 20
34.34738
 30
0.0
 11
952.500024
 21
34.34738
 31
0.0
  0
LINE
  8
LY_1
  6
CONTINUOUS
 62
   251
  5
4A
 10
785.000024
 20
-57.5
 30
0.0
 11
914.500024
 21
-57.5
 31
0.0
  0
LINE
  8
LY_1
  6
CONTINUOUS
 62
   251
  5
4B
 10
914.500024
 20
-27.50366
 30
0.0
 11
927.500024
 21
-27.50366
 31
0.0
  0
LINE
  8
LY_1
  6
CONTINUOUS
 62
   251
  5
4C
 10
927.500054
 20
-40.03473
 30
0.0
 11
951.855914
 21
-39.18418
 31
0.0
  0
LINE
  8
LY_1
  6
CONTINUOUS
 62
   251
  5
4D
 10
954.000024
 20
-30.0
 30
0.0
 11
954.000024
 21
57.5
 31
0.0
  0
LINE
  8
LY_1
  6
CONTINUOUS
 62
   251
  5
4E
 10
915.000024
 20
42.5
 30
0.0
 11
915.000024
 21
57.5
 31
0.0
  0
LINE
  8
LY_1
  6
CONTINUOUS
 62
   251
  5
4F
 10
919.700004
 20
80.49997
 30
0.0
 11
920.700004
 21
81.49998
 31
0.0
  0
ARC
  8
LY_1
  6
CONTINUOUS
 62
   251
  5
50
 10
923.951864
 20
-29.99307
 30
0.0
 40
30.048155
 50
343.61989
 51
359.9868
  0
ARC
  8
LY_1
  6
CONTINUOUS
 62
   251
  5
51
 10
951.821004
 20
-38.18491
 30
0.0
 40
1.0
 50
272.000742
 51
343.61965
  0
ARC
  8
LY_1
  6
CONTINUOUS
 62
   251
  5
52
 10
908.420554
 20
85.91333
 30
0.0
 40
60.0
 50
146.30542
 51
177.05067
  0
LINE
  8
LY_1
  6
CONTINUOUS
 62
   251
  5
53
 10
785.000024
 20
-73.806
 30
0.0
 11
767.000024
 21
-73.806
 31
0.0
  0
LINE
  8
LY_1
  6
CONTINUOUS
 62
   251
  5
54
 10
785.000024
 20
73.806
 30
0.0
 11
767.000024
 21
73.806
 31
0.0
  0
LINE
  8
LY_1
  6
CONTINUOUS
 62
   251
  5
55
 10
767.000024
 20
-88.0
 30
0.0
 11
914.500024
 21
-88.0
 31
0.0
  0
LINE
  8
LY_1
  6
CONTINUOUS
 62
   251
  5
56
 10
914.500024
 20
88.0
 30
0.0
 11
767.000024
 21
88.0
 31
0.0
  0
ARC
  8
LY_1
  6
CONTINUOUS
 62
   251
  5
57
 10
0.0
 20
0.0
 30
0.0
 40
150.0
 50
67.605595
 51
112.394403
  0
ARC
  8
LY_1
  6
CONTINUOUS
 62
   251
  5
58
 10
-9.738312
 20
160.600004
 30
0.0
 40
1.4
 50
101.605676
 51
169.999966
  0
ARC
  8
LY_1
  6
CONTINUOUS
 62
   251
  5
59
 10
-6.399994
 20
155.799999
 30
0.0
 40
1.4
 50
269.999963
 51
0.0
  0
ARC
  8
LY_1
  6
CONTINUOUS
 62
   251
  5
5A
 10
6.399994
 20
155.799999
 30
0.0
 40
1.4
 50
179.999978
 51
270.000028
  0
ARC
  8
LY_1
  6
CONTINUOUS
 62
   251
  5
5B
 10
0.0
 20
199.000006
 30
0.0
 40
5.0
 50
0.0
 51
179.999964
  0
ARC
  8
LY_1
  6
CONTINUOUS
 62
   251
  5
5C
 10
9.738312
 20
160.600004
 30
0.0
 40
1.4
 50
9.999995
 51
78.394289
  0
ARC
  8
LY_1
  6
CONTINUOUS
 62
   251
  5
5D
 10
598.406389
 20
154.055939
 30
0.0
 40
6.0
 50
126.423865
 51
189.999962
  0
ARC
  8
LY_1
  6
CONTINUOUS
 62
   251
  5
5E
 10
561.593626
 20
154.055939
 30
0.0
 40
6.0
 50
349.863635
 51
53.576154
  0
ARC
  8
LY_1
  6
CONTINUOUS
 62
   251
  5
5F
 10
589.234865
 20
160.0
 30
0.0
 40
2.0
 50
9.999995
 51
89.999982
  0
ARC
  8
LY_1
  6
CONTINUOUS
 62
   251
  5
60
 10
570.765131
 20
160.0
 30
0.0
 40
2.0
 50
89.999982
 51
170.000021
  0
CIRCLE
  8
LY_1
  6
CONTINUOUS
 62
   251
  5
61
 10
579.999998
 20
179.000006
 30
0.0
 40
15.0
  0
ARC
  8
LY_1
  6
CONTINUOUS
 62
   251
  5
62
 10
579.999998
 20
179.000006
 30
0.0
 40
25.0
 50
306.423846
 51
233.576132
  0
CIRCLE
  8
LY_1
  6
CONTINUOUS
 62
   251
  5
63
 10
0.0
 20
0.0
 30
0.0
 40
7.0
  0
ARC
  8
LY_1
  6
CONTINUOUS
 62
   251
  5
64
 10
651.000001
 20
48.909248
 30
0.0
 40
5.0
 50
179.999991
 51
270.000001
  0
ARC
  8
LY_1
  6
CONTINUOUS
 62
   251
  5
65
 10
740.000017
 20
48.909248
 30
0.0
 40
5.0
 50
269.999997
 51
0.0
  0
ARC
  8
LY_1
  6
CONTINUOUS
 62
   251
  5
66
 10
740.000017
 20
-48.909245
 30
0.0
 40
5.0
 50
0.0
 51
90.000003
  0
ARC
  8
LY_1
  6
CONTINUOUS
 62
   251
  5
67
 10
651.000001
 20
-48.909245
 30
0.0
 40
5.0
 50
90.000003
 51
180.000005
  0
ARC
  8
LY_1
  6
CONTINUOUS
 62
   251
  5
68
 10
678.000009
 20
143.000002
 30
0.0
 40
5.0
 50
0.0
 51
90.000003
  0
ARC
  8
LY_1
  6
CONTINUOUS
 62
   251
  5
69
 10
641.000001
 20
100.544732
 30
0.0
 40
5.0
 50
0.0
 51
90.000003
  0
ARC
  8
LY_1
  6
CONTINUOUS
 62
   251
  5
6A
 10
628.000009
 20
-115.0
 30
0.0
 40
5.0
 50
90.000003
 51
180.000005
  0
ARC
  8
LY_1
  6
CONTINUOUS
 62
   251
  5
6B
 10
641.000001
 20
-105.0
 30
0.0
 40
5.0
 50
269.999997
 51
0.0
  0
ARC
  8
LY_1
  6
CONTINUOUS
 62
   251
  5
6C
 10
0.0
 20
-31.999998
 30
0.0
 40
180.0
 50
0.0
 51
179.999964
  0
ARC
  8
LY_1
  6
CONTINUOUS
 62
   251
  5
6D
 10
379.377439
 20
-101.909676
 30
0.0
 40
70.0
 50
310.673771
 51
353.363179
  0
CIRCLE
  8
LY_1
  6
CONTINUOUS
 62
   251
  5
6E
 10
483.000009
 20
-85.0
 30
0.0
 40
7.4
  0
CIRCLE
  8
LY_1
  6
CONTINUOUS
 62
   251
  5
6F
 10
484.999998
 20
0.0
 30
0.0
 40
8.50755
  0
ARC
  8
LY_1
  6
CONTINUOUS
 62
   251
  5
70
 10
394.999998
 20
0.0
 30
0.0
 40
10.0
 50
269.999997
 51
90.000003
  0
ARC
  8
LY_1
  6
CONTINUOUS
 62
   251
  5
71
 10
0.0
 20
0.0
 30
0.0
 40
37.5
 50
15.46601
 51
344.53399
  0
CIRCLE
  8
LY_1
  6
CONTINUOUS
 62
   251
  5
72
 10
0.0
 20
0.0
 30
0.0
 40
75.0
  0
CIRCLE
  8
LY_1
  6
CONTINUOUS
 62
     7
  5
73
 10
0.0
 20
0.0
 30
0.0
 40
8.0
  0
ARC
  8
LY_1
  6
CENTER
 62
     7
  5
74
 10
0.0
 20
0.0
 30
0.0
 40
132.5
 50
287.791971
 51
297.31889
  0
ARC
  8
LY_1
  6
CENTER
 62
     7
  5
75
 10
0.0
 20
0.0
 30
0.0
 40
95.0
 50
266.41867
 51
274.115405
  0
ARC
  8
LY_1
  6
CENTER
 62
     7
  5
76
 10
0.0
 20
0.0
 30
0.0
 40
95.0
 50
326.418671
 51
334.115403
  0
ARC
  8
LY_1
  6
CENTER
 62
     7
  5
77
 10
0.0
 20
0.0
 30
0.0
 40
132.5
 50
332.791972
 51
342.318889
  0
ARC
  8
LY_1
  6
CENTER
 62
     7
  5
78
 10
0.0
 20
0.0
 30
0.0
 40
132.5
 50
17.791972
 51
27.31889
  0
ARC
  8
LY_1
  6
CENTER
 62
     7
  5
79
 10
0.0
 20
0.0
 30
0.0
 40
95.0
 50
26.418671
 51
34.115402
  0
ARC
  8
LY_1
  6
CENTER
 62
     7
  5
7A
 10
0.0
 20
0.0
 30
0.0
 40
132.5
 50
62.791971
 51
72.31889
  0
ARC
  8
LY_1
  6
CENTER
 62
     7
  5
7B
 10
0.0
 20
0.0
 30
0.0
 40
95.0
 50
86.418675
 51
94.115403
  0
ARC
  8
LY_1
  6
CENTER
 62
     7
  5
7C
 10
0.0
 20
0.0
 30
0.0
 40
132.5
 50
107.791969
 51
117.318895
  0
ARC
  8
LY_1
  6
CENTER
 62
     7
  5
7D
 10
0.0
 20
0.0
 30
0.0
 40
95.0
 50
206.418675
 51
214.115397
  0
ARC
  8
LY_1
  6
CENTER
 62
     7
  5
7E
 10
0.0
 20
0.0
 30
0.0
 40
95.0
 50
146.41867
 51
154.115405
  0
ARC
  8
LY_1
  6
CENTER
 62
     7
  5
7F
 10
0.0
 20
0.0
 30
0.0
 40
132.5
 50
152.791974
 51
162.318886
  0
ARC
  8
LY_1
  6
CENTER
 62
     7
  5
80
 10
0.0
 20
0.0
 30
0.0
 40
132.5
 50
197.791968
 51
207.318894
  0
ARC
  8
LY_1
  6
CENTER
 62
     7
  5
81
 10
0.0
 20
0.0
 30
0.0
 40
132.5
 50
242.791973
 51
252.318892
  0
ARC
  8
LY_1
  6
CONTINUOUS
 62
   251
  5
82
 10
449.938486
 20
-64.132204
 30
0.0
 40
3.0
 50
355.000103
 51
89.999982
  0
ARC
  8
LY_1
  6
CONTINUOUS
 62
   251
  5
83
 10
625.000017
 20
30.366211
 30
0.0
 40
100.0
 50
179.999978
 51
219.999983
  0
ARC
  8
LY_1
  6
CONTINUOUS
 62
   251
  5
84
 10
668.65236
 20
-115.0
 30
0.0
 40
40.0
 50
219.999987
 51
270.000018
  0
ARC
  8
LY_1
  6
CONTINUOUS
 62
   251
  5
85
 10
488.000009
 20
126.194701
 30
0.0
 40
15.0
 50
275.000024
 51
0.0
  0
ARC
  8
LY_1
  6
CONTINUOUS
 62
   251
  5
86
 10
488.000009
 20
-140.0
 30
0.0
 40
15.0
 50
270.000018
 51
0.0
  0
ARC
  8
LY_1
  6
CONTINUOUS
 62
   251
  5
87
 10
479.999998
 20
120.475707
 30
0.0
 40
10.0
 50
274.999969
 51
0.0
  0
ARC
  8
LY_1
  6
CONTINUOUS
 62
   251
  5
88
 10
-115.0
 20
-48.989744
 30
0.0
 40
15.0
 50
0.0
 51
23.073914
  0
ARC
  8
LY_1
  6
CONTINUOUS
 62
   251
  5
89
 10
115.0
 20
-48.989744
 30
0.0
 40
15.0
 50
156.92611
 51
179.999964
  0
ARC
  8
LY_1
  6
CONTINUOUS
 62
   251
  5
8A
 10
21.735001
 20
110.890017
 30
0.0
 40
3.0
 50
179.999978
 51
258.910424
  0
ARC
  8
LY_1
  6
CONTINUOUS
 62
   251
  5
8B
 10
-21.735001
 20
110.890017
 30
0.0
 40
3.0
 50
281.089554
 51
0.0
  0
ARC
  8
LY_1
  6
CONTINUOUS
 62
   251
  5
8C
 10
-15.734978
 20
144.299197
 30
0.0
 40
3.0
 50
95.100733
 51
179.999964
  0
ARC
  8
LY_1
  6
CONTINUOUS
 62
   251
  5
8D
 10
15.734978
 20
144.299197
 30
0.0
 40
3.0
 50
0.0
 51
84.899286
  0
ARC
  8
LY_1
  6
CONTINUOUS
 62
   251
  5
8E
 10
-66.140556
 20
-106.068001
 30
0.0
 40
15.0
 50
58.053767
 51
170.000021
  0
ARC
  8
LY_1
  6
CONTINUOUS
 62
   251
  5
8F
 10
66.140556
 20
-106.068001
 30
0.0
 40
15.0
 50
9.999968
 51
121.946416
  0
ARC
  8
LY_1
  6
CONTINUOUS
 62
   251
  5
90
 10
-120.586472
 20
-140.0
 30
0.0
 40
15.0
 50
270.000018
 51
349.999992
  0
ARC
  8
LY_1
  6
CONTINUOUS
 62
   251
  5
91
 10
120.586548
 20
-140.0
 30
0.0
 40
15.0
 50
189.999979
 51
270.000018
  0
ARC
  8
LY_1
  6
CONTINUOUS
 62
   251
  5
92
 10
-27.999992
 20
-160.0
 30
0.0
 40
3.0
 50
270.000018
 51
0.0
  0
ARC
  8
LY_1
  6
CONTINUOUS
 62
   251
  5
93
 10
27.999992
 20
-160.0
 30
0.0
 40
3.0
 50
179.999978
 51
270.000028
  0
ARC
  8
LY_1
  6
CONTINUOUS
 62
   251
  5
94
 10
85.0
 20
-185.0
 30
0.0
 40
5.0
 50
0.0
 51
89.999982
  0
ARC
  8
LY_1
  6
CONTINUOUS
 62
   251
  5
95
 10
-85.0
 20
-185.0
 30
0.0
 40
5.0
 50
89.999982
 51
179.999964
  0
ARC
  8
LY_1
  6
CONTINUOUS
 62
   251
  5
96
 10
82.000008
 20
-155.0
 30
0.0
 40
8.0
 50
270.000018
 51
0.0
  0
ARC
  8
LY_1
  6
CONTINUOUS
 62
   251
  5
97
 10
-82.000008
 20
-155.0
 30
0.0
 40
8.0
 50
179.999978
 51
270.000028
  0
CIRCLE
  8
LY_1
  6
CONTINUOUS
 62
   251
  5
98
 10
0.0
 20
0.0
 30
0.0
 40
110.0
  0
LINE
  8
LY_1
  6
CONTINUOUS
 62
   251
  5
99
 10
395.0
 20
10.0
 30
0.0
 11
395.0
 21
-10.0
 31
0.0
  0
LINE
  8
LY_1
  6
CONTINUOUS
 62
   251
  5
9A
 10
42.0
 20
10.0
 30
0.0
 11
42.0
 21
-10.0
 31
0.0
  0
LINE
  8
LY_1
  6
CONTINUOUS
 62
   251
  5
9B
 10
-5.0
 20
166.469975
 30
0.0
 11
-11.19236
 21
166.469975
 31
0.0
  0
LINE
  8
LY_1
  6
CONTINUOUS
 62
   251
  5
9C
 10
-12.064469
 20
155.469971
 30
0.0
 11
-13.453407
 21
155.469971
 31
0.0
  0
LINE
  8
LY_1
  6
CONTINUOUS
 62
     7
  5
9D
 10
-7.203574
 20
162.54979
 30
0.0
 11
-11.19233
 21
166.469983
 31
0.0
  0
LINE
  8
LY_1
  6
CONTINUOUS
 62
     7
  5
9E
 10
7.203669
 20
162.549776
 30
0.0
 11
11.192436
 21
166.469979
 31
0.0
  0
LINE
  8
LY_1
  6
CONTINUOUS
 62
   251
  5
9F
 10
-11.19236
 20
166.469975
 30
0.0
 11
-11.19236
 21
160.415946
 31
0.0
  0
LINE
  8
LY_1
  6
CONTINUOUS
 62
   251
  5
A0
 10
11.192474
 20
166.469975
 30
0.0
 11
11.192474
 21
160.415321
 31
0.0
  0
LINE
  8
LY_1
  6
CONTINUOUS
 62
   251
  5
A1
 10
-13.453383
 20
155.469948
 30
0.0
 11
-13.264084
 21
149.4124
 31
0.0
  0
LINE
  8
LY_1
  6
CONTINUOUS
 62
   251
  5
A2
 10
13.453489
 20
155.470002
 30
0.0
 11
13.264189
 21
149.412387
 31
0.0
  0
LINE
  8
LY_1
  6
CONTINUOUS
 62
   251
  5
A3
 10
13.453522
 20
155.469971
 30
0.0
 11
12.064473
 21
155.469971
 31
0.0
  0
LINE
  8
LY_1
  6
CONTINUOUS
 62
   251
  5
A4
 10
11.192474
 20
166.469975
 30
0.0
 11
5.0
 21
166.469975
 31
0.0
  0
LINE
  8
LY_1
  6
CONTINUOUS
 62
   251
  5
A5
 10
567.499998
 20
153.002367
 30
0.0
 11
592.49933
 21
153.002367
 31
0.0
  0
LINE
  8
LY_1
  6
CONTINUOUS
 62
   251
  5
A6
 10
10.750008
 20
153.000002
 30
0.0
 11
10.750008
 21
149.614296
 31
0.0
  0
LINE
  8
LY_1
  6
CONTINUOUS
 62
   251
  5
A7
 10
-0.000007
 20
153.000019
 30
0.0
 11
3.000012
 21
149.999999
 31
0.0
  0
LINE
  8
LY_1
  6
CONTINUOUS
 62
   251
  5
A8
 10
0.000006
 20
149.999986
 30
0.0
 11
-3.000013
 21
153.000005
 31
0.0
  0
LINE
  8
LY_1
  6
CONTINUOUS
 62
   251
  5
A9
 10
-10.750008
 20
153.000002
 30
0.0
 11
-10.750008
 21
149.614296
 31
0.0
  0
LINE
  8
LY_1
  6
CONTINUOUS
 62
   251
  5
AA
 10
580.000009
 20
153.002366
 30
0.0
 11
583.000002
 21
150.002373
 31
0.0
  0
LINE
  8
LY_1
  6
CONTINUOUS
 62
   251
  5
AB
 10
579.999996
 20
150.00236
 30
0.0
 11
576.99999
 21
153.002366
 31
0.0
  0
LINE
  8
LY_1
  6
CONTINUOUS
 62
   251
  5
AC
 10
569.24999
 20
153.002367
 30
0.0
 11
569.24999
 21
150.0
 31
0.0
  0
LINE
  8
LY_1
  6
CONTINUOUS
 62
   251
  5
AD
 10
590.750024
 20
153.002367
 30
0.0
 11
590.750024
 21
150.0
 31
0.0
  0
LINE
  8
LY_1
  6
CONTINUOUS
 62
   251
  5
AE
 10
-12.5
 20
153.000002
 30
0.0
 11
12.5
 21
153.000002
 31
0.0
  0
LINE
  8
LY_1
  6
CONTINUOUS
 62
   251
  5
AF
 10
-5.0
 20
199.000006
 30
0.0
 11
-5.0
 21
155.799999
 31
0.0
  0
LINE
  8
LY_1
  6
CONTINUOUS
 62
   251
  5
B0
 10
-5.000017
 20
163.002344
 30
0.0
 11
-10.019946
 21
161.971379
 31
0.0
  0
LINE
  8
LY_1
  6
CONTINUOUS
 62
   251
  5
B1
 10
-11.11704
 20
160.843109
 30
0.0
 11
-12.499992
 21
153.000001
 31
0.0
  0
LINE
  8
LY_1
  6
CONTINUOUS
 62
   251
  5
B2
 10
5.0
 20
199.000006
 30
0.0
 11
5.0
 21
155.799999
 31
0.0
  0
LINE
  8
LY_1
  6
CONTINUOUS
 62
   251
  5
B3
 10
4.99999
 20
163.002355
 30
0.0
 11
10.019956
 21
161.971382
 31
0.0
  0
LINE
  8
LY_1
  6
CONTINUOUS
 62
   251
  5
B4
 10
11.117044
 20
160.84311
 30
0.0
 11
12.499995
 21
153.000007
 31
0.0
  0
LINE
  8
LY_1
  6
CONTINUOUS
 62
   251
  5
B5
 10
556.499994
 20
150.0
 30
0.0
 11
556.499994
 21
-43.5711
 31
0.0
  0
LINE
  8
LY_1
  6
CONTINUOUS
 62
   251
  5
B6
 10
524.999998
 20
150.0
 30
0.0
 11
603.000009
 21
150.0
 31
0.0
  0
LINE
  8
LY_1
  6
CENTER
 62
     7
  5
B7
 10
544.999998
 20
179.000006
 30
0.0
 11
615.000017
 21
179.000006
 31
0.0
  0
LINE
  8
LY_1
  6
CONTINUOUS
 62
   251
  5
B8
 10
580.423388
 20
163.954568
 30
0.0
 11
589.658153
 21
161.954588
 31
0.0
  0
LINE
  8
LY_1
  6
CONTINUOUS
 62
   251
  5
B9
 10
570.341869
 20
161.954494
 30
0.0
 11
579.576747
 21
163.954499
 31
0.0
  0
LINE
  8
LY_1
  6
CONTINUOUS
 62
   251
  5
BA
 10
570.765131
 20
161.999998
 30
0.0
 11
589.234865
 21
161.999998
 31
0.0
  0
LINE
  8
LY_1
  6
CONTINUOUS
 62
   251
  5
BB
 10
591.204198
 20
160.347274
 30
0.0
 11
592.499304
 21
153.002366
 31
0.0
  0
LINE
  8
LY_1
  6
CONTINUOUS
 62
   251
  5
BC
 10
567.499997
 20
153.002373
 30
0.0
 11
568.795119
 21
160.34737
 31
0.0
  0
LINE
  8
LY_1
  6
CENTER
 62
     7
  5
BD
 10
579.999998
 20
218.114414
 30
0.0
 11
579.999998
 21
143.908539
 31
0.0
  0
LINE
  8
LY_1
  6
CONTINUOUS
 62
   251
  5
BE
 10
651.000001
 20
43.909249
 30
0.0
 11
740.000017
 21
43.909249
 31
0.0
  0
LINE
  8
LY_1
  6
CONTINUOUS
 62
   251
  5
BF
 10
646.000001
 20
68.721558
 30
0.0
 11
745.000017
 21
68.721558
 31
0.0
  0
LINE
  8
LY_1
  6
CONTINUOUS
 62
   251
  5
C0
 10
646.000001
 20
58.114952
 30
0.0
 11
745.000017
 21
58.114952
 31
0.0
  0
LINE
  8
LY_1
  6
CONTINUOUS
 62
   251
  5
C1
 10
651.000001
 20
-43.909245
 30
0.0
 11
740.000017
 21
-43.909245
 31
0.0
  0
LINE
  8
LY_1
  6
CONTINUOUS
 62
   251
  5
C2
 10
646.000001
 20
-68.721561
 30
0.0
 11
745.000017
 21
-68.721561
 31
0.0
  0
LINE
  8
LY_1
  6
CONTINUOUS
 62
   251
  5
C3
 10
646.000001
 20
-58.114948
 30
0.0
 11
745.000017
 21
-58.114948
 31
0.0
  0
LINE
  8
LY_1
  6
CONTINUOUS
 62
   251
  5
C4
 10
745.000017
 20
88.0
 30
0.0
 11
745.000017
 21
-88.000002
 31
0.0
  0
LINE
  8
LY_1
  6
CONTINUOUS
 62
   251
  5
C5
 10
767.000024
 20
88.0
 30
0.0
 11
767.000024
 21
-88.000002
 31
0.0
  0
LINE
  8
LY_1
  6
CONTINUOUS
 62
     7
  5
C6
 10
658.000018
 20
155.470008
 30
0.0
 11
646.80763
 21
166.470008
 31
0.0
  0
LINE
  8
LY_1
  6
CONTINUOUS
 62
     7
  5
C7
 10
658.000015
 20
166.470007
 30
0.0
 11
669.192403
 21
155.470007
 31
0.0
  0
LINE
  8
LY_1
  6
CONTINUOUS
 62
     7
  5
C8
 10
657.999995
 20
155.469995
 30
0.0
 11
669.192383
 21
166.469995
 31
0.0
  0
LINE
  8
LY_1
  6
CONTINUOUS
 62
     7
  5
C9
 10
646.80761
 20
155.469994
 30
0.0
 11
657.999999
 21
166.469994
 31
0.0
  0
LINE
  8
LY_1
  6
CONTINUOUS
 62
   251
  5
CA
 10
646.807611
 20
166.470003
 30
0.0
 11
646.807611
 21
155.469999
 31
0.0
  0
LINE
  8
LY_1
  6
CONTINUOUS
 62
   251
  5
CB
 10
669.192407
 20
166.470003
 30
0.0
 11
669.192407
 21
155.469999
 31
0.0
  0
LINE
  8
LY_1
  6
CONTINUOUS
 62
   251
  5
CC
 10
644.546575
 20
155.470006
 30
0.0
 11
644.780013
 21
148.000002
 31
0.0
  0
LINE
  8
LY_1
  6
CONTINUOUS
 62
   251
  5
CD
 10
671.453449
 20
155.470002
 30
0.0
 11
671.220012
 21
147.999999
 31
0.0
  0
LINE
  8
LY_1
  6
CONTINUOUS
 62
   251
  5
CE
 10
671.453454
 20
155.469999
 30
0.0
 11
644.546564
 21
155.469999
 31
0.0
  0
LINE
  8
LY_1
  6
CONTINUOUS
 62
   251
  5
CF
 10
669.192407
 20
166.470003
 30
0.0
 11
646.807611
 21
166.470003
 31
0.0
  0
LINE
  8
LY_1
  6
CENTER
 62
     7
  5
D0
 10
658.000009
 20
171.047974
 30
0.0
 11
658.000009
 21
143.879576
 31
0.0
  0
LINE
  8
LY_1
  6
CONTINUOUS
 62
   251
  5
D1
 10
623.000009
 20
105.544732
 30
0.0
 11
641.000001
 21
105.544732
 31
0.0
  0
LINE
  8
LY_1
  6
CONTINUOUS
 62
   251
  5
D2
 10
683.000009
 20
143.000002
 30
0.0
 11
683.000009
 21
68.721558
 31
0.0
  0
LINE
  8
LY_1
  6
CONTINUOUS
 62
   251
  5
D3
 10
628.000009
 20
-110.0
 30
0.0
 11
641.000001
 21
-110.0
 31
0.0
  0
LINE
  8
LY_1
  6
CONTINUOUS
 62
   251
  5
D4
 10
646.000001
 20
100.544732
 30
0.0
 11
646.000001
 21
-105.0
 31
0.0
  0
LINE
  8
LY_1
  6
CONTINUOUS
 62
   251
  5
D5
 10
745.000017
 20
-88.000002
 30
0.0
 11
767.000024
 21
-88.000002
 31
0.0
  0
LINE
  8
LY_1
  6
CONTINUOUS
 62
   251
  5
D6
 10
745.000017
 20
88.0
 30
0.0
 11
767.000024
 21
88.0
 31
0.0
  0
LINE
  8
LY_1
  6
CONTINUOUS
 62
   251
  5
D7
 10
623.000009
 20
142.769561
 30
0.0
 11
623.000009
 21
-122.822723
 31
0.0
  0
LINE
  8
LY_1
  6
CONTINUOUS
 62
   251
  5
D8
 10
603.000009
 20
148.000002
 30
0.0
 11
678.000009
 21
148.000002
 31
0.0
  0
LINE
  8
LY_1
  6
CONTINUOUS
 62
   251
  5
D9
 10
603.000009
 20
150.0
 30
0.0
 11
603.000009
 21
-98.987656
 31
0.0
  0
LINE
  8
LY_1
  6
CONTINUOUS
 62
     7
  5
DA
 10
115.649996
 20
0.000004
 30
0.0
 11
124.649998
 21
8.071073
 31
0.0
  0
LINE
  8
LY_1
  6
CONTINUOUS
 62
     7
  5
DB
 10
124.650003
 20
-0.000009
 30
0.0
 11
115.650001
 21
8.07106
 31
0.0
  0
LINE
  8
LY_1
  6
CONTINUOUS
 62
     7
  5
DC
 10
124.649992
 20
-8.071078
 30
0.0
 11
115.649992
 21
-0.000007
 31
0.0
  0
LINE
  8
LY_1
  6
CONTINUOUS
 62
     7
  5
DD
 10
115.650007
 20
-8.071056
 30
0.0
 11
124.65001
 21
0.000012
 31
0.0
  0
LINE
  8
LY_1
  6
CONTINUOUS
 62
   251
  5
DE
 10
124.650002
 20
8.07107
 30
0.0
 11
115.650024
 21
8.07107
 31
0.0
  0
LINE
  8
LY_1
  6
CONTINUOUS
 62
   251
  5
DF
 10
124.650002
 20
-8.071065
 30
0.0
 11
115.650024
 21
-8.071065
 31
0.0
  0
LINE
  8
LY_1
  6
CONTINUOUS
 62
   251
  5
E0
 10
115.65001
 20
8.507561
 30
0.0
 11
109.684828
 21
8.32115
 31
0.0
  0
LINE
  8
LY_1
  6
CONTINUOUS
 62
   251
  5
E1
 10
115.650027
 20
-8.507561
 30
0.0
 11
109.684807
 21
-8.321147
 31
0.0
  0
LINE
  8
LY_1
  6
CONTINUOUS
 62
   251
  5
E2
 10
115.650024
 20
-8.507562
 30
0.0
 11
115.650024
 21
8.507562
 31
0.0
  0
LINE
  8
LY_1
  6
CONTINUOUS
 62
   251
  5
E3
 10
124.650002
 20
-8.07107
 30
0.0
 11
124.650002
 21
8.07107
 31
0.0
  0
LINE
  8
LY_1
  6
DASHED
 62
     7
  5
E5
 10
438.999994
 20
-155.0
 30
0.0
 11
438.999994
 21
-185.0
 31
0.0
  0
LINE
  8
LY_1
  6
DASHED
 62
     7
  5
E6
 10
461.000001
 20
-155.0
 30
0.0
 11
461.000001
 21
-185.0
 31
0.0
  0
LINE
  8
LY_1
  6
CENTER
 62
     7
  5
E7
 10
449.999998
 20
-148.235359
 30
0.0
 11
449.999998
 21
-191.285152
 31
0.0
  0
LINE
  8
LY_1
  6
CONTINUOUS
 62
   251
  5
E8
 10
424.999998
 20
-155.0
 30
0.0
 11
424.999998
 21
-185.0
 31
0.0
  0
LINE
  8
LY_1
  6
CONTINUOUS
 62
   251
  5
E9
 10
424.999998
 20
-155.0
 30
0.0
 11
488.000009
 21
-155.0
 31
0.0
  0
LINE
  8
LY_1
  6
CONTINUOUS
 62
   251
  5
EA
 10
424.999998
 20
-185.0
 30
0.0
 11
724.999979
 21
-185.0
 31
0.0
  0
LINE
  8
LY_1
  6
CONTINUOUS
 62
   251
  5
EB
 10
493.484703
 20
0.000507
 30
0.0
 11
484.999422
 21
-8.484772
 31
0.0
  0
LINE
  8
LY_1
  6
CONTINUOUS
 62
   251
  5
EC
 10
485.000001
 20
-8.485232
 30
0.0
 11
476.514715
 21
0.000056
 31
0.0
  0
LINE
  8
LY_1
  6
CONTINUOUS
 62
   251
  5
ED
 10
484.999524
 20
8.485726
 30
0.0
 11
476.514243
 21
0.000447
 31
0.0
  0
LINE
  8
LY_1
  6
CONTINUOUS
 62
   251
  5
EE
 10
493.485345
 20
-0.000085
 30
0.0
 11
485.000071
 21
8.485188
 31
0.0
  0
LINE
  8
LY_1
  6
CENTER
 62
     7
  5
EF
 10
484.999998
 20
-14.733973
 30
0.0
 11
484.999998
 21
14.48544
 31
0.0
  0
LINE
  8
LY_1
  6
CENTER
 62
     7
  5
F0
 10
483.000009
 20
-75.0
 30
0.0
 11
483.000009
 21
-95.0
 31
0.0
  0
LINE
  8
LY_1
  6
CENTER
 62
     7
  5
F1
 10
473.000009
 20
-85.0
 30
0.0
 11
493.000009
 21
-85.0
 31
0.0
  0
LINE
  8
LY_1
  6
CONTINUOUS
 62
   251
  5
F2
 10
300.0
 20
10.0
 30
0.0
 11
394.999998
 21
10.0
 31
0.0
  0
LINE
  8
LY_1
  6
CONTINUOUS
 62
   251
  5
F3
 10
300.0
 20
-10.0
 30
0.0
 11
394.999998
 21
-10.0
 31
0.0
  0
LINE
  8
LY_1
  6
CONTINUOUS
 62
   251
  5
F4
 10
409.999998
 20
-42.5
 30
0.0
 11
416.999996
 21
-42.5
 31
0.0
  0
LINE
  8
LY_1
  6
CONTINUOUS
 62
   251
  5
F5
 10
409.999998
 20
42.5
 30
0.0
 11
416.999996
 21
42.5
 31
0.0
  0
LINE
  8
LY_1
  6
CONTINUOUS
 62
   251
  5
F6
 10
409.999998
 20
42.5
 30
0.0
 11
409.999998
 21
-42.5
 31
0.0
  0
LINE
  8
LY_1
  6
CONTINUOUS
 62
   251
  5
F7
 10
300.0
 20
-37.5
 30
0.0
 11
409.999998
 21
-37.5
 31
0.0
  0
LINE
  8
LY_1
  6
CONTINUOUS
 62
   251
  5
F8
 10
300.0
 20
37.5
 30
0.0
 11
409.999998
 21
37.5
 31
0.0
  0
LINE
  8
LY_1
  6
CONTINUOUS
 62
   251
  5
F9
 10
300.0
 20
37.5
 30
0.0
 11
300.0
 21
-37.5
 31
0.0
  0
LINE
  8
LY_1
  6
CONTINUOUS
 62
   251
  5
FA
 10
427.000005
 20
110.0
 30
0.0
 11
474.999025
 21
110.0
 31
0.0
  0
LINE
  8
LY_1
  6
CONTINUOUS
 62
   251
  5
FB
 10
417.000316
 20
74.999471
 30
0.0
 11
427.00033
 21
80.772981
 31
0.0
  0
LINE
  8
LY_1
  6
CONTINUOUS
 62
   251
  5
FC
 10
416.999996
 20
75.000123
 30
0.0
 11
416.999996
 21
-75.0
 31
0.0
  0
LINE
  8
LY_1
  6
CONTINUOUS
 62
   251
  5
FD
 10
427.000005
 20
-110.0
 30
0.0
 11
448.937013
 21
-110.0
 31
0.0
  0
LINE
  8
LY_1
  6
CONTINUOUS
 62
   251
  5
FE
 10
416.999876
 20
-75.000397
 30
0.0
 11
426.999866
 21
-80.773893
 31
0.0
  0
LINE
  8
LY_1
  6
CONTINUOUS
 62
   251
  5
FF
 10
444.999998
 20
110.0
 30
0.0
 11
444.999998
 21
-110.0
 31
0.0
  0
LINE
  8
LY_1
  6
CONTINUOUS
 62
   251
  5
100
 10
427.000005
 20
110.0
 30
0.0
 11
427.000005
 21
-110.0
 31
0.0
  0
LINE
  8
LY_1
  6
CONTINUOUS
 62
   251
  5
101
 10
30.0
 20
10.0
 30
0.0
 11
30.0
 21
-10.0
 31
0.0
  0
LINE
  8
LY_1
  6
CONTINUOUS
 62
   251
  5
102
 10
42.0
 20
-10.0
 30
0.0
 11
30.0
 21
-10.0
 31
0.0
  0
LINE
  8
LY_1
  6
CONTINUOUS
 62
   251
  5
103
 10
42.0
 20
10.0
 30
0.0
 11
30.0
 21
10.0
 31
0.0
  0
LINE
  8
LY_1
  6
CENTER
 62
     7
  5
104
 10
47.643074
 20
-115.020505
 30
0.0
 11
53.560416
 21
-129.306234
 31
0.0
  0
LINE
  8
LY_1
  6
CENTER
 62
     7
  5
105
 10
76.444367
 20
-44.13542
 30
0.0
 11
87.303943
 21
-50.4052
 31
0.0
  0
LINE
  8
LY_1
  6
CENTER
 62
     7
  5
106
 10
115.020475
 20
-47.642986
 30
0.0
 11
129.306203
 21
-53.560329
 31
0.0
  0
LINE
  8
LY_1
  6
CENTER
 62
     7
  5
107
 10
115.020457
 20
47.643039
 30
0.0
 11
129.306256
 21
53.56041
 31
0.0
  0
LINE
  8
LY_1
  6
CENTER
 62
     7
  5
108
 10
76.444507
 20
44.135122
 30
0.0
 11
87.304149
 21
50.404939
 31
0.0
  0
LINE
  8
LY_1
  6
CENTER
 62
     7
  5
109
 10
47.642996
 20
115.0206
 30
0.0
 11
53.560343
 21
129.306337
 31
0.0
  0
LINE
  8
LY_1
  6
CENTER
 62
     7
  5
10A
 10
-47.643104
 20
115.020508
 30
0.0
 11
-53.560453
 21
129.306254
 31
0.0
  0
LINE
  8
LY_1
  6
CENTER
 62
     7
  5
10B
 10
-76.444558
 20
-44.134992
 30
0.0
 11
-87.3042
 21
-50.404809
 31
0.0
  0
LINE
  8
LY_1
  6
CENTER
 62
     7
  5
10C
 10
-76.444349
 20
44.135374
 30
0.0
 11
-87.304024
 21
50.405211
 31
0.0
  0
LINE
  8
LY_1
  6
CENTER
 62
     7
  5
10D
 10
-115.020564
 20
47.643059
 30
0.0
 11
-129.306292
 21
53.560402
 31
0.0
  0
LINE
  8
LY_1
  6
CENTER
 62
     7
  5
10E
 10
-115.020513
 20
-47.643173
 30
0.0
 11
-129.306277
 21
-53.560529
 31
0.0
  0
LINE
  8
LY_1
  6
CENTER
 62
     7
  5
10F
 10
-47.643046
 20
-115.020533
 30
0.0
 11
-53.560389
 21
-129.306261
 31
0.0
  0
LINE
  8
LY_1
  6
CONTINUOUS
 62
   251
  5
110
 10
448.937597
 20
-110.000059
 30
0.0
 11
452.927635
 21
-64.393752
 31
0.0
  0
LINE
  8
LY_1
  6
CONTINUOUS
 62
   251
  5
111
 10
548.395401
 20
-33.912428
 30
0.0
 11
638.01045
 21
-140.711471
 31
0.0
  0
LINE
  8
LY_1
  6
DASHED
 62
     7
  5
112
 10
688.999994
 20
-155.0
 30
0.0
 11
688.999994
 21
-185.0
 31
0.0
  0
LINE
  8
LY_1
  6
DASHED
 62
     7
  5
113
 10
711.000001
 20
-155.0
 30
0.0
 11
711.000001
 21
-185.0
 31
0.0
  0
LINE
  8
LY_1
  6
CONTINUOUS
 62
   251
  5
114
 10
668.65236
 20
-155.0
 30
0.0
 11
724.999979
 21
-155.0
 31
0.0
  0
LINE
  8
LY_1
  6
CENTER
 62
     7
  5
115
 10
699.999979
 20
-148.235359
 30
0.0
 11
699.999979
 21
-190.142326
 31
0.0
  0
LINE
  8
LY_1
  6
CONTINUOUS
 62
   251
  5
116
 10
724.999979
 20
-155.0
 30
0.0
 11
724.999979
 21
-185.0
 31
0.0
  0
LINE
  8
LY_1
  6
CONTINUOUS
 62
   251
  5
117
 10
489.999998
 20
148.000002
 30
0.0
 11
489.999998
 21
120.475707
 31
0.0
  0
LINE
  8
LY_1
  6
CONTINUOUS
 62
   251
  5
118
 10
489.999998
 20
148.000002
 30
0.0
 11
524.999998
 21
148.000002
 31
0.0
  0
LINE
  8
LY_1
  6
CONTINUOUS
 62
   251
  5
119
 10
503.000009
 20
148.000002
 30
0.0
 11
503.000009
 21
-140.0
 31
0.0
  0
LINE
  8
LY_1
  6
CONTINUOUS
 62
   251
  5
11A
 10
524.999998
 20
150.0
 30
0.0
 11
524.999998
 21
30.366211
 31
0.0
  0
LINE
  8
LY_1
  6
CONTINUOUS
 62
   251
  5
11B
 10
474.999976
 20
109.999541
 30
0.0
 11
489.307506
 21
111.251288
 31
0.0
  0
LINE
  8
LY_1
  6
DASHED
 62
     7
  5
11C
 10
-160.999985
 20
-155.0
 30
0.0
 11
-160.999985
 21
-185.0
 31
0.0
  0
LINE
  8
LY_1
  6
DASHED
 62
     7
  5
11D
 10
-139.000015
 20
-155.0
 30
0.0
 11
-139.000015
 21
-185.0
 31
0.0
  0
LINE
  8
LY_1
  6
DASHED
 62
     7
  5
11E
 10
160.999985
 20
-155.0
 30
0.0
 11
160.999985
 21
-185.0
 31
0.0
  0
LINE
  8
LY_1
  6
DASHED
 62
     7
  5
11F
 10
139.000015
 20
-155.0
 30
0.0
 11
139.000015
 21
-185.0
 31
0.0
  0
LINE
  8
LY_1
  6
CENTER
 62
     7
  5
120
 10
85.0
 20
-85.0
 30
0.0
 11
107.118454
 21
-85.0
 31
0.0
  0
LINE
  8
LY_1
  6
CONTINUOUS
 62
   251
  5
121
 10
18.73497
 20
144.299197
 30
0.0
 11
18.73497
 21
110.890017
 31
0.0
  0
LINE
  8
LY_1
  6
CONTINUOUS
 62
   251
  5
122
 10
-18.73497
 20
144.299197
 30
0.0
 11
-18.73497
 21
110.890017
 31
0.0
  0
LINE
  8
LY_1
  6
CONTINUOUS
 62
   251
  5
123
 10
-100.0
 20
-48.989744
 30
0.0
 11
-100.0
 21
-109.629879
 31
0.0
  0
LINE
  8
LY_1
  6
CONTINUOUS
 62
   251
  5
124
 10
100.0
 20
-48.989744
 30
0.0
 11
100.0
 21
-109.629517
 31
0.0
  0
LINE
  8
LY_1
  6
CONTINUOUS
 62
   251
  5
125
 10
105.814479
 20
-142.604759
 30
0.0
 11
100.000067
 21
-109.629567
 31
0.0
  0
LINE
  8
LY_1
  6
CONTINUOUS
 62
   251
  5
126
 10
-105.814332
 20
-142.604706
 30
0.0
 11
-99.999955
 21
-109.62974
 31
0.0
  0
LINE
  8
LY_1
  6
CONTINUOUS
 62
   251
  5
127
 10
-90.000046
 20
-154.999932
 30
0.0
 11
-80.912727
 21
-103.463198
 31
0.0
  0
LINE
  8
LY_1
  6
CONTINUOUS
 62
   251
  5
128
 10
90.000009
 20
-155.000044
 30
0.0
 11
80.912694
 21
-103.46329
 31
0.0
  0
LINE
  8
LY_1
  6
CONTINUOUS
 62
   251
  5
129
 10
27.999992
 20
-162.999992
 30
0.0
 11
82.000008
 21
-162.999992
 31
0.0
  0
LINE
  8
LY_1
  6
CONTINUOUS
 62
   251
  5
12A
 10
90.0
 20
-155.0
 30
0.0
 11
180.0
 21
-155.0
 31
0.0
  0
LINE
  8
LY_1
  6
CONTINUOUS
 62
   251
  5
12B
 10
90.0
 20
-185.0
 30
0.0
 11
180.0
 21
-185.0
 31
0.0
  0
LINE
  8
LY_1
  6
CONTINUOUS
 62
   251
  5
12C
 10
-82.000008
 20
-162.999992
 30
0.0
 11
-27.999992
 21
-162.999992
 31
0.0
  0
LINE
  8
LY_1
  6
CONTINUOUS
 62
   251
  5
12D
 10
-85.0
 20
-180.0
 30
0.0
 11
85.0
 21
-180.0
 31
0.0
  0
LINE
  8
LY_1
  6
CONTINUOUS
 62
   251
  5
12E
 10
90.0
 20
-155.0
 30
0.0
 11
90.0
 21
-185.0
 31
0.0
  0
LINE
  8
LY_1
  6
CONTINUOUS
 62
   251
  5
12F
 10
-90.0
 20
-155.0
 30
0.0
 11
-90.0
 21
-185.0
 31
0.0
  0
LINE
  8
LY_1
  6
CENTER
 62
     7
  5
130
 10
150.0
 20
-149.05859
 30
0.0
 11
150.0
 21
-191.775875
 31
0.0
  0
LINE
  8
LY_1
  6
CENTER
 62
     7
  5
131
 10
-150.0
 20
-149.05859
 30
0.0
 11
-150.0
 21
-190.589352
 31
0.0
  0
LINE
  8
LY_1
  6
CONTINUOUS
 62
   251
  5
132
 10
-180.0
 20
-155.0
 30
0.0
 11
-90.0
 21
-155.0
 31
0.0
  0
LINE
  8
LY_1
  6
CONTINUOUS
 62
   251
  5
133
 10
-180.0
 20
-31.999998
 30
0.0
 11
-180.0
 21
-185.0
 31
0.0
  0
LINE
  8
LY_1
  6
CONTINUOUS
 62
   251
  5
134
 10
180.0
 20
-31.999998
 30
0.0
 11
180.0
 21
-185.0
 31
0.0
  0
LINE
  8
LY_1
  6
CONTINUOUS
 62
   251
  5
135
 10
-180.0
 20
-185.0
 30
0.0
 11
-90.0
 21
-185.0
 31
0.0
  0
LINE
  8
LY_1
  6
CENTER
 62
     7
  5
136
 10
-192.132719
 20
0.0
 30
0.0
 11
192.132719
 21
0.0
 31
0.0
  0
LINE
  8
LY_1
  6
CENTER
 62
     7
  5
137
 10
0.0
 20
219.000006
 30
0.0
 11
0.0
 21
-195.0
 31
0.0
  0
LINE
  8
LY_1
  6
CENTER
 62
     7
  5
138
 10
285.0
 20
0.0
 30
0.0
 11
970.351838
 21
0.0
 31
0.0
  0
ENDSEC
  0
EOF
