  0
SECTION
  2
HEADER
  9
$ACADVER
  1
AC1009
  9
$DWGCODEPAGE
  3
dos932
  9
$INSBASE
 10
0.0
 20
0.0
 30
0.0
  9
$EXTMIN
 10
-137.500027
 20
-152.000132
 30
0.0
  9
$EXTMAX
 10
772.107317
 20
168.999939
 30
0.0
  9
$LIMMIN
 10
-137.500027
 20
-152.000132
  9
$LIMMAX
 10
772.107317
 20
168.999939
  9
$ORTHOMODE
 70
     0
  9
$REGENMODE
 70
     1
  9
$FILLMODE
 70
     1
  9
$QTEXTMODE
 70
     0
  9
$MIRRTEXT
 70
     1
  9
$DRAGMODE
 70
     2
  9
$LTSCALE
 40
1.0
  9
$OSMODE
 70
     0
  9
$ATTMODE
 70
     1
  9
$TEXTSIZE
 40
3.15
  9
$TRACEWID
 40
0.05
  9
$TEXTSTYLE
  7
MX_NOTE_STANDARD
  9
$CLAYER
  8
LY_1
  9
$CELTYPE
  6
CONTINUOUS
  9
$CECOLOR
 62
   256
  9
$DIMSCALE
 40
1.0
  9
$DIMASZ
 40
2.5
  9
$DIMEXO
 40
1.0
  9
$DIMDLI
 40
3.75
  9
$DIMRND
 40
0.0
  9
$DIMDLE
 40
0.0
  9
$DIMEXE
 40
1.5
  9
$DIMTP
 40
0.0
  9
$DIMTM
 40
0.0
  9
$DIMTXT
 40
3.15
  9
$DIMCEN
 40
2.5
  9
$DIMTSZ
 40
0.0
  9
$DIMTOL
 70
     0
  9
$DIMLIM
 70
     0
  9
$DIMTIH
 70
     0
  9
$DIMTOH
 70
     0
  9
$DIMSE1
 70
     0
  9
$DIMSE2
 70
     0
  9
$DIMTAD
 70
     1
  9
$DIMZIN
 70
     8
  9
$DIMBLK
  1

  9
$DIMASO
 70
     1
  9
$DIMSHO
 70
     1
  9
$DIMPOST
  1

  9
$DIMAPOST
  1

  9
$DIMALT
 70
     0
  9
$DIMALTD
 70
     4
  9
$DIMALTF
 40
0.03937
  9
$DIMLFAC
 40
1.0
  9
$DIMTOFL
 70
     1
  9
$DIMTVP
 40
0.0
  9
$DIMTIX
 70
     0
  9
$DIMSOXD
 70
     0
  9
$DIMSAH
 70
     0
  9
$DIMBLK1
  1

  9
$DIMBLK2
  1

  9
$DIMSTYLE
  2
MXDIMSTYLE
  9
$DIMCLRD
 70
     0
  9
$DIMCLRE
 70
     0
  9
$DIMCLRT
 70
     0
  9
$DIMTFAC
 40
1.0
  9
$DIMGAP
 40
1.0
  9
$LUNITS
 70
     2
  9
$LUPREC
 70
     4
  9
$AXISMODE
 70
     0
  9
$AXISUNIT
 10
0.0
 20
0.0
  9
$SKETCHINC
 40
0.1
  9
$FILLETRAD
 40
0.0
  9
$AUNITS
 70
     0
  9
$AUPREC
 70
     0
  9
$MENU
  1
acad
  9
$ELEVATION
 40
0.0
  9
$PELEVATION
 40
0.0
  9
$THICKNESS
 40
0.0
  9
$LIMCHECK
 70
     0
  9
$BLIPMODE
 70
     1
  9
$CHAMFERA
 40
0.0
  9
$CHAMFERB
 40
0.0
  9
$SKPOLY
 70
     0
  9
$TDCREATE
 40
2453665.670115741
  9
$TDUPDATE
 40
2453665.670115741
  9
$TDINDWG
 40
0.0000000000
  9
$TDUSRTIMER
 40
0.0000000000
  9
$USRTIMER
 70
     1
  9
$ANGBASE
 50
0.0
  9
$ANGDIR
 70
     0
  9
$PDMODE
 70
     0
  9
$PDSIZE
 40
0.0
  9
$PLINEWID
 40
0.0
  9
$COORDS
 70
     1
  9
$SPLFRAME
 70
     0
  9
$SPLINETYPE
 70
     6
  9
$SPLINESEGS
 70
     8
  9
$ATTDIA
 70
     0
  9
$ATTREQ
 70
     1
  9
$HANDLING
 70
     1
  9
$HANDSEED
  5
15E
  9
$SURFTAB1
 70
     6
  9
$SURFTAB2
 70
     6
  9
$SURFTYPE
 70
     6
  9
$SURFU
 70
     6
  9
$SURFV
 70
     6
  9
$UCSNAME
  2

  9
$UCSORG
 10
0.0
 20
0.0
 30
0.0
  9
$UCSXDIR
 10
1.0
 20
0.0
 30
0.0
  9
$UCSYDIR
 10
0.0
 20
1.0
 30
0.0
  9
$PUCSNAME
  2

  9
$PUCSORG
 10
0.0
 20
0.0
 30
0.0
  9
$PUCSXDIR
 10
1.0
 20
0.0
 30
0.0
  9
$PUCSYDIR
 10
0.0
 20
1.0
 30
0.0
  9
$USERI1
 70
     0
  9
$USERI2
 70
     0
  9
$USERI3
 70
     0
  9
$USERI4
 70
     0
  9
$USERI5
 70
     0
  9
$USERR1
 40
0.0
  9
$USERR2
 40
0.0
  9
$USERR3
 40
0.0
  9
$USERR4
 40
0.0
  9
$USERR5
 40
0.0
  9
$WORLDVIEW
 70
     1
  9
$SHADEDGE
 70
     3
  9
$SHADEDIF
 70
    70
  9
$TILEMODE
 70
     1
  9
$MAXACTVP
 70
    16
  9
$PINSBASE
 10
0.0
 20
0.0
 30
0.0
  9
$PLIMCHECK
 70
     0
  9
$PEXTMIN
 10
1.000000E+20
 20
1.000000E+20
 30
1.000000E+20
  9
$PEXTMAX
 10
-1.000000E+20
 20
-1.000000E+20
 30
-1.000000E+20
  9
$PLIMMIN
 10
0.0
 20
0.0
  9
$PLIMMAX
 10
12.0
 20
9.0
  9
$UNITMODE
 70
     0
  9
$VISRETAIN
 70
     0
  9
$PLINEGEN
 70
     1
  9
$PSLTSCALE
 70
     0
  9
$TREEDEPTH
 70
  3020
  9
$DWGCODEPAGE
  3
dos932
  0
ENDSEC
  0
SECTION
  2
TABLES
  0
TABLE
  2
VPORT
 70
     1
  0
VPORT
  2
*ACTIVE
 70
     0
 10
0.0
 20
0.0
 11
1.0
 21
1.0
 12
317.303645
 22
8.499904
 13
0.0
 23
0.0
 14
1.0
 24
1.0
 15
0.0
 25
0.0
 16
0.0
 26
0.0
 36
1.0
 17
0.0
 27
0.0
 37
0.0
 40
324.210071
 41
1.732051
 42
50.0
 43
0.0
 44
0.0
 50
0.0
 51
0.0
 71
     0
 72
   100
 73
     1
 74
     1
 75
     0
 76
     0
 77
     0
 78
     0
  0
ENDTAB
  0
TABLE
  2
LTYPE
 70
     3
  0
LTYPE
  2
CONTINUOUS
 70
    64
  3
Solid line
 72
    65
 73
     0
 40
0.0
  0
LTYPE
  2
CENTER
 70
    64
  3
Center ____ _ ____ _ ____ _ ____ _ ____ _ ____
 72
    65
 73
     4
 40
50.8
 49
31.75
 49
-6.35
 49
6.35
 49
-6.35
  0
LTYPE
  2
DASHED
 70
    64
  3
Dashed __ __ __ __ __ __ __ __ __ __ __ __ __ _
 72
    65
 73
     2
 40
19.05
 49
12.7
 49
-6.35
  0
ENDTAB
  0
TABLE
  2
LAYER
 70
     3
  0
LAYER
  2
0
 70
     0
 62
     7
  6
CONTINUOUS
  0
LAYER
  2
LY_1
 70
     0
 62
     7
  6
CONTINUOUS
  0
LAYER
  2
DEFPOINTS
 70
     0
 62
     7
  6
CONTINUOUS
  0
ENDTAB
  0
TABLE
  2
STYLE
 70
     1
  0
STYLE
  2
MX_NOTE_STANDARD
 70
     0
 40
0.0
 41
1.0
 50
0.0
 71
     0
 42
3.15
  3
txt.shx
  4
extfont.shx
  0
ENDTAB
  0
TABLE
  2
VIEW
 70
     0
  0
ENDTAB
  0
TABLE
  2
UCS
 70
     0
  0
ENDTAB
  0
TABLE
  2
APPID
 70
     1
  0
APPID
  2
ACAD
 70
     0
  0
ENDTAB
  0
TABLE
  2
DIMSTYLE
 70
     1
  0
DIMSTYLE
  2
MXDIMSTYLE
 70
     0
  3

  4

  5

  6

  7

 40
1.0
 41
2.5
 42
1.0
 43
3.75
 44
1.5
 45
0.0
 46
0.0
 47
0.0
 48
0.0
 71
     0
 72
     0
 73
     0
 74
     0
 75
     0
 76
     0
 77
     1
 78
     8
140
3.15
141
2.5
142
0.0
143
0.03937
144
1.0
145
0.0
146
1.0
147
1.0
170
     0
171
     4
172
     1
173
     0
174
     0
175
     0
176
     0
177
     0
178
     0
  0
ENDTAB
  0
ENDSEC
  0
SECTION
  2
BLOCKS
  0
ENDSEC
  0
SECTION
  2
ENTITIES
  0
LINE
  8
LY_1
  6
CONTINUOUS
 62
   251
  5
1F
 10
9.700321
 20
119.20001
 30
0.0
 11
23.0
 21
119.20001
 31
0.0
  0
LINE
  8
LY_1
  6
CONTINUOUS
 62
   251
  5
20
 10
9.03028
 20
123.0
 30
0.0
 11
23.0
 21
123.0
 31
0.0
  0
LINE
  8
LY_1
  6
CONTINUOUS
 62
   251
  5
21
 10
4.000015
 20
142.0
 30
0.0
 11
16.3999
 21
142.0
 31
0.0
  0
LINE
  8
LY_1
  6
CONTINUOUS
 62
   251
  5
22
 10
-23.0
 20
119.20001
 30
0.0
 11
-9.700178
 21
119.20001
 31
0.0
  0
LINE
  8
LY_1
  6
CONTINUOUS
 62
   251
  5
23
 10
16.3999
 20
142.00001
 30
0.0
 11
17.3999
 21
141.00001
 31
0.0
  0
LINE
  8
LY_1
  6
CONTINUOUS
 62
   251
  5
24
 10
-17.40003
 20
140.99998
 30
0.0
 11
-16.40003
 21
142.00001
 31
0.0
  0
LINE
  8
LY_1
  6
CONTINUOUS
 62
   251
  5
25
 10
-16.40003
 20
142.0
 30
0.0
 11
-3.999939
 21
142.0
 31
0.0
  0
LINE
  8
LY_1
  6
CONTINUOUS
 62
   251
  5
26
 10
-17.40003
 20
141.0
 30
0.0
 11
-17.40003
 21
123.0
 31
0.0
  0
LINE
  8
LY_1
  6
CONTINUOUS
 62
   251
  5
27
 10
17.3999
 20
123.0
 30
0.0
 11
17.3999
 21
141.0
 31
0.0
  0
LINE
  8
LY_1
  6
CONTINUOUS
 62
   251
  5
28
 10
-23.0
 20
123.0
 30
0.0
 11
-9.030137
 21
123.0
 31
0.0
  0
LINE
  8
LY_1
  6
CONTINUOUS
 62
   251
  5
29
 10
23.0
 20
112.676528
 30
0.0
 11
23.0
 21
123.0
 31
0.0
  0
LINE
  8
LY_1
  6
CONTINUOUS
 62
   251
  5
2A
 10
-23.0
 20
112.676528
 30
0.0
 11
-23.0
 21
123.0
 31
0.0
  0
LINE
  8
LY_1
  6
CONTINUOUS
 62
   251
  5
2B
 10
709.500638
 20
36.998288
 30
0.0
 11
632.000638
 21
36.999649
 31
0.0
  0
LINE
  8
LY_1
  6
CONTINUOUS
 62
   251
  5
2C
 10
632.000568
 20
32.999649
 30
0.0
 11
709.500568
 21
32.998288
 31
0.0
  0
LINE
  8
LY_1
  6
CONTINUOUS
 62
   251
  5
2D
 10
709.500498
 20
28.998288
 30
0.0
 11
632.000498
 21
28.999649
 31
0.0
  0
LINE
  8
LY_1
  6
CONTINUOUS
 62
   251
  5
2E
 10
632.000428
 20
24.999649
 30
0.0
 11
709.500428
 21
24.998288
 31
0.0
  0
LINE
  8
LY_1
  6
CONTINUOUS
 62
   251
  5
2F
 10
631.99955
 20
-25.000351
 30
0.0
 11
709.49955
 21
-25.001712
 31
0.0
  0
LINE
  8
LY_1
  6
CONTINUOUS
 62
   251
  5
30
 10
631.999479
 20
-29.000351
 30
0.0
 11
709.499479
 21
-29.001712
 31
0.0
  0
LINE
  8
LY_1
  6
CONTINUOUS
 62
   251
  5
31
 10
631.999409
 20
-33.000351
 30
0.0
 11
709.499409
 21
-33.001712
 31
0.0
  0
LINE
  8
LY_1
  6
CONTINUOUS
 62
   251
  5
32
 10
631.999339
 20
-37.000351
 30
0.0
 11
709.499339
 21
-37.001712
 31
0.0
  0
LINE
  8
LY_1
  6
CONTINUOUS
 62
   251
  5
33
 10
717.498443
 20
-88.001853
 30
0.0
 11
717.501534
 21
87.998147
 31
0.0
  0
LINE
  8
LY_1
  6
CONTINUOUS
 62
   251
  5
34
 10
709.498443
 20
-88.001712
 30
0.0
 11
709.501534
 21
87.998288
 31
0.0
  0
LINE
  8
LY_1
  6
CONTINUOUS
 62
   251
  5
35
 10
631.998443
 20
-88.000351
 30
0.0
 11
632.001534
 21
87.999649
 31
0.0
  0
LINE
  8
LY_1
  6
CONTINUOUS
 62
   251
  5
36
 10
629.998443
 20
-88.000316
 30
0.0
 11
630.001534
 21
87.999684
 31
0.0
  0
LINE
  8
LY_1
  6
CONTINUOUS
 62
   251
  5
37
 10
630.000998
 20
57.499684
 30
0.0
 11
757.000998
 21
57.497454
 31
0.0
  0
LINE
  8
LY_1
  6
CONTINUOUS
 62
   251
  5
38
 10
718.450978
 20
57.498131
 30
0.0
 11
718.451061
 21
62.198111
 31
0.0
  0
LINE
  8
LY_1
  6
CONTINUOUS
 62
   251
  5
39
 10
718.451061
 20
62.198111
 30
0.0
 11
756.551071
 21
62.197442
 31
0.0
  0
LINE
  8
LY_1
  6
CONTINUOUS
 62
   251
  5
3A
 10
756.551071
 20
62.197442
 30
0.0
 11
756.550988
 21
57.497462
 31
0.0
  0
LINE
  8
LY_1
  6
CONTINUOUS
 62
   251
  5
3B
 10
752.301071
 20
62.197516
 30
0.0
 11
752.301392
 21
80.497516
 31
0.0
  0
LINE
  8
LY_1
  6
CONTINUOUS
 62
   251
  5
3C
 10
723.70138
 20
81.498019
 30
0.0
 11
751.30141
 21
81.497534
 31
0.0
  0
LINE
  8
LY_1
  6
CONTINUOUS
 62
   251
  5
3D
 10
752.301422
 20
80.497536
 30
0.0
 11
751.30144
 21
81.497554
 31
0.0
  0
LINE
  8
LY_1
  6
CENTER
 62
     7
  5
3F
 10
737.501538
 20
88.240536
 30
0.0
 11
737.500953
 21
54.938586
 31
0.0
  0
LINE
  8
LY_1
  6
CONTINUOUS
 62
   251
  5
40
 10
722.701061
 20
62.198036
 30
0.0
 11
722.701382
 21
80.498056
 31
0.0
  0
LINE
  8
LY_1
  6
CONTINUOUS
 62
   251
  5
41
 10
730.500471
 20
27.501379
 30
0.0
 11
717.500471
 21
27.501607
 31
0.0
  0
LINE
  8
LY_1
  6
CONTINUOUS
 62
   251
  5
42
 10
717.500735
 20
42.498147
 30
0.0
 11
730.500735
 21
42.497919
 31
0.0
  0
LINE
  8
LY_1
  6
CONTINUOUS
 62
   251
  5
43
 10
717.499242
 20
-42.501853
 30
0.0
 11
730.499242
 21
-42.502081
 31
0.0
  0
LINE
  8
LY_1
  6
CONTINUOUS
 62
   251
  5
44
 10
701.402138
 20
122.99843
 30
0.0
 11
701.402454
 21
140.99843
 31
0.0
  0
LINE
  8
LY_1
  6
CONTINUOUS
 62
   251
  5
45
 10
701.402484
 20
140.99847
 30
0.0
 11
700.402502
 21
141.998488
 31
0.0
  0
LINE
  8
LY_1
  6
CONTINUOUS
 62
   251
  5
46
 10
700.402472
 20
141.998448
 30
0.0
 11
667.602482
 21
141.999024
 31
0.0
  0
LINE
  8
LY_1
  6
CONTINUOUS
 62
   251
  5
47
 10
667.602482
 20
141.999024
 30
0.0
 11
666.602464
 21
140.999041
 31
0.0
  0
LINE
  8
LY_1
  6
CONTINUOUS
 62
   251
  5
48
 10
666.602464
 20
140.999041
 30
0.0
 11
666.602148
 21
122.999041
 31
0.0
  0
LINE
  8
LY_1
  6
CONTINUOUS
 62
   251
  5
49
 10
663.502112
 20
119.199106
 30
0.0
 11
663.502178
 21
122.999096
 31
0.0
  0
LINE
  8
LY_1
  6
CONTINUOUS
 62
   251
  5
4A
 10
663.502178
 20
122.999096
 30
0.0
 11
704.502148
 21
122.998376
 31
0.0
  0
LINE
  8
LY_1
  6
CONTINUOUS
 62
   251
  5
4B
 10
704.502148
 20
122.998376
 30
0.0
 11
704.502082
 21
119.198386
 31
0.0
  0
LINE
  8
LY_1
  6
CONTINUOUS
 62
   251
  5
4C
 10
706.501534
 20
87.998321
 30
0.0
 11
706.502082
 21
119.198351
 31
0.0
  0
LINE
  8
LY_1
  6
CONTINUOUS
 62
   251
  5
4D
 10
706.502082
 20
119.197601
 30
0.0
 11
661.502202
 21
119.198391
 31
0.0
  0
LINE
  8
LY_1
  6
CONTINUOUS
 62
   251
  5
4E
 10
651.501551
 20
88.999216
 30
0.0
 11
651.501564
 21
87.999286
 31
0.0
  0
LINE
  8
LY_1
  6
CENTER
 62
     7
  5
4F
 10
684.001956
 20
112.064286
 30
0.0
 11
684.002611
 21
149.354826
 31
0.0
  0
LINE
  8
LY_1
  6
CONTINUOUS
 62
   251
  5
50
 10
629.998979
 20
-57.500316
 30
0.0
 11
717.498979
 21
-57.501853
 31
0.0
  0
LINE
  8
LY_1
  6
CONTINUOUS
 62
   251
  5
51
 10
717.499506
 20
-27.505513
 30
0.0
 11
730.499506
 21
-27.505741
 31
0.0
  0
LINE
  8
LY_1
  6
CONTINUOUS
 62
   251
  5
52
 10
730.499316
 20
-40.036901
 30
0.0
 11
754.85522
 21
-39.186778
 31
0.0
  0
LINE
  8
LY_1
  6
CONTINUOUS
 62
   251
  5
53
 10
756.999462
 20
-30.002546
 30
0.0
 11
757.000998
 21
57.497454
 31
0.0
  0
LINE
  8
LY_1
  6
CONTINUOUS
 62
   251
  5
54
 10
722.701382
 20
80.498056
 30
0.0
 11
723.7014
 21
81.498039
 31
0.0
  0
LINE
  8
LY_1
  6
CONTINUOUS
 62
   251
  5
55
 10
730.500735
 20
42.497919
 30
0.0
 11
730.500735
 21
-42.502081
 31
0.0
  0
LINE
  8
LY_1
  6
CONTINUOUS
 62
   251
  5
56
 10
724.006956
 20
42.497919
 30
0.0
 11
724.006956
 21
-42.501967
 31
0.0
  0
ARC
  8
LY_1
  6
CONTINUOUS
 62
   251
  5
57
 10
726.951302
 20
-29.995089
 30
0.0
 40
30.048155
 50
343.618884
 51
359.985794
  0
ARC
  8
LY_1
  6
CONTINUOUS
 62
   251
  5
58
 10
754.820298
 20
-38.187418
 30
0.0
 40
1.0
 50
271.999736
 51
343.618644
  0
ARC
  8
LY_1
  6
CONTINUOUS
 62
   251
  5
59
 10
711.422027
 20
85.911584
 30
0.0
 40
60.0
 50
146.304414
 51
177.049664
  0
LINE
  8
LY_1
  6
CONTINUOUS
 62
   251
  5
5A
 10
629.998693
 20
-73.806316
 30
0.0
 11
611.998693
 21
-73.806
 31
0.0
  0
LINE
  8
LY_1
  6
CONTINUOUS
 62
   251
  5
5B
 10
630.001285
 20
73.805684
 30
0.0
 11
612.001285
 21
73.806
 31
0.0
  0
LINE
  8
LY_1
  6
CONTINUOUS
 62
   251
  5
5C
 10
611.998443
 20
-88.0
 30
0.0
 11
717.498443
 21
-88.001853
 31
0.0
  0
LINE
  8
LY_1
  6
CONTINUOUS
 62
   251
  5
5D
 10
717.501534
 20
87.998147
 30
0.0
 11
612.001534
 21
88.0
 31
0.0
  0
LINE
  8
LY_1
  6
CONTINUOUS
 62
   251
  5
5E
 10
525.999996
 20
129.650003
 30
0.0
 11
525.999996
 21
120.650003
 31
0.0
  0
ARC
  8
LY_1
  6
CONTINUOUS
 62
   251
  5
5F
 10
0.0
 20
0.0
 30
0.0
 40
116.5
 50
130.942744
 51
139.057256
  0
ARC
  8
LY_1
  6
CONTINUOUS
 62
   251
  5
60
 10
0.0
 20
0.0
 30
0.0
 40
116.5
 50
40.942744
 51
49.057256
  0
ARC
  8
LY_1
  6
CONTINUOUS
 62
   251
  5
61
 10
5.200043
 20
119.899902
 30
0.0
 40
1.2
 50
179.999978
 51
270.000028
  0
ARC
  8
LY_1
  6
CONTINUOUS
 62
   251
  5
62
 10
-5.199966
 20
119.899902
 30
0.0
 40
1.2
 50
269.999963
 51
0.0
  0
ARC
  8
LY_1
  6
CONTINUOUS
 62
   251
  5
63
 10
7.758865
 20
123.299866
 30
0.0
 40
1.2
 50
10.000001
 51
79.058053
  0
ARC
  8
LY_1
  6
CONTINUOUS
 62
   251
  5
64
 10
0.0
 20
154.999847
 30
0.0
 40
4.0
 50
0.0
 51
179.999964
  0
ARC
  8
LY_1
  6
CONTINUOUS
 62
   251
  5
65
 10
-7.758789
 20
123.299866
 30
0.0
 40
1.2
 50
100.941911
 51
169.999966
  0
CIRCLE
  8
LY_1
  6
CONTINUOUS
 62
   251
  5
66
 10
488.999996
 20
138.500006
 30
0.0
 40
12.5
  0
ARC
  8
LY_1
  6
CONTINUOUS
 62
   251
  5
67
 10
502.914524
 20
118.334773
 30
0.0
 40
4.0
 50
124.606679
 51
192.045781
  0
ARC
  8
LY_1
  6
CONTINUOUS
 62
   251
  5
68
 10
475.085487
 20
118.334773
 30
0.0
 40
4.0
 50
347.954189
 51
55.393343
  0
ARC
  8
LY_1
  6
CONTINUOUS
 62
   251
  5
69
 10
488.999996
 20
138.500006
 30
0.0
 40
20.5
 50
304.60665
 51
235.393317
  0
ARC
  8
LY_1
  6
CONTINUOUS
 62
   251
  5
6A
 10
503.999996
 20
77.500002
 30
0.0
 40
5.0
 50
0.0
 51
90.000003
  0
ARC
  8
LY_1
  6
CONTINUOUS
 62
   251
  5
6B
 10
496.999989
 20
87.500012
 30
0.0
 40
5.0
 50
179.999995
 51
269.999997
  0
ARC
  8
LY_1
  6
CONTINUOUS
 62
   251
  5
6C
 10
503.999997
 20
77.499998
 30
0.0
 40
5.0
 50
0.0
 51
90.000003
  0
ARC
  8
LY_1
  6
CONTINUOUS
 62
   251
  5
6D
 10
541.999998
 20
113.000003
 30
0.0
 40
2.0
 50
0.0
 51
90.0
  0
ARC
  8
LY_1
  6
CONTINUOUS
 62
   251
  5
6E
 10
503.999997
 20
77.499999
 30
0.0
 40
5.0
 50
0.0
 51
90.000003
  0
ARC
  8
LY_1
  6
CONTINUOUS
 62
   251
  5
6F
 10
588.999998
 20
49.772075
 30
0.0
 40
5.0
 50
269.999997
 51
0.0
  0
ARC
  8
LY_1
  6
CONTINUOUS
 62
   251
  5
70
 10
513.999997
 20
49.772075
 30
0.0
 40
5.0
 50
179.999991
 51
270.000001
  0
ARC
  8
LY_1
  6
CONTINUOUS
 62
   251
  5
71
 10
503.999997
 20
77.499999
 30
0.0
 40
5.0
 50
0.0
 51
90.000003
  0
ARC
  8
LY_1
  6
CONTINUOUS
 62
   251
  5
72
 10
549.014872
 20
73.392478
 30
0.0
 40
5.0
 50
179.999991
 51
258.246599
  0
ARC
  8
LY_1
  6
CONTINUOUS
 62
   251
  5
73
 10
503.999996
 20
77.499998
 30
0.0
 40
5.0
 50
0.0
 51
90.000003
  0
ARC
  8
LY_1
  6
CONTINUOUS
 62
   251
  5
74
 10
513.999996
 20
49.772074
 30
0.0
 40
5.0
 50
179.999991
 51
270.000001
  0
ARC
  8
LY_1
  6
CONTINUOUS
 62
   251
  5
75
 10
588.999996
 20
49.772074
 30
0.0
 40
5.0
 50
269.999997
 51
0.0
  0
ARC
  8
LY_1
  6
CONTINUOUS
 62
   251
  5
76
 10
503.999996
 20
77.499998
 30
0.0
 40
5.0
 50
0.0
 51
90.000003
  0
ARC
  8
LY_1
  6
CONTINUOUS
 62
   251
  5
77
 10
588.999996
 20
-49.772081
 30
0.0
 40
5.0
 50
0.0
 51
90.000003
  0
ARC
  8
LY_1
  6
CONTINUOUS
 62
   251
  5
78
 10
513.999996
 20
-49.772081
 30
0.0
 40
5.0
 50
90.000003
 51
180.000005
  0
ARC
  8
LY_1
  6
CONTINUOUS
 62
   251
  5
79
 10
588.999996
 20
49.772074
 30
0.0
 40
5.0
 50
269.999997
 51
0.0
  0
ARC
  8
LY_1
  6
CONTINUOUS
 62
   251
  5
7A
 10
513.999996
 20
49.772074
 30
0.0
 40
5.0
 50
179.999991
 51
270.000001
  0
ARC
  8
LY_1
  6
CONTINUOUS
 62
   251
  5
7B
 10
513.999996
 20
-73.500004
 30
0.0
 40
5.0
 50
90.000003
 51
180.000005
  0
ARC
  8
LY_1
  6
CONTINUOUS
 62
   251
  5
7C
 10
588.999996
 20
-73.500004
 30
0.0
 40
5.0
 50
0.0
 51
90.000003
  0
ARC
  8
LY_1
  6
CONTINUOUS
 62
   251
  5
7D
 10
496.999989
 20
-87.50001
 30
0.0
 40
5.0
 50
90.000003
 51
180.000005
  0
ARC
  8
LY_1
  6
CONTINUOUS
 62
   251
  5
7E
 10
503.999996
 20
-77.5
 30
0.0
 40
5.0
 50
269.999997
 51
0.0
  0
ARC
  8
LY_1
  6
CONTINUOUS
 62
   251
  5
7F
 10
513.999996
 20
73.499998
 30
0.0
 40
5.0
 50
179.999991
 51
270.000001
  0
ARC
  8
LY_1
  6
CONTINUOUS
 62
   251
  5
80
 10
588.999996
 20
73.499998
 30
0.0
 40
5.0
 50
269.999997
 51
0.0
  0
ARC
  8
LY_1
  6
CONTINUOUS
 62
   251
  5
81
 10
503.999996
 20
77.499998
 30
0.0
 40
5.0
 50
0.0
 51
90.000003
  0
ARC
  8
LY_1
  6
CONTINUOUS
 62
   251
  5
82
 10
0.0
 20
0.0
 30
0.0
 40
27.5
 50
16.912124
 51
343.087544
  0
ARC
  8
LY_1
  6
CONTINUOUS
 62
   251
  5
83
 10
59.553146
 20
-85.000143
 30
0.0
 40
5.0
 50
14.999992
 51
90.000003
  0
ARC
  8
LY_1
  6
CONTINUOUS
 62
   251
  5
84
 10
-59.55307
 20
-85.000143
 30
0.0
 40
5.0
 50
90.000003
 51
164.999994
  0
ARC
  8
LY_1
  6
CENTER
 62
     7
  5
85
 10
0.0
 20
0.0
 30
0.0
 40
75.0
 50
204.950143
 51
215.413365
  0
ARC
  8
LY_1
  6
CENTER
 62
     7
  5
86
 10
0.0
 20
0.0
 30
0.0
 40
75.0
 50
264.950138
 51
275.41336
  0
ARC
  8
LY_1
  6
CENTER
 62
     7
  5
87
 10
0.0
 20
0.0
 30
0.0
 40
75.0
 50
324.95014
 51
335.413358
  0
ARC
  8
LY_1
  6
CENTER
 62
     7
  5
88
 10
0.0
 20
0.0
 30
0.0
 40
75.0
 50
24.95014
 51
35.413359
  0
ARC
  8
LY_1
  6
CENTER
 62
     7
  5
89
 10
0.0
 20
0.0
 30
0.0
 40
75.0
 50
84.950136
 51
95.413358
  0
ARC
  8
LY_1
  6
CENTER
 62
     7
  5
8A
 10
0.0
 20
0.0
 30
0.0
 40
75.0
 50
144.950138
 51
155.413359
  0
ARC
  8
LY_1
  6
CENTER
 62
     7
  5
8B
 10
0.0
 20
0.0
 30
0.0
 40
105.0
 50
107.946646
 51
117.234719
  0
ARC
  8
LY_1
  6
CENTER
 62
     7
  5
8C
 10
0.0
 20
0.0
 30
0.0
 40
105.0
 50
17.946648
 51
27.234724
  0
ARC
  8
LY_1
  6
CENTER
 62
     7
  5
8D
 10
0.0
 20
0.0
 30
0.0
 40
105.0
 50
332.946649
 51
342.234724
  0
ARC
  8
LY_1
  6
CENTER
 62
     7
  5
8E
 10
0.0
 20
0.0
 30
0.0
 40
105.0
 50
287.946647
 51
297.234721
  0
ARC
  8
LY_1
  6
CENTER
 62
     7
  5
8F
 10
0.0
 20
0.0
 30
0.0
 40
105.0
 50
242.94665
 51
252.234723
  0
ARC
  8
LY_1
  6
CENTER
 62
     7
  5
90
 10
0.0
 20
0.0
 30
0.0
 40
105.0
 50
197.946645
 51
207.234719
  0
ARC
  8
LY_1
  6
CENTER
 62
     7
  5
91
 10
0.0
 20
0.0
 30
0.0
 40
105.0
 50
152.94665
 51
162.234724
  0
ARC
  8
LY_1
  6
CENTER
 62
     7
  5
92
 10
0.0
 20
0.0
 30
0.0
 40
105.0
 50
62.946648
 51
72.234721
  0
CIRCLE
  8
LY_1
  6
CONTINUOUS
 62
   251
  5
93
 10
390.0
 20
-65.000153
 30
0.0
 40
5.5
  0
ARC
  8
LY_1
  6
CONTINUOUS
 62
   251
  5
94
 10
316.999989
 20
0.0
 30
0.0
 40
8.0
 50
269.999997
 51
90.000003
  0
ARC
  8
LY_1
  6
CONTINUOUS
 62
   251
  5
95
 10
-64.951859
 20
-37.5
 30
0.0
 40
13.0
 50
285.541137
 51
134.45894
  0
CIRCLE
  8
LY_1
  6
CONTINUOUS
 62
   251
  5
96
 10
0.0
 20
0.0
 30
0.0
 40
55.0
  0
ARC
  8
LY_1
  6
CONTINUOUS
 62
   251
  5
97
 10
0.0
 20
-75.000153
 30
0.0
 40
13.0
 50
345.540978
 51
194.458983
  0
ARC
  8
LY_1
  6
CONTINUOUS
 62
   251
  5
98
 10
64.951935
 20
-37.5
 30
0.0
 40
13.0
 50
45.541075
 51
254.458834
  0
ARC
  8
LY_1
  6
CONTINUOUS
 62
   251
  5
99
 10
64.951935
 20
37.5
 30
0.0
 40
13.0
 50
105.541169
 51
314.458904
  0
ARC
  8
LY_1
  6
CONTINUOUS
 62
   251
  5
9A
 10
0.0
 20
75.0
 30
0.0
 40
13.0
 50
165.541014
 51
14.459029
  0
ARC
  8
LY_1
  6
CONTINUOUS
 62
   251
  5
9B
 10
-64.951859
 20
37.5
 30
0.0
 40
13.0
 50
225.54106
 51
74.45885
  0
CIRCLE
  8
LY_1
  6
CONTINUOUS
 62
   251
  5
9C
 10
0.0
 20
0.0
 30
0.0
 40
87.5
  0
ARC
  8
LY_1
  6
CONTINUOUS
 62
   251
  5
9D
 10
90.336685
 20
-109.000082
 30
0.0
 40
5.0
 50
194.999951
 51
270.000018
  0
ARC
  8
LY_1
  6
CONTINUOUS
 62
   251
  5
9E
 10
-90.336456
 20
-109.000082
 30
0.0
 40
5.0
 50
270.000018
 51
344.999938
  0
ARC
  8
LY_1
  6
CONTINUOUS
 62
   251
  5
9F
 10
75.463638
 20
-53.493042
 30
0.0
 40
5.0
 50
144.668734
 51
194.999934
  0
ARC
  8
LY_1
  6
CONTINUOUS
 62
   251
  5
A0
 10
56.418762
 20
-73.302155
 30
0.0
 40
5.0
 50
15.000146
 51
127.584724
  0
ARC
  8
LY_1
  6
CONTINUOUS
 62
   251
  5
A1
 10
-75.463486
 20
-53.493042
 30
0.0
 40
5.0
 50
345.000035
 51
35.331428
  0
ARC
  8
LY_1
  6
CONTINUOUS
 62
   251
  5
A2
 10
-56.418533
 20
-73.302155
 30
0.0
 40
5.0
 50
52.415288
 51
164.999871
  0
ARC
  8
LY_1
  6
CONTINUOUS
 62
   251
  5
A3
 10
-69.499969
 20
-140.000162
 30
0.0
 40
3.0
 50
89.999982
 51
179.999964
  0
ARC
  8
LY_1
  6
CONTINUOUS
 62
   251
  5
A4
 10
69.500046
 20
-140.000162
 30
0.0
 40
3.0
 50
0.0
 51
89.999982
  0
ARC
  8
LY_1
  6
CONTINUOUS
 62
   251
  5
A5
 10
0.0
 20
0.0
 30
0.0
 40
115.0
 50
10.258394
 51
169.741621
  0
ARC
  8
LY_1
  6
CONTINUOUS
 62
   251
  5
A6
 10
398.999996
 20
-109.000082
 30
0.0
 40
5.0
 50
269.999997
 51
0.0
  0
ARC
  8
LY_1
  6
CONTINUOUS
 62
   251
  5
A7
 10
503.694153
 20
-79.000092
 30
0.0
 40
35.0
 50
219.000006
 51
269.999997
  0
CIRCLE
  8
LY_1
  6
CONTINUOUS
 62
   251
  5
A8
 10
390.0
 20
0.0
 30
0.0
 40
6.735938
  0
ARC
  8
LY_1
  6
CONTINUOUS
 62
   251
  5
A9
 10
360.418339
 20
-109.000082
 30
0.0
 40
5.0
 50
269.999997
 51
354.999997
  0
ARC
  8
LY_1
  6
CONTINUOUS
 62
   251
  5
AA
 10
365.090084
 20
-55.601501
 30
0.0
 40
5.0
 50
355.000048
 51
89.999982
  0
ARC
  8
LY_1
  6
CONTINUOUS
 62
   251
  5
AB
 10
398.999996
 20
93.502502
 30
0.0
 40
5.0
 50
273.00009
 51
0.0
  0
ARC
  8
LY_1
  6
CONTINUOUS
 62
   251
  5
AC
 10
370.0
 20
-40.443726
 30
0.0
 40
5.0
 50
0.0
 51
89.999982
  0
ARC
  8
LY_1
  6
CONTINUOUS
 62
   251
  5
AD
 10
380.0
 20
-75.000153
 30
0.0
 40
5.0
 50
179.999978
 51
270.000028
  0
LINE
  8
LY_1
  6
CONTINUOUS
 62
   251
  5
AE
 10
74.033776
 20
88.0
 30
0.0
 11
76.342976
 21
88.0
 31
0.0
  0
LINE
  8
LY_1
  6
CONTINUOUS
 62
   251
  5
AF
 10
-76.342976
 20
88.0
 30
0.0
 11
-74.033776
 21
88.0
 31
0.0
  0
LINE
  8
LY_1
  6
CONTINUOUS
 62
   251
  5
B0
 10
-88.0
 20
76.342976
 30
0.0
 11
-88.0
 21
74.033776
 31
0.0
  0
LINE
  8
LY_1
  6
CONTINUOUS
 62
   251
  5
B1
 10
88.0
 20
76.342976
 30
0.0
 11
88.0
 21
74.033776
 31
0.0
  0
LINE
  8
LY_1
  6
CONTINUOUS
 62
   251
  5
B2
 10
-3.999939
 20
127.989998
 30
0.0
 11
-5.949745
 21
127.989998
 31
0.0
  0
LINE
  8
LY_1
  6
CONTINUOUS
 62
   251
  5
B3
 10
-1.443388
 20
117.499996
 30
0.0
 11
-0.000011
 21
114.999994
 31
0.0
  0
LINE
  8
LY_1
  6
CONTINUOUS
 62
   251
  5
B4
 10
-0.000005
 20
117.499983
 30
0.0
 11
1.448636
 21
114.990863
 31
0.0
  0
LINE
  8
LY_1
  6
CONTINUOUS
 62
   251
  5
B5
 10
4.000036
 20
125.248838
 30
0.0
 11
7.986657
 21
124.478108
 31
0.0
  0
LINE
  8
LY_1
  6
CONTINUOUS
 62
   251
  5
B6
 10
4.000015
 20
154.999847
 30
0.0
 11
4.000015
 21
119.899902
 31
0.0
  0
LINE
  8
LY_1
  6
CONTINUOUS
 62
   251
  5
B7
 10
-3.999966
 20
125.248836
 30
0.0
 11
-7.98655
 21
124.478114
 31
0.0
  0
LINE
  8
LY_1
  6
CONTINUOUS
 62
   251
  5
B8
 10
-3.999939
 20
154.999847
 30
0.0
 11
-3.999939
 21
119.899902
 31
0.0
  0
LINE
  8
LY_1
  6
CONTINUOUS
 62
   251
  5
B9
 10
-10.0
 20
117.5
 30
0.0
 11
10.0
 21
117.5
 31
0.0
  0
LINE
  8
LY_1
  6
CONTINUOUS
 62
     7
  5
BA
 10
-4.036288
 20
125.417149
 30
0.0
 11
-5.949765
 21
127.990002
 31
0.0
  0
LINE
  8
LY_1
  6
CONTINUOUS
 62
     7
  5
BB
 10
5.949748
 20
127.990004
 30
0.0
 11
3.995105
 21
125.3618
 31
0.0
  0
LINE
  8
LY_1
  6
CONTINUOUS
 62
   251
  5
BC
 10
-5.949745
 20
127.989998
 30
0.0
 11
-5.949745
 21
124.871887
 31
0.0
  0
LINE
  8
LY_1
  6
CONTINUOUS
 62
   251
  5
BD
 10
5.949745
 20
127.989998
 30
0.0
 11
5.949745
 21
124.871903
 31
0.0
  0
LINE
  8
LY_1
  6
CONTINUOUS
 62
   251
  5
BE
 10
5.949745
 20
127.989998
 30
0.0
 11
4.000015
 21
127.989998
 31
0.0
  0
LINE
  8
LY_1
  6
CONTINUOUS
 62
   251
  5
BF
 10
8.940646
 20
123.508337
 30
0.0
 11
10.000087
 21
117.499952
 31
0.0
  0
LINE
  8
LY_1
  6
CONTINUOUS
 62
   251
  5
C0
 10
-8.940504
 20
123.508333
 30
0.0
 11
-9.999945
 21
117.499948
 31
0.0
  0
LINE
  8
LY_1
  6
CONTINUOUS
 62
   251
  5
C1
 10
-9.199982
 20
117.5
 30
0.0
 11
-9.199982
 21
114.63141
 31
0.0
  0
LINE
  8
LY_1
  6
CONTINUOUS
 62
   251
  5
C2
 10
9.200058
 20
117.5
 30
0.0
 11
9.200058
 21
114.631405
 31
0.0
  0
LINE
  8
LY_1
  6
CONTINUOUS
 62
   251
  5
C3
 10
497.634182
 20
115.000002
 30
0.0
 11
501.000004
 21
115.000002
 31
0.0
  0
LINE
  8
LY_1
  6
CONTINUOUS
 62
   251
  5
C4
 10
479.799995
 20
117.500002
 30
0.0
 11
479.799995
 21
115.000002
 31
0.0
  0
LINE
  8
LY_1
  6
CONTINUOUS
 62
   251
  5
C5
 10
478.999996
 20
117.500002
 30
0.0
 11
499.002599
 21
117.500002
 31
0.0
  0
LINE
  8
LY_1
  6
CONTINUOUS
 62
   251
  5
C6
 10
473.999996
 20
115.000002
 30
0.0
 11
473.999996
 21
-97.527292
 31
0.0
  0
LINE
  8
LY_1
  6
CONTINUOUS
 62
   251
  5
C7
 10
479.942879
 20
122.847291
 30
0.0
 11
488.999996
 21
126.000006
 31
0.0
  0
LINE
  8
LY_1
  6
CONTINUOUS
 62
   251
  5
C8
 10
488.999996
 20
126.000006
 30
0.0
 11
498.05713
 21
122.847303
 31
0.0
  0
LINE
  8
LY_1
  6
CONTINUOUS
 62
   251
  5
C9
 10
479.942915
 20
122.847303
 30
0.0
 11
498.05713
 21
122.847303
 31
0.0
  0
LINE
  8
LY_1
  6
CONTINUOUS
 62
   251
  5
CA
 10
479.000007
 20
117.499999
 30
0.0
 11
479.942879
 21
122.847291
 31
0.0
  0
LINE
  8
LY_1
  6
CONTINUOUS
 62
   251
  5
CB
 10
498.05713
 20
122.847303
 30
0.0
 11
499.000004
 21
117.499999
 31
0.0
  0
LINE
  8
LY_1
  6
CONTINUOUS
 62
   251
  5
CC
 10
498.199997
 20
117.500002
 30
0.0
 11
498.199997
 21
115.000002
 31
0.0
  0
LINE
  8
LY_1
  6
CONTINUOUS
 62
   251
  5
CD
 10
473.999996
 20
115.000002
 30
0.0
 11
473.999996
 21
0.0
 31
0.0
  0
LINE
  8
LY_1
  6
CONTINUOUS
 62
   251
  5
CE
 10
497.634182
 20
115.000002
 30
0.0
 11
501.000004
 21
115.000002
 31
0.0
  0
LINE
  8
LY_1
  6
CENTER
 62
     7
  5
CF
 10
525.999996
 20
133.38736
 30
0.0
 11
525.999996
 21
110.322751
 31
0.0
  0
LINE
  8
LY_1
  6
CONTINUOUS
 62
   251
  5
D0
 10
473.999996
 20
115.000002
 30
0.0
 11
473.999996
 21
-97.527292
 31
0.0
  0
LINE
  8
LY_1
  6
CONTINUOUS
 62
   251
  5
D1
 10
534.071065
 20
129.650002
 30
0.0
 11
517.928926
 21
129.650002
 31
0.0
  0
LINE
  8
LY_1
  6
CONTINUOUS
 62
     7
  5
D2
 10
534.071065
 20
129.650003
 30
0.0
 11
525.999995
 21
120.650002
 31
0.0
  0
LINE
  8
LY_1
  6
CONTINUOUS
 62
     7
  5
D3
 10
525.999995
 20
129.650002
 30
0.0
 11
534.071065
 21
120.650002
 31
0.0
  0
LINE
  8
LY_1
  6
CONTINUOUS
 62
     7
  5
D4
 10
517.928927
 20
120.650002
 30
0.0
 11
525.999996
 21
129.650002
 31
0.0
  0
LINE
  8
LY_1
  6
CONTINUOUS
 62
     7
  5
D5
 10
517.928927
 20
129.650002
 30
0.0
 11
525.999996
 21
120.650002
 31
0.0
  0
LINE
  8
LY_1
  6
CONTINUOUS
 62
   251
  5
D6
 10
517.928926
 20
129.650002
 30
0.0
 11
517.928926
 21
120.650002
 31
0.0
  0
LINE
  8
LY_1
  6
CONTINUOUS
 62
   251
  5
D7
 10
534.071065
 20
129.650002
 30
0.0
 11
534.071065
 21
120.650002
 31
0.0
  0
LINE
  8
LY_1
  6
CONTINUOUS
 62
   251
  5
D8
 10
517.492433
 20
120.650002
 30
0.0
 11
517.677123
 21
114.739913
 31
0.0
  0
LINE
  8
LY_1
  6
CONTINUOUS
 62
   251
  5
D9
 10
473.999996
 20
115.000002
 30
0.0
 11
473.999996
 21
0.0
 31
0.0
  0
LINE
  8
LY_1
  6
CONTINUOUS
 62
   251
  5
DA
 10
534.507559
 20
120.650002
 30
0.0
 11
534.330997
 21
115.000002
 31
0.0
  0
LINE
  8
LY_1
  6
CONTINUOUS
 62
   251
  5
DB
 10
534.50756
 20
120.650002
 30
0.0
 11
517.492433
 21
120.650002
 31
0.0
  0
LINE
  8
LY_1
  6
CONTINUOUS
 62
   251
  5
DC
 10
496.999989
 20
82.5
 30
0.0
 11
503.999997
 21
82.5
 31
0.0
  0
LINE
  8
LY_1
  6
CONTINUOUS
 62
   251
  5
DD
 10
508.999997
 20
54.800776
 30
0.0
 11
508.999997
 21
-54.800778
 31
0.0
  0
LINE
  8
LY_1
  6
CONTINUOUS
 62
   251
  5
DE
 10
544.014872
 20
112.991429
 30
0.0
 11
544.014872
 21
73.392478
 31
0.0
  0
LINE
  8
LY_1
  6
CONTINUOUS
 62
   251
  5
DF
 10
491.999989
 20
104.225403
 30
0.0
 11
491.999989
 21
-111.988689
 31
0.0
  0
LINE
  8
LY_1
  6
CONTINUOUS
 62
   251
  5
E0
 10
497.69579
 20
115.000002
 30
0.0
 11
501.000004
 21
115.000002
 31
0.0
  0
LINE
  8
LY_1
  6
CONTINUOUS
 62
   251
  5
E1
 10
491.999989
 20
104.225399
 30
0.0
 11
491.999989
 21
-111.988668
 31
0.0
  0
LINE
  8
LY_1
  6
CONTINUOUS
 62
   251
  5
E2
 10
313.0
 20
7.999878
 30
0.0
 11
313.0
 21
-8.000031
 31
0.0
  0
LINE
  8
LY_1
  6
CONTINUOUS
 62
   251
  5
E3
 10
31.500015
 20
7.999878
 30
0.0
 11
31.500015
 21
-8.000031
 31
0.0
  0
LINE
  8
LY_1
  6
CONTINUOUS
 62
   251
  5
E4
 10
444.000015
 20
115.0
 30
0.0
 11
444.000015
 21
-60.899591
 31
0.0
  0
LINE
  8
LY_1
  6
CONTINUOUS
 62
   251
  5
E5
 10
403.999996
 20
115.0
 30
0.0
 11
541.999998
 21
115.000003
 31
0.0
  0
LINE
  8
LY_1
  6
CONTINUOUS
 62
   251
  5
E6
 10
513.999996
 20
-44.772081
 30
0.0
 11
588.999996
 21
-44.772081
 31
0.0
  0
LINE
  8
LY_1
  6
CONTINUOUS
 62
   251
  5
E7
 10
508.999996
 20
-61.871843
 30
0.0
 11
593.999996
 21
-61.871843
 31
0.0
  0
LINE
  8
LY_1
  6
CONTINUOUS
 62
   251
  5
E8
 10
508.999996
 20
-54.800777
 30
0.0
 11
593.999996
 21
-54.800777
 31
0.0
  0
LINE
  8
LY_1
  6
CONTINUOUS
 62
   251
  5
E9
 10
508.999996
 20
54.800775
 30
0.0
 11
508.999996
 21
-54.800777
 31
0.0
  0
LINE
  8
LY_1
  6
CONTINUOUS
 62
   251
  5
EA
 10
513.999996
 20
44.772074
 30
0.0
 11
588.999996
 21
44.772074
 31
0.0
  0
LINE
  8
LY_1
  6
CONTINUOUS
 62
   251
  5
EB
 10
508.999996
 20
61.871843
 30
0.0
 11
593.999996
 21
61.871843
 31
0.0
  0
LINE
  8
LY_1
  6
CONTINUOUS
 62
   251
  5
EC
 10
508.999996
 20
54.800775
 30
0.0
 11
593.999996
 21
54.800775
 31
0.0
  0
LINE
  8
LY_1
  6
CONTINUOUS
 62
   251
  5
ED
 10
496.999989
 20
-82.50001
 30
0.0
 11
503.999996
 21
-82.50001
 31
0.0
  0
LINE
  8
LY_1
  6
CONTINUOUS
 62
   251
  5
EE
 10
508.999996
 20
-77.5
 30
0.0
 11
508.999997
 21
77.499998
 31
0.0
  0
LINE
  8
LY_1
  6
CONTINUOUS
 62
   251
  5
EF
 10
513.999996
 20
-68.500004
 30
0.0
 11
588.999996
 21
-68.500004
 31
0.0
  0
LINE
  8
LY_1
  6
CONTINUOUS
 62
   251
  5
F0
 10
593.999996
 20
-88.000002
 30
0.0
 11
611.999989
 21
-88.000002
 31
0.0
  0
LINE
  8
LY_1
  6
CONTINUOUS
 62
   251
  5
F1
 10
513.999996
 20
68.499998
 30
0.0
 11
588.999996
 21
68.499998
 31
0.0
  0
LINE
  8
LY_1
  6
CONTINUOUS
 62
   251
  5
F2
 10
593.999996
 20
87.999998
 30
0.0
 11
611.999989
 21
87.999998
 31
0.0
  0
LINE
  8
LY_1
  6
CONTINUOUS
 62
   251
  5
F3
 10
491.999989
 20
104.225399
 30
0.0
 11
491.999989
 21
-111.988668
 31
0.0
  0
LINE
  8
LY_1
  6
CONTINUOUS
 62
   251
  5
F4
 10
593.999996
 20
87.999998
 30
0.0
 11
593.999996
 21
-88.000002
 31
0.0
  0
LINE
  8
LY_1
  6
CONTINUOUS
 62
   251
  5
F5
 10
611.999989
 20
87.999998
 30
0.0
 11
611.999989
 21
-88.000002
 31
0.0
  0
LINE
  8
LY_1
  6
CONTINUOUS
 62
   251
  5
F6
 10
21.500015
 20
7.999878
 30
0.0
 11
21.500015
 21
-8.000031
 31
0.0
  0
LINE
  8
LY_1
  6
CONTINUOUS
 62
   251
  5
F7
 10
31.500015
 20
7.999878
 30
0.0
 11
21.500015
 21
7.999878
 31
0.0
  0
LINE
  8
LY_1
  6
CONTINUOUS
 62
   251
  5
F8
 10
31.500015
 20
-8.000031
 30
0.0
 11
21.500015
 21
-8.000031
 31
0.0
  0
LINE
  8
LY_1
  6
CENTER
 62
     7
  5
F9
 10
0.0
 20
168.999939
 30
0.0
 11
0.0
 21
-152.000132
 31
0.0
  0
LINE
  8
LY_1
  6
CENTER
 62
     7
  5
FA
 10
463.514423
 20
138.499908
 30
0.0
 11
513.942509
 21
138.499908
 31
0.0
  0
LINE
  8
LY_1
  6
CONTINUOUS
 62
   251
  5
FB
 10
497.634163
 20
115.0
 30
0.0
 11
500.999985
 21
115.0
 31
0.0
  0
LINE
  8
LY_1
  6
CENTER
 62
     7
  5
FC
 10
488.999996
 20
164.242401
 30
0.0
 11
488.999996
 21
108.429399
 31
0.0
  0
LINE
  8
LY_1
  6
CONTINUOUS
 62
   251
  5
FD
 10
473.999996
 20
115.0
 30
0.0
 11
473.999996
 21
-97.946615
 31
0.0
  0
LINE
  8
LY_1
  6
CONTINUOUS
 62
   251
  5
FE
 10
35.443649
 20
-80.000143
 30
0.0
 11
59.553146
 21
-80.000143
 31
0.0
  0
LINE
  8
LY_1
  6
CONTINUOUS
 62
   251
  5
FF
 10
-59.55307
 20
-80.000143
 30
0.0
 11
-35.443573
 21
-80.000143
 31
0.0
  0
LINE
  8
LY_1
  6
CENTER
 62
     7
  5
100
 10
-59.496822
 20
-34.350513
 30
0.0
 11
-70.592575
 21
-40.756648
 31
0.0
  0
LINE
  8
LY_1
  6
CENTER
 62
     7
  5
101
 10
59.496922
 20
-34.350727
 30
0.0
 11
70.592607
 21
-40.756825
 31
0.0
  0
LINE
  8
LY_1
  6
CENTER
 62
     7
  5
102
 10
59.496839
 20
34.350497
 30
0.0
 11
70.592592
 21
40.756632
 31
0.0
  0
LINE
  8
LY_1
  6
CENTER
 62
     7
  5
103
 10
-59.496862
 20
34.350376
 30
0.0
 11
-70.592548
 21
40.756474
 31
0.0
  0
LINE
  8
LY_1
  6
CENTER
 62
     7
  5
104
 10
-37.29251
 20
90.030031
 30
0.0
 11
-42.523166
 21
102.657955
 31
0.0
  0
LINE
  8
LY_1
  6
CENTER
 62
     7
  5
105
 10
90.030237
 20
37.292405
 30
0.0
 11
102.65809
 21
42.523032
 31
0.0
  0
LINE
  8
LY_1
  6
CENTER
 62
     7
  5
106
 10
90.030862
 20
-37.291198
 30
0.0
 11
102.658785
 21
-42.521857
 31
0.0
  0
LINE
  8
LY_1
  6
CENTER
 62
     7
  5
107
 10
37.292591
 20
-90.030296
 30
0.0
 11
42.523247
 21
-102.658219
 31
0.0
  0
LINE
  8
LY_1
  6
CENTER
 62
     7
  5
108
 10
-37.290978
 20
-90.030874
 30
0.0
 11
-42.521606
 21
-102.658726
 31
0.0
  0
LINE
  8
LY_1
  6
CENTER
 62
     7
  5
109
 10
-90.030151
 20
-37.29268
 30
0.0
 11
-102.658075
 21
-42.523336
 31
0.0
  0
LINE
  8
LY_1
  6
CENTER
 62
     7
  5
10A
 10
-90.030744
 20
37.291045
 30
0.0
 11
-102.658667
 21
42.521703
 31
0.0
  0
LINE
  8
LY_1
  6
CENTER
 62
     7
  5
10B
 10
37.291188
 20
90.030744
 30
0.0
 11
42.521788
 21
102.658526
 31
0.0
  0
LINE
  8
LY_1
  6
CENTER
 62
     7
  5
10C
 10
382.049427
 20
-65.000153
 30
0.0
 11
398.248711
 21
-65.000153
 31
0.0
  0
LINE
  8
LY_1
  6
CONTINUOUS
 62
   251
  5
10D
 10
250.0
 20
-8.000031
 30
0.0
 11
316.999989
 21
-8.000031
 31
0.0
  0
LINE
  8
LY_1
  6
CONTINUOUS
 62
   251
  5
10E
 10
250.0
 20
7.999878
 30
0.0
 11
316.999989
 21
7.999878
 31
0.0
  0
LINE
  8
LY_1
  6
CONTINUOUS
 62
     7
  5
10F
 10
100.490122
 20
-0.000162
 30
0.0
 11
92.490147
 21
-5.949896
 31
0.0
  0
LINE
  8
LY_1
  6
CONTINUOUS
 62
     7
  5
110
 10
92.489882
 20
-0.000151
 30
0.0
 11
100.49001
 21
-5.95
 31
0.0
  0
LINE
  8
LY_1
  6
CONTINUOUS
 62
   251
  5
111
 10
100.490036
 20
0.0
 30
0.0
 11
92.490005
 21
0.0
 31
0.0
  0
LINE
  8
LY_1
  6
CONTINUOUS
 62
     7
  5
112
 10
92.489941
 20
5.949574
 30
0.0
 11
100.489947
 21
-0.000184
 31
0.0
  0
LINE
  8
LY_1
  6
CONTINUOUS
 62
     7
  5
113
 10
92.490057
 20
-0.000194
 30
0.0
 11
100.490032
 21
5.949541
 31
0.0
  0
LINE
  8
LY_1
  6
CONTINUOUS
 62
   251
  5
114
 10
100.490036
 20
5.949707
 30
0.0
 11
92.490005
 21
5.949707
 31
0.0
  0
LINE
  8
LY_1
  6
CONTINUOUS
 62
   251
  5
115
 10
100.490036
 20
-5.94986
 30
0.0
 11
92.490005
 21
-5.94986
 31
0.0
  0
LINE
  8
LY_1
  6
CONTINUOUS
 62
   251
  5
116
 10
92.490091
 20
6.735811
 30
0.0
 11
87.252894
 21
6.572148
 31
0.0
  0
LINE
  8
LY_1
  6
CONTINUOUS
 62
   251
  5
117
 10
92.490094
 20
-6.736032
 30
0.0
 11
87.252935
 21
-6.57237
 31
0.0
  0
LINE
  8
LY_1
  6
CONTINUOUS
 62
   251
  5
118
 10
92.490005
 20
-6.735992
 30
0.0
 11
92.490005
 21
6.73584
 31
0.0
  0
LINE
  8
LY_1
  6
CONTINUOUS
 62
   251
  5
119
 10
100.490036
 20
-5.94986
 30
0.0
 11
100.490036
 21
5.949707
 31
0.0
  0
LINE
  8
LY_1
  6
DASHED
 62
     7
  5
11B
 10
122.000046
 20
-114.000082
 30
0.0
 11
122.000046
 21
-140.000162
 31
0.0
  0
LINE
  8
LY_1
  6
DASHED
 62
     7
  5
11C
 10
103.000031
 20
-114.000082
 30
0.0
 11
103.000031
 21
-140.000162
 31
0.0
  0
LINE
  8
LY_1
  6
DASHED
 62
     7
  5
11D
 10
-121.999969
 20
-114.000082
 30
0.0
 11
-121.999969
 21
-140.000162
 31
0.0
  0
LINE
  8
LY_1
  6
DASHED
 62
     7
  5
11E
 10
-102.999954
 20
-114.000082
 30
0.0
 11
-102.999954
 21
-140.000162
 31
0.0
  0
LINE
  8
LY_1
  6
CONTINUOUS
 62
   251
  5
11F
 10
77.389832
 20
-80.000143
 30
0.0
 11
80.0
 21
-80.000143
 31
0.0
  0
LINE
  8
LY_1
  6
CONTINUOUS
 62
   251
  5
120
 10
80.0
 20
-35.443726
 30
0.0
 11
80.0
 21
-80.000143
 31
0.0
  0
LINE
  8
LY_1
  6
CONTINUOUS
 62
   251
  5
121
 10
-79.999924
 20
-35.443726
 30
0.0
 11
-79.999924
 21
-80.000143
 31
0.0
  0
LINE
  8
LY_1
  6
CONTINUOUS
 62
   251
  5
122
 10
-79.999924
 20
-80.000143
 30
0.0
 11
-77.389603
 21
-80.000143
 31
0.0
  0
LINE
  8
LY_1
  6
CENTER
 62
     7
  5
123
 10
71.69693
 20
-65.000153
 30
0.0
 11
86.815338
 21
-65.000153
 31
0.0
  0
LINE
  8
LY_1
  6
CONTINUOUS
 62
   251
  5
124
 10
85.507018
 20
-110.294176
 30
0.0
 11
70.633974
 21
-54.78719
 31
0.0
  0
LINE
  8
LY_1
  6
CONTINUOUS
 62
   251
  5
125
 10
72.500063
 20
-114.00022
 30
0.0
 11
61.248295
 21
-72.00803
 31
0.0
  0
LINE
  8
LY_1
  6
CONTINUOUS
 62
   251
  5
126
 10
-72.500045
 20
-114.000111
 30
0.0
 11
-61.24831
 21
-72.008072
 31
0.0
  0
LINE
  8
LY_1
  6
CONTINUOUS
 62
   251
  5
127
 10
-85.507039
 20
-110.294212
 30
0.0
 11
-70.633986
 21
-54.787229
 31
0.0
  0
LINE
  8
LY_1
  6
CONTINUOUS
 62
   251
  5
128
 10
-69.499969
 20
-137.000132
 30
0.0
 11
69.500046
 21
-137.000132
 31
0.0
  0
LINE
  8
LY_1
  6
CONTINUOUS
 62
   251
  5
129
 10
137.500048
 20
-114.000085
 30
0.0
 11
113.161729
 21
20.480009
 31
0.0
  0
LINE
  8
LY_1
  6
CONTINUOUS
 62
   251
  5
12A
 10
-137.500027
 20
-114.00002
 30
0.0
 11
-113.161735
 21
20.479924
 31
0.0
  0
LINE
  8
LY_1
  6
CONTINUOUS
 62
   251
  5
12B
 10
72.5
 20
-114.000082
 30
0.0
 11
137.5
 21
-114.000082
 31
0.0
  0
LINE
  8
LY_1
  6
CONTINUOUS
 62
   251
  5
12C
 10
72.5
 20
-140.000162
 30
0.0
 11
137.5
 21
-140.000162
 31
0.0
  0
LINE
  8
LY_1
  6
CONTINUOUS
 62
   251
  5
12D
 10
-137.499924
 20
-114.000082
 30
0.0
 11
-72.5
 21
-114.000082
 31
0.0
  0
LINE
  8
LY_1
  6
CENTER
 62
     7
  5
12E
 10
112.5
 20
-108.086843
 30
0.0
 11
112.5
 21
-147.657938
 31
0.0
  0
LINE
  8
LY_1
  6
CENTER
 62
     7
  5
12F
 10
-112.499924
 20
-106.504049
 30
0.0
 11
-112.499924
 21
-147.657938
 31
0.0
  0
LINE
  8
LY_1
  6
CONTINUOUS
 62
   251
  5
130
 10
72.5
 20
-114.000082
 30
0.0
 11
72.5
 21
-140.000162
 31
0.0
  0
LINE
  8
LY_1
  6
CONTINUOUS
 62
   251
  5
131
 10
-72.5
 20
-114.000082
 30
0.0
 11
-72.5
 21
-140.000162
 31
0.0
  0
LINE
  8
LY_1
  6
CONTINUOUS
 62
   251
  5
132
 10
-137.499924
 20
-114.000082
 30
0.0
 11
-137.499924
 21
-140.000162
 31
0.0
  0
LINE
  8
LY_1
  6
CONTINUOUS
 62
   251
  5
133
 10
137.5
 20
-114.000082
 30
0.0
 11
137.5
 21
-140.000162
 31
0.0
  0
LINE
  8
LY_1
  6
CONTINUOUS
 62
   251
  5
134
 10
-137.499924
 20
-140.000162
 30
0.0
 11
-72.5
 21
-140.000162
 31
0.0
  0
LINE
  8
LY_1
  6
CENTER
 62
     7
  5
135
 10
-131.868209
 20
0.0
 30
0.0
 11
131.868218
 21
0.0
 31
0.0
  0
LINE
  8
LY_1
  6
CONTINUOUS
 62
   251
  5
136
 10
503.694153
 20
-114.000082
 30
0.0
 11
544.999943
 21
-114.000082
 31
0.0
  0
LINE
  8
LY_1
  6
CONTINUOUS
 62
   251
  5
137
 10
335.999997
 20
-54.999998
 30
0.0
 11
347.999997
 21
-87.499996
 31
0.0
  0
LINE
  8
LY_1
  6
CONTINUOUS
 62
   251
  5
138
 10
348.000036
 20
87.499872
 30
0.0
 11
336.000049
 21
54.999876
 31
0.0
  0
LINE
  8
LY_1
  6
CONTINUOUS
 62
   251
  5
139
 10
421.999985
 20
-33.731825
 30
0.0
 11
476.493967
 21
-101.026291
 31
0.0
  0
LINE
  8
LY_1
  6
CONTINUOUS
 62
   251
  5
13A
 10
396.364076
 20
0.000142
 30
0.0
 11
390.000117
 21
6.3641
 31
0.0
  0
LINE
  8
LY_1
  6
CONTINUOUS
 62
   251
  5
13B
 10
389.99981
 20
-6.36381
 30
0.0
 11
396.363779
 21
0.000158
 31
0.0
  0
LINE
  8
LY_1
  6
CONTINUOUS
 62
   251
  5
13C
 10
383.636156
 20
0.000067
 30
0.0
 11
390.000182
 21
-6.363958
 31
0.0
  0
LINE
  8
LY_1
  6
CONTINUOUS
 62
   251
  5
13D
 10
389.999847
 20
6.364046
 30
0.0
 11
383.635876
 21
0.000074
 31
0.0
  0
LINE
  8
LY_1
  6
CONTINUOUS
 62
   251
  5
13E
 10
345.0
 20
-114.000082
 30
0.0
 11
398.999996
 21
-114.000082
 31
0.0
  0
LINE
  8
LY_1
  6
DASHED
 62
     7
  5
13F
 10
529.499989
 20
-114.000082
 30
0.0
 11
529.499989
 21
-140.000162
 31
0.0
  0
LINE
  8
LY_1
  6
DASHED
 62
     7
  5
140
 10
510.499973
 20
-114.000082
 30
0.0
 11
510.499973
 21
-140.000162
 31
0.0
  0
LINE
  8
LY_1
  6
DASHED
 62
     7
  5
141
 10
379.499989
 20
-114.000082
 30
0.0
 11
379.499989
 21
-140.000162
 31
0.0
  0
LINE
  8
LY_1
  6
DASHED
 62
     7
  5
142
 10
360.499992
 20
-114.000082
 30
0.0
 11
360.499992
 21
-140.000162
 31
0.0
  0
LINE
  8
LY_1
  6
CONTINUOUS
 62
   251
  5
143
 10
330.0
 20
32.5
 30
0.0
 11
330.0
 21
-32.5
 31
0.0
  0
LINE
  8
LY_1
  6
CONTINUOUS
 62
   251
  5
144
 10
330.0
 20
-32.5
 30
0.0
 11
336.000004
 21
-32.5
 31
0.0
  0
LINE
  8
LY_1
  6
CONTINUOUS
 62
   251
  5
145
 10
330.0
 20
32.5
 30
0.0
 11
336.000004
 21
32.5
 31
0.0
  0
LINE
  8
LY_1
  6
CONTINUOUS
 62
   251
  5
146
 10
250.0
 20
-27.5
 30
0.0
 11
330.0
 21
-27.5
 31
0.0
  0
LINE
  8
LY_1
  6
CONTINUOUS
 62
   251
  5
147
 10
250.0
 20
27.5
 30
0.0
 11
330.0
 21
27.5
 31
0.0
  0
LINE
  8
LY_1
  6
CONTINUOUS
 62
   251
  5
148
 10
250.0
 20
27.5
 30
0.0
 11
250.0
 21
-27.5
 31
0.0
  0
LINE
  8
LY_1
  6
CENTER
 62
     7
  5
149
 10
519.999981
 20
-108.547506
 30
0.0
 11
519.999981
 21
-146.033182
 31
0.0
  0
LINE
  8
LY_1
  6
CENTER
 62
     7
  5
14A
 10
370.0
 20
-108.012075
 30
0.0
 11
370.0
 21
-146.033182
 31
0.0
  0
LINE
  8
LY_1
  6
CONTINUOUS
 62
   251
  5
14B
 10
422.000008
 20
115.0
 30
0.0
 11
422.000008
 21
-33.731689
 31
0.0
  0
LINE
  8
LY_1
  6
CONTINUOUS
 62
   251
  5
14C
 10
403.999996
 20
115.0
 30
0.0
 11
403.999996
 21
-109.000082
 31
0.0
  0
LINE
  8
LY_1
  6
CONTINUOUS
 62
   251
  5
14D
 10
379.999973
 20
87.500354
 30
0.0
 11
399.261679
 21
88.509817
 31
0.0
  0
LINE
  8
LY_1
  6
CONTINUOUS
 62
   251
  5
14E
 10
347.999992
 20
87.5
 30
0.0
 11
379.999943
 21
87.5
 31
0.0
  0
LINE
  8
LY_1
  6
CONTINUOUS
 62
   251
  5
14F
 10
360.0
 20
87.5
 30
0.0
 11
360.0
 21
-87.500143
 31
0.0
  0
LINE
  8
LY_1
  6
CONTINUOUS
 62
   251
  5
150
 10
347.999992
 20
-87.500143
 30
0.0
 11
367.31842
 21
-87.500143
 31
0.0
  0
LINE
  8
LY_1
  6
CONTINUOUS
 62
   251
  5
151
 10
347.999992
 20
87.5
 30
0.0
 11
347.999992
 21
-87.500143
 31
0.0
  0
LINE
  8
LY_1
  6
CONTINUOUS
 62
   251
  5
152
 10
336.000004
 20
54.999845
 30
0.0
 11
336.000004
 21
-55.0
 31
0.0
  0
LINE
  8
LY_1
  6
CENTER
 62
     7
  5
153
 10
390.0
 20
-57.329865
 30
0.0
 11
390.0
 21
-73.324127
 31
0.0
  0
LINE
  8
LY_1
  6
CONTINUOUS
 62
   251
  5
154
 10
375.0
 20
-40.443726
 30
0.0
 11
375.0
 21
-75.000153
 31
0.0
  0
LINE
  8
LY_1
  6
CENTER
 62
     7
  5
155
 10
390.0
 20
10.0
 30
0.0
 11
390.0
 21
-10.0
 31
0.0
  0
LINE
  8
LY_1
  6
CONTINUOUS
 62
   251
  5
156
 10
365.399492
 20
-109.435841
 30
0.0
 11
370.071257
 21
-56.037358
 31
0.0
  0
LINE
  8
LY_1
  6
CONTINUOUS
 62
   251
  5
157
 10
380.0
 20
-80.000143
 30
0.0
 11
397.401066
 21
-80.000143
 31
0.0
  0
LINE
  8
LY_1
  6
CONTINUOUS
 62
   251
  5
158
 10
544.999943
 20
-114.000082
 30
0.0
 11
544.999943
 21
-140.000162
 31
0.0
  0
LINE
  8
LY_1
  6
CONTINUOUS
 62
   251
  5
159
 10
345.0
 20
-114.000082
 30
0.0
 11
345.0
 21
-140.000162
 31
0.0
  0
LINE
  8
LY_1
  6
CONTINUOUS
 62
   251
  5
15A
 10
345.0
 20
-140.000162
 30
0.0
 11
544.999943
 21
-140.000162
 31
0.0
  0
LINE
  8
LY_1
  6
CENTER
 62
     7
  5
15B
 10
235.0
 20
0.0
 30
0.0
 11
772.107317
 21
0.0
 31
0.0
  0
ENDSEC
  0
EOF
