  0
SECTION
  2
HEADER
  9
$ACADVER
  1
AC1009
  9
$DWGCODEPAGE
  3
dos932
  9
$INSBASE
 10
0.0
 20
0.0
 30
0.0
  9
$EXTMIN
 10
-110.0
 20
-149.000015
 30
0.0
  9
$EXTMAX
 10
735.575204
 20
155.843465
 30
0.0
  9
$LIMMIN
 10
-110.0
 20
-149.000015
  9
$LIMMAX
 10
735.575204
 20
155.843465
  9
$ORTHOMODE
 70
     0
  9
$REGENMODE
 70
     1
  9
$FILLMODE
 70
     1
  9
$QTEXTMODE
 70
     0
  9
$MIRRTEXT
 70
     1
  9
$DRAGMODE
 70
     2
  9
$LTSCALE
 40
1.0
  9
$OSMODE
 70
     0
  9
$ATTMODE
 70
     1
  9
$TEXTSIZE
 40
3.15
  9
$TRACEWID
 40
0.05
  9
$TEXTSTYLE
  7
MX_NOTE_STANDARD
  9
$CLAYER
  8
LY_1
  9
$CELTYPE
  6
CONTINUOUS
  9
$CECOLOR
 62
   256
  9
$DIMSCALE
 40
1.0
  9
$DIMASZ
 40
2.5
  9
$DIMEXO
 40
1.0
  9
$DIMDLI
 40
3.75
  9
$DIMRND
 40
0.0
  9
$DIMDLE
 40
0.0
  9
$DIMEXE
 40
1.5
  9
$DIMTP
 40
0.0
  9
$DIMTM
 40
0.0
  9
$DIMTXT
 40
3.15
  9
$DIMCEN
 40
2.5
  9
$DIMTSZ
 40
0.0
  9
$DIMTOL
 70
     0
  9
$DIMLIM
 70
     0
  9
$DIMTIH
 70
     0
  9
$DIMTOH
 70
     0
  9
$DIMSE1
 70
     0
  9
$DIMSE2
 70
     0
  9
$DIMTAD
 70
     1
  9
$DIMZIN
 70
     8
  9
$DIMBLK
  1

  9
$DIMASO
 70
     1
  9
$DIMSHO
 70
     1
  9
$DIMPOST
  1

  9
$DIMAPOST
  1

  9
$DIMALT
 70
     0
  9
$DIMALTD
 70
     4
  9
$DIMALTF
 40
0.03937
  9
$DIMLFAC
 40
1.0
  9
$DIMTOFL
 70
     1
  9
$DIMTVP
 40
0.0
  9
$DIMTIX
 70
     0
  9
$DIMSOXD
 70
     0
  9
$DIMSAH
 70
     0
  9
$DIMBLK1
  1

  9
$DIMBLK2
  1

  9
$DIMSTYLE
  2
MXDIMSTYLE
  9
$DIMCLRD
 70
     0
  9
$DIMCLRE
 70
     0
  9
$DIMCLRT
 70
     0
  9
$DIMTFAC
 40
1.0
  9
$DIMGAP
 40
1.0
  9
$LUNITS
 70
     2
  9
$LUPREC
 70
     4
  9
$AXISMODE
 70
     0
  9
$AXISUNIT
 10
0.0
 20
0.0
  9
$SKETCHINC
 40
0.1
  9
$FILLETRAD
 40
0.0
  9
$AUNITS
 70
     0
  9
$AUPREC
 70
     0
  9
$MENU
  1
acad
  9
$ELEVATION
 40
0.0
  9
$PELEVATION
 40
0.0
  9
$THICKNESS
 40
0.0
  9
$LIMCHECK
 70
     0
  9
$BLIPMODE
 70
     1
  9
$CHAMFERA
 40
0.0
  9
$CHAMFERB
 40
0.0
  9
$SKPOLY
 70
     0
  9
$TDCREATE
 40
2453665.670115741
  9
$TDUPDATE
 40
2453665.670115741
  9
$TDINDWG
 40
0.0000000000
  9
$TDUSRTIMER
 40
0.0000000000
  9
$USRTIMER
 70
     1
  9
$ANGBASE
 50
0.0
  9
$ANGDIR
 70
     0
  9
$PDMODE
 70
     0
  9
$PDSIZE
 40
0.0
  9
$PLINEWID
 40
0.0
  9
$COORDS
 70
     1
  9
$SPLFRAME
 70
     0
  9
$SPLINETYPE
 70
     6
  9
$SPLINESEGS
 70
     8
  9
$ATTDIA
 70
     0
  9
$ATTREQ
 70
     1
  9
$HANDLING
 70
     1
  9
$HANDSEED
  5
198
  9
$SURFTAB1
 70
     6
  9
$SURFTAB2
 70
     6
  9
$SURFTYPE
 70
     6
  9
$SURFU
 70
     6
  9
$SURFV
 70
     6
  9
$UCSNAME
  2

  9
$UCSORG
 10
0.0
 20
0.0
 30
0.0
  9
$UCSXDIR
 10
1.0
 20
0.0
 30
0.0
  9
$UCSYDIR
 10
0.0
 20
1.0
 30
0.0
  9
$PUCSNAME
  2

  9
$PUCSORG
 10
0.0
 20
0.0
 30
0.0
  9
$PUCSXDIR
 10
1.0
 20
0.0
 30
0.0
  9
$PUCSYDIR
 10
0.0
 20
1.0
 30
0.0
  9
$USERI1
 70
     0
  9
$USERI2
 70
     0
  9
$USERI3
 70
     0
  9
$USERI4
 70
     0
  9
$USERI5
 70
     0
  9
$USERR1
 40
0.0
  9
$USERR2
 40
0.0
  9
$USERR3
 40
0.0
  9
$USERR4
 40
0.0
  9
$USERR5
 40
0.0
  9
$WORLDVIEW
 70
     1
  9
$SHADEDGE
 70
     3
  9
$SHADEDIF
 70
    70
  9
$TILEMODE
 70
     1
  9
$MAXACTVP
 70
    16
  9
$PINSBASE
 10
0.0
 20
0.0
 30
0.0
  9
$PLIMCHECK
 70
     0
  9
$PEXTMIN
 10
1.000000E+20
 20
1.000000E+20
 30
1.000000E+20
  9
$PEXTMAX
 10
-1.000000E+20
 20
-1.000000E+20
 30
-1.000000E+20
  9
$PLIMMIN
 10
0.0
 20
0.0
  9
$PLIMMAX
 10
12.0
 20
9.0
  9
$UNITMODE
 70
     0
  9
$VISRETAIN
 70
     0
  9
$PLINEGEN
 70
     1
  9
$PSLTSCALE
 70
     0
  9
$TREEDEPTH
 70
  3020
  9
$DWGCODEPAGE
  3
dos932
  0
ENDSEC
  0
SECTION
  2
TABLES
  0
TABLE
  2
VPORT
 70
     1
  0
VPORT
  2
*ACTIVE
 70
     0
 10
0.0
 20
0.0
 11
1.0
 21
1.0
 12
312.787602
 22
3.421725
 13
0.0
 23
0.0
 14
1.0
 24
1.0
 15
0.0
 25
0.0
 16
0.0
 26
0.0
 36
1.0
 17
0.0
 27
0.0
 37
0.0
 40
307.891915
 41
1.732051
 42
50.0
 43
0.0
 44
0.0
 50
0.0
 51
0.0
 71
     0
 72
   100
 73
     1
 74
     1
 75
     0
 76
     0
 77
     0
 78
     0
  0
ENDTAB
  0
TABLE
  2
LTYPE
 70
     3
  0
LTYPE
  2
CONTINUOUS
 70
    64
  3
Solid line
 72
    65
 73
     0
 40
0.0
  0
LTYPE
  2
CENTER
 70
    64
  3
Center ____ _ ____ _ ____ _ ____ _ ____ _ ____
 72
    65
 73
     4
 40
50.8
 49
31.75
 49
-6.35
 49
6.35
 49
-6.35
  0
LTYPE
  2
DASHED
 70
    64
  3
Dashed __ __ __ __ __ __ __ __ __ __ __ __ __ _
 72
    65
 73
     2
 40
19.05
 49
12.7
 49
-6.35
  0
ENDTAB
  0
TABLE
  2
LAYER
 70
     3
  0
LAYER
  2
0
 70
     0
 62
     7
  6
CONTINUOUS
  0
LAYER
  2
LY_1
 70
     0
 62
     7
  6
CONTINUOUS
  0
LAYER
  2
DEFPOINTS
 70
     0
 62
     7
  6
CONTINUOUS
  0
ENDTAB
  0
TABLE
  2
STYLE
 70
     1
  0
STYLE
  2
MX_NOTE_STANDARD
 70
     0
 40
0.0
 41
1.0
 50
0.0
 71
     0
 42
3.15
  3
txt.shx
  4
extfont.shx
  0
ENDTAB
  0
TABLE
  2
VIEW
 70
     0
  0
ENDTAB
  0
TABLE
  2
UCS
 70
     0
  0
ENDTAB
  0
TABLE
  2
APPID
 70
     1
  0
APPID
  2
ACAD
 70
     0
  0
ENDTAB
  0
TABLE
  2
DIMSTYLE
 70
     1
  0
DIMSTYLE
  2
MXDIMSTYLE
 70
     0
  3

  4

  5

  6

  7

 40
1.0
 41
2.5
 42
1.0
 43
3.75
 44
1.5
 45
0.0
 46
0.0
 47
0.0
 48
0.0
 71
     0
 72
     0
 73
     0
 74
     0
 75
     0
 76
     0
 77
     1
 78
     8
140
3.15
141
2.5
142
0.0
143
0.03937
144
1.0
145
0.0
146
1.0
147
1.0
170
     0
171
     4
172
     1
173
     0
174
     0
175
     0
176
     0
177
     0
178
     0
  0
ENDTAB
  0
ENDSEC
  0
SECTION
  2
BLOCKS
  0
ENDSEC
  0
SECTION
  2
ENTITIES
  0
LINE
  8
LY_1
  6
CENTER
 62
     7
  5
20
 10
381.999992
 20
-6.990936
 30
0.0
 11
381.999992
 21
6.990936
 31
0.0
  0
CIRCLE
  8
LY_1
  6
CONTINUOUS
 62
   251
  5
21
 10
381.999992
 20
0.0
 30
0.0
 40
4.990937
  0
LINE
  8
LY_1
  6
CONTINUOUS
 62
   251
  5
22
 10
377.050239
 20
-0.000005
 30
0.0
 11
381.999987
 21
-4.949752
 31
0.0
  0
LINE
  8
LY_1
  6
CONTINUOUS
 62
   251
  5
23
 10
381.999992
 20
4.949721
 30
0.0
 11
377.050244
 21
-0.000026
 31
0.0
  0
LINE
  8
LY_1
  6
CONTINUOUS
 62
   251
  5
24
 10
386.94974
 20
0.000025
 30
0.0
 11
381.999991
 21
4.949772
 31
0.0
  0
LINE
  8
LY_1
  6
CONTINUOUS
 62
   251
  5
25
 10
381.999991
 20
-4.949774
 30
0.0
 11
386.949739
 21
-0.000027
 31
0.0
  0
LINE
  8
LY_1
  6
CONTINUOUS
 62
   251
  5
26
 10
666.499992
 20
88.0
 30
0.0
 11
666.499992
 21
100.3
 31
0.0
  0
LINE
  8
LY_1
  6
CONTINUOUS
 62
   251
  5
27
 10
666.499992
 20
100.3
 30
0.0
 11
639.499992
 21
100.3
 31
0.0
  0
LINE
  8
LY_1
  6
CONTINUOUS
 62
   251
  5
28
 10
639.499992
 20
100.3
 30
0.0
 11
639.499992
 21
88.0
 31
0.0
  0
LINE
  8
LY_1
  6
CONTINUOUS
 62
   251
  5
29
 10
665.700182
 20
100.3
 30
0.0
 11
665.700182
 21
102.49964
 31
0.0
  0
LINE
  8
LY_1
  6
CONTINUOUS
 62
   251
  5
2A
 10
665.700182
 20
102.49964
 30
0.0
 11
640.300162
 21
102.49964
 31
0.0
  0
LINE
  8
LY_1
  6
CONTINUOUS
 62
   251
  5
2B
 10
640.300162
 20
102.49964
 30
0.0
 11
640.300162
 21
100.3
 31
0.0
  0
LINE
  8
LY_1
  6
CONTINUOUS
 62
   251
  5
2C
 10
660.938162
 20
102.49964
 30
0.0
 11
660.938162
 21
115.6313
 31
0.0
  0
LINE
  8
LY_1
  6
CONTINUOUS
 62
   251
  5
2D
 10
660.938162
 20
115.6313
 30
0.0
 11
660.300162
 21
115.99964
 31
0.0
  0
LINE
  8
LY_1
  6
CONTINUOUS
 62
   251
  5
2E
 10
660.300162
 20
115.99964
 30
0.0
 11
645.700182
 21
115.99964
 31
0.0
  0
LINE
  8
LY_1
  6
CONTINUOUS
 62
   251
  5
2F
 10
645.700182
 20
115.99964
 30
0.0
 11
645.062182
 21
115.63129
 31
0.0
  0
LINE
  8
LY_1
  6
CONTINUOUS
 62
   251
  5
30
 10
645.062182
 20
115.63129
 30
0.0
 11
645.062182
 21
102.49964
 31
0.0
  0
LINE
  8
LY_1
  6
CENTER
 62
     7
  5
31
 10
652.999992
 20
116.57027
 30
0.0
 11
652.999992
 21
88.0
 31
0.0
  0
LINE
  8
LY_1
  6
CONTINUOUS
 62
   251
  5
32
 10
683.449972
 20
59.4
 30
0.0
 11
683.449972
 21
62.19998
 31
0.0
  0
LINE
  8
LY_1
  6
CONTINUOUS
 62
   251
  5
33
 10
683.449972
 20
62.19998
 30
0.0
 11
721.549982
 21
62.19998
 31
0.0
  0
LINE
  8
LY_1
  6
CONTINUOUS
 62
   251
  5
34
 10
721.549982
 20
62.19998
 30
0.0
 11
721.549982
 21
59.4
 31
0.0
  0
LINE
  8
LY_1
  6
CONTINUOUS
 62
   251
  5
35
 10
717.299982
 20
62.19998
 30
0.0
 11
717.299982
 21
80.49999
 31
0.0
  0
LINE
  8
LY_1
  6
CONTINUOUS
 62
   251
  5
36
 10
717.299982
 20
80.49999
 30
0.0
 11
716.299982
 21
81.49999
 31
0.0
  0
LINE
  8
LY_1
  6
CONTINUOUS
 62
   251
  5
37
 10
716.299982
 20
81.49999
 30
0.0
 11
688.699972
 21
81.49999
 31
0.0
  0
LINE
  8
LY_1
  6
CONTINUOUS
 62
   251
  5
38
 10
688.699972
 20
81.49999
 30
0.0
 11
687.699972
 21
80.49999
 31
0.0
  0
LINE
  8
LY_1
  6
CONTINUOUS
 62
   251
  5
39
 10
687.699972
 20
80.49999
 30
0.0
 11
687.699972
 21
62.19998
 31
0.0
  0
LINE
  8
LY_1
  6
CENTER
 62
     7
  5
3A
 10
702.499992
 20
89.24274
 30
0.0
 11
702.499992
 21
55.9408
 31
0.0
  0
LINE
  8
LY_1
  6
CONTINUOUS
 62
   251
  5
3B
 10
721.999992
 20
59.4
 30
0.0
 11
682.999992
 21
59.4
 31
0.0
  0
LINE
  8
LY_1
  6
CONTINUOUS
 62
   251
  5
3C
 10
682.999992
 20
59.4
 30
0.0
 11
682.999992
 21
42.5
 31
0.0
  0
LINE
  8
LY_1
  6
CONTINUOUS
 62
   251
  5
3D
 10
680.499992
 20
42.5
 30
0.0
 11
695.499992
 21
42.5
 31
0.0
  0
LINE
  8
LY_1
  6
CONTINUOUS
 62
   251
  5
3E
 10
695.499992
 20
27.50348
 30
0.0
 11
682.499992
 21
27.50348
 31
0.0
  0
LINE
  8
LY_1
  6
CONTINUOUS
 62
   251
  5
3F
 10
695.499992
 20
34.34738
 30
0.0
 11
720.499992
 21
34.34738
 31
0.0
  0
LINE
  8
LY_1
  6
CONTINUOUS
 62
   251
  5
40
 10
721.999992
 20
33.48496
 30
0.0
 11
720.499992
 21
34.34738
 31
0.0
  0
LINE
  8
LY_1
  6
CONTINUOUS
 62
   251
  5
41
 10
682.499992
 20
-27.50369
 30
0.0
 11
695.499992
 21
-27.50369
 31
0.0
  0
LINE
  8
LY_1
  6
CONTINUOUS
 62
   251
  5
42
 10
680.499992
 20
-42.5
 30
0.0
 11
695.499992
 21
-42.5
 31
0.0
  0
LINE
  8
LY_1
  6
CONTINUOUS
 62
   251
  5
43
 10
695.499992
 20
42.5
 30
0.0
 11
695.499992
 21
-42.5
 31
0.0
  0
LINE
  8
LY_1
  6
CONTINUOUS
 62
   251
  5
44
 10
682.499992
 20
42.5
 30
0.0
 11
682.499992
 21
-42.5
 31
0.0
  0
LINE
  8
LY_1
  6
CONTINUOUS
 62
   251
  5
45
 10
719.855912
 20
-39.18429
 30
0.0
 11
695.499992
 21
-40.03482
 31
0.0
  0
LINE
  8
LY_1
  6
CONTINUOUS
 62
   251
  5
46
 10
548.999992
 20
-51.0
 30
0.0
 11
626.499992
 21
-51.0
 31
0.0
  0
LINE
  8
LY_1
  6
CONTINUOUS
 62
   251
  5
47
 10
548.999992
 20
-48.0
 30
0.0
 11
626.499992
 21
-48.0
 31
0.0
  0
LINE
  8
LY_1
  6
CONTINUOUS
 62
   251
  5
48
 10
548.999992
 20
-45.0
 30
0.0
 11
626.499992
 21
-45.0
 31
0.0
  0
LINE
  8
LY_1
  6
CONTINUOUS
 62
   251
  5
49
 10
548.999992
 20
-42.0
 30
0.0
 11
626.499992
 21
-42.0
 31
0.0
  0
LINE
  8
LY_1
  6
CONTINUOUS
 62
   251
  5
4A
 10
680.499992
 20
-58.0
 30
0.0
 11
546.999992
 21
-58.0
 31
0.0
  0
LINE
  8
LY_1
  6
CONTINUOUS
 62
   251
  5
4B
 10
721.999992
 20
-30.0
 30
0.0
 11
721.999992
 21
59.4
 31
0.0
  0
LINE
  8
LY_1
  6
CONTINUOUS
 62
   251
  5
4C
 10
575.299792
 20
118.62013
 30
0.0
 11
575.299792
 21
121.37013
 31
0.0
  0
LINE
  8
LY_1
  6
CONTINUOUS
 62
   251
  5
4D
 10
575.299792
 20
121.37013
 30
0.0
 11
619.699822
 21
121.37013
 31
0.0
  0
LINE
  8
LY_1
  6
CONTINUOUS
 62
   251
  5
4E
 10
619.699822
 20
121.37013
 30
0.0
 11
619.699822
 21
118.62013
 31
0.0
  0
LINE
  8
LY_1
  6
CONTINUOUS
 62
   251
  5
4F
 10
616.499802
 20
121.37013
 30
0.0
 11
616.499802
 21
140.00012
 31
0.0
  0
LINE
  8
LY_1
  6
CONTINUOUS
 62
   251
  5
50
 10
578.499802
 20
140.00012
 30
0.0
 11
578.499802
 21
121.37013
 31
0.0
  0
LINE
  8
LY_1
  6
CONTINUOUS
 62
   251
  5
51
 10
578.499802
 20
126.00012
 30
0.0
 11
616.499802
 21
126.00012
 31
0.0
  0
LINE
  8
LY_1
  6
CONTINUOUS
 62
   251
  5
52
 10
615.499802
 20
142.00012
 30
0.0
 11
579.499802
 21
142.00012
 31
0.0
  0
LINE
  8
LY_1
  6
CONTINUOUS
 62
   251
  5
53
 10
566.128372
 20
118.62013
 30
0.0
 11
621.999802
 21
118.62013
 31
0.0
  0
LINE
  8
LY_1
  6
CONTINUOUS
 62
   251
  5
54
 10
621.999802
 20
88.00029
 30
0.0
 11
621.999802
 21
118.62013
 31
0.0
  0
LINE
  8
LY_1
  6
CENTER
 62
     7
  5
55
 10
597.499992
 20
103.86554
 30
0.0
 11
597.499992
 21
146.24054
 31
0.0
  0
LINE
  8
LY_1
  6
CONTINUOUS
 62
   251
  5
56
 10
680.499992
 20
87.0
 30
0.0
 11
680.499992
 21
-87.0
 31
0.0
  0
LINE
  8
LY_1
  6
CONTINUOUS
 62
   251
  5
57
 10
633.499992
 20
-88.0
 30
0.0
 11
633.499992
 21
88.0
 31
0.0
  0
LINE
  8
LY_1
  6
CONTINUOUS
 62
   251
  5
58
 10
626.499992
 20
88.0
 30
0.0
 11
626.499992
 21
-88.0
 31
0.0
  0
LINE
  8
LY_1
  6
CONTINUOUS
 62
   251
  5
59
 10
548.999992
 20
42.0
 30
0.0
 11
626.499992
 21
42.0
 31
0.0
  0
LINE
  8
LY_1
  6
CONTINUOUS
 62
   251
  5
5A
 10
548.999992
 20
45.0
 30
0.0
 11
626.499992
 21
45.0
 31
0.0
  0
LINE
  8
LY_1
  6
CONTINUOUS
 62
   251
  5
5B
 10
548.999992
 20
48.0
 30
0.0
 11
626.499992
 21
48.0
 31
0.0
  0
LINE
  8
LY_1
  6
CONTINUOUS
 62
   251
  5
5C
 10
548.999992
 20
51.0
 30
0.0
 11
626.499992
 21
51.0
 31
0.0
  0
LINE
  8
LY_1
  6
CONTINUOUS
 62
   251
  5
5D
 10
546.999992
 20
58.0
 30
0.0
 11
680.499992
 21
58.0
 31
0.0
  0
LINE
  8
LY_1
  6
CONTINUOUS
 62
   251
  5
5E
 10
546.999992
 20
88.0
 30
0.0
 11
546.999992
 21
-88.0
 31
0.0
  0
LINE
  8
LY_1
  6
CONTINUOUS
 62
   251
  5
5F
 10
548.999992
 20
-88.0
 30
0.0
 11
548.999992
 21
88.0
 31
0.0
  0
LINE
  8
LY_1
  6
CONTINUOUS
 62
   251
  5
60
 10
579.499802
 20
142.00012
 30
0.0
 11
578.499802
 21
140.00012
 31
0.0
  0
LINE
  8
LY_1
  6
CONTINUOUS
 62
   251
  5
61
 10
615.499802
 20
142.00012
 30
0.0
 11
616.499802
 21
140.00012
 31
0.0
  0
ARC
  8
LY_1
  6
CONTINUOUS
 62
   251
  5
62
 10
691.952042
 20
-29.99307
 30
0.0
 40
30.047937
 50
343.61976
 51
359.98682
  0
ARC
  8
LY_1
  6
CONTINUOUS
 62
   251
  5
63
 10
719.820972
 20
-38.1849
 30
0.0
 40
1.0
 50
272.000742
 51
343.61965
  0
ARC
  8
LY_1
  6
CONTINUOUS
 62
   251
  5
64
 10
679.499992
 20
-87.0
 30
0.0
 40
1.0
 50
269.999982
 51
359.99996
  0
ARC
  8
LY_1
  6
CONTINUOUS
 62
   251
  5
65
 10
679.499992
 20
87.0
 30
0.0
 40
1.0
 50
359.99998
 51
90.00003
  0
ARC
  8
LY_1
  6
CONTINUOUS
 62
   251
  5
66
 10
566.128372
 20
117.62013
 30
0.0
 40
1.0
 50
90.00002
 51
159.25117
  0
ARC
  8
LY_1
  6
CONTINUOUS
 62
   251
  5
67
 10
639.984242
 20
89.57884
 30
0.0
 40
80.0
 50
159.20997
 51
181.130836
  0
LINE
  8
LY_1
  6
CONTINUOUS
 62
   251
  5
68
 10
528.999992
 20
88.0
 30
0.0
 11
679.499992
 21
88.0
 31
0.0
  0
LINE
  8
LY_1
  6
CONTINUOUS
 62
   251
  5
69
 10
528.999992
 20
73.806
 30
0.0
 11
546.999992
 21
73.806
 31
0.0
  0
LINE
  8
LY_1
  6
CONTINUOUS
 62
   251
  5
6A
 10
528.999992
 20
-88.0
 30
0.0
 11
679.499992
 21
-88.0
 31
0.0
  0
LINE
  8
LY_1
  6
CONTINUOUS
 62
   251
  5
6B
 10
528.999992
 20
-73.806
 30
0.0
 11
546.999992
 21
-73.806
 31
0.0
  0
LINE
  8
LY_1
  6
CONTINUOUS
 62
   251
  5
6C
 10
-17.819671
 20
119.20001
 30
0.0
 11
23.0
 21
119.20001
 31
0.0
  0
LINE
  8
LY_1
  6
CONTINUOUS
 62
   251
  5
6D
 10
16.3999
 20
142.00001
 30
0.0
 11
17.3999
 21
141.00001
 31
0.0
  0
LINE
  8
LY_1
  6
CONTINUOUS
 62
   251
  5
6E
 10
-17.40003
 20
140.99998
 30
0.0
 11
-16.40003
 21
142.00001
 31
0.0
  0
LINE
  8
LY_1
  6
CONTINUOUS
 62
   251
  5
6F
 10
-16.40003
 20
142.0
 30
0.0
 11
16.3999
 21
142.0
 31
0.0
  0
LINE
  8
LY_1
  6
CONTINUOUS
 62
   251
  5
70
 10
-17.40003
 20
141.0
 30
0.0
 11
-17.40003
 21
123.0
 31
0.0
  0
LINE
  8
LY_1
  6
CONTINUOUS
 62
   251
  5
71
 10
17.3999
 20
123.0
 30
0.0
 11
17.3999
 21
141.0
 31
0.0
  0
LINE
  8
LY_1
  6
CONTINUOUS
 62
   251
  5
72
 10
-18.489706
 20
123.0
 30
0.0
 11
23.0
 21
123.0
 31
0.0
  0
LINE
  8
LY_1
  6
CONTINUOUS
 62
   251
  5
73
 10
23.0
 20
89.594922
 30
0.0
 11
23.0
 21
123.0
 31
0.0
  0
LINE
  8
LY_1
  6
CONTINUOUS
 62
   251
  5
74
 10
-23.0
 20
96.848237
 30
0.0
 11
-23.0
 21
112.299234
 31
0.0
  0
LINE
  8
LY_1
  6
CONTINUOUS
 62
   251
  5
75
 10
397.465019
 20
97.702305
 30
0.0
 11
396.869684
 21
97.483439
 31
0.0
  0
POLYLINE
  8
LY_1
  6
CONTINUOUS
 62
   251
  5
76
 66
     1
 10
0.0
 20
0.0
 30
0.0
  0
VERTEX
  8
LY_1
  6
CONTINUOUS
 62
   251
  5
15D
 10
397.464839
 20
95.424993
 30
0.0
  0
VERTEX
  8
LY_1
  6
CONTINUOUS
 62
   251
  5
15E
 10
397.215146
 20
95.309432
 30
0.0
  0
VERTEX
  8
LY_1
  6
CONTINUOUS
 62
   251
  5
15F
 10
397.062507
 20
95.188883
 30
0.0
  0
VERTEX
  8
LY_1
  6
CONTINUOUS
 62
   251
  5
160
 10
397.01002
 20
95.06579
 30
0.0
  0
VERTEX
  8
LY_1
  6
CONTINUOUS
 62
   251
  5
161
 10
397.058748
 20
94.942651
 30
0.0
  0
VERTEX
  8
LY_1
  6
CONTINUOUS
 62
   251
  5
162
 10
397.207703
 20
94.821962
 30
0.0
  0
VERTEX
  8
LY_1
  6
CONTINUOUS
 62
   251
  5
163
 10
397.453864
 20
94.706173
 30
0.0
  0
VERTEX
  8
LY_1
  6
CONTINUOUS
 62
   251
  5
164
 10
397.792238
 20
94.597632
 30
0.0
  0
VERTEX
  8
LY_1
  6
CONTINUOUS
 62
   251
  5
165
 10
398.215961
 20
94.49854
 30
0.0
  0
VERTEX
  8
LY_1
  6
CONTINUOUS
 62
   251
  5
166
 10
398.716439
 20
94.410907
 30
0.0
  0
VERTEX
  8
LY_1
  6
CONTINUOUS
 62
   251
  5
167
 10
399.283519
 20
94.336512
 30
0.0
  0
VERTEX
  8
LY_1
  6
CONTINUOUS
 62
   251
  5
168
 10
399.9057
 20
94.276862
 30
0.0
  0
VERTEX
  8
LY_1
  6
CONTINUOUS
 62
   251
  5
169
 10
400.570361
 20
94.233168
 30
0.0
  0
VERTEX
  8
LY_1
  6
CONTINUOUS
 62
   251
  5
16A
 10
401.264021
 20
94.206316
 30
0.0
  0
VERTEX
  8
LY_1
  6
CONTINUOUS
 62
   251
  5
16B
 10
401.972608
 20
94.196851
 30
0.0
  0
VERTEX
  8
LY_1
  6
CONTINUOUS
 62
   251
  5
16C
 10
402.681752
 20
94.204965
 30
0.0
  0
VERTEX
  8
LY_1
  6
CONTINUOUS
 62
   251
  5
16D
 10
403.377066
 20
94.230493
 30
0.0
  0
VERTEX
  8
LY_1
  6
CONTINUOUS
 62
   251
  5
16E
 10
404.044448
 20
94.272917
 30
0.0
  0
VERTEX
  8
LY_1
  6
CONTINUOUS
 62
   251
  5
16F
 10
404.670361
 20
94.331378
 30
0.0
  0
VERTEX
  8
LY_1
  6
CONTINUOUS
 62
   251
  5
170
 10
405.242109
 20
94.404688
 30
0.0
  0
VERTEX
  8
LY_1
  6
CONTINUOUS
 62
   251
  5
171
 10
405.748094
 20
94.491361
 30
0.0
  0
VERTEX
  8
LY_1
  6
CONTINUOUS
 62
   251
  5
172
 10
406.178054
 20
94.589639
 30
0.0
  0
VERTEX
  8
LY_1
  6
CONTINUOUS
 62
   251
  5
173
 10
406.523266
 20
94.697529
 30
0.0
  0
VERTEX
  8
LY_1
  6
CONTINUOUS
 62
   251
  5
174
 10
406.77673
 20
94.812842
 30
0.0
  0
VERTEX
  8
LY_1
  6
CONTINUOUS
 62
   251
  5
175
 10
406.933303
 20
94.933239
 30
0.0
  0
VERTEX
  8
LY_1
  6
CONTINUOUS
 62
   251
  5
176
 10
406.98981
 20
95.056278
 30
0.0
  0
VERTEX
  8
LY_1
  6
CONTINUOUS
 62
   251
  5
177
 10
406.945104
 20
95.179463
 30
0.0
  0
VERTEX
  8
LY_1
  6
CONTINUOUS
 62
   251
  5
178
 10
406.800093
 20
95.300296
 30
0.0
  0
VERTEX
  8
LY_1
  6
CONTINUOUS
 62
   251
  5
179
 10
406.557718
 20
95.416326
 30
0.0
  0
VERTEX
  8
LY_1
  6
CONTINUOUS
 62
   251
  5
17A
 10
406.54612
 20
95.42081
 30
0.0
  0
VERTEX
  8
LY_1
  6
CONTINUOUS
 62
   251
  5
17B
 10
406.534377
 20
95.425283
 30
0.0
  0
SEQEND
  8
LY_1
  6
CONTINUOUS
 62
   251
  5
17C
  0
POLYLINE
  8
LY_1
  6
CONTINUOUS
 62
   251
  5
77
 66
     1
 10
0.0
 20
0.0
 30
0.0
  0
VERTEX
  8
LY_1
  6
CONTINUOUS
 62
   251
  5
17D
 10
397.140007
 20
90.968842
 30
0.0
  0
VERTEX
  8
LY_1
  6
CONTINUOUS
 62
   251
  5
17E
 10
397.181585
 20
90.858662
 30
0.0
  0
VERTEX
  8
LY_1
  6
CONTINUOUS
 62
   251
  5
17F
 10
397.305607
 20
90.750368
 30
0.0
  0
VERTEX
  8
LY_1
  6
CONTINUOUS
 62
   251
  5
180
 10
397.509951
 20
90.645812
 30
0.0
  0
VERTEX
  8
LY_1
  6
CONTINUOUS
 62
   251
  5
181
 10
397.791122
 20
90.546783
 30
0.0
  0
VERTEX
  8
LY_1
  6
CONTINUOUS
 62
   251
  5
182
 10
398.144307
 20
90.454976
 30
0.0
  0
VERTEX
  8
LY_1
  6
CONTINUOUS
 62
   251
  5
183
 10
398.563464
 20
90.371961
 30
0.0
  0
VERTEX
  8
LY_1
  6
CONTINUOUS
 62
   251
  5
184
 10
399.041421
 20
90.299159
 30
0.0
  0
VERTEX
  8
LY_1
  6
CONTINUOUS
 62
   251
  5
185
 10
399.57
 20
90.237815
 30
0.0
  0
VERTEX
  8
LY_1
  6
CONTINUOUS
 62
   251
  5
186
 10
400.140156
 20
90.18898
 30
0.0
  0
VERTEX
  8
LY_1
  6
CONTINUOUS
 62
   251
  5
187
 10
400.742136
 20
90.153488
 30
0.0
  0
VERTEX
  8
LY_1
  6
CONTINUOUS
 62
   251
  5
188
 10
401.365637
 20
90.131947
 30
0.0
  0
VERTEX
  8
LY_1
  6
CONTINUOUS
 62
   251
  5
189
 10
401.999992
 20
90.124725
 30
0.0
  0
VERTEX
  8
LY_1
  6
CONTINUOUS
 62
   251
  5
18A
 10
402.634348
 20
90.131947
 30
0.0
  0
VERTEX
  8
LY_1
  6
CONTINUOUS
 62
   251
  5
18B
 10
403.257849
 20
90.153488
 30
0.0
  0
VERTEX
  8
LY_1
  6
CONTINUOUS
 62
   251
  5
18C
 10
403.859828
 20
90.18898
 30
0.0
  0
VERTEX
  8
LY_1
  6
CONTINUOUS
 62
   251
  5
18D
 10
404.429985
 20
90.237815
 30
0.0
  0
VERTEX
  8
LY_1
  6
CONTINUOUS
 62
   251
  5
18E
 10
404.958564
 20
90.299159
 30
0.0
  0
VERTEX
  8
LY_1
  6
CONTINUOUS
 62
   251
  5
18F
 10
405.436521
 20
90.371961
 30
0.0
  0
VERTEX
  8
LY_1
  6
CONTINUOUS
 62
   251
  5
190
 10
405.855678
 20
90.454976
 30
0.0
  0
VERTEX
  8
LY_1
  6
CONTINUOUS
 62
   251
  5
191
 10
406.208863
 20
90.546783
 30
0.0
  0
VERTEX
  8
LY_1
  6
CONTINUOUS
 62
   251
  5
192
 10
406.490033
 20
90.645812
 30
0.0
  0
VERTEX
  8
LY_1
  6
CONTINUOUS
 62
   251
  5
193
 10
406.694378
 20
90.750368
 30
0.0
  0
VERTEX
  8
LY_1
  6
CONTINUOUS
 62
   251
  5
194
 10
406.8184
 20
90.858662
 30
0.0
  0
VERTEX
  8
LY_1
  6
CONTINUOUS
 62
   251
  5
195
 10
406.859978
 20
90.968842
 30
0.0
  0
SEQEND
  8
LY_1
  6
CONTINUOUS
 62
   251
  5
196
  0
CIRCLE
  8
LY_1
  6
CONTINUOUS
 62
   251
  5
78
 10
-70.710678
 20
70.710678
 30
0.0
 40
5.0
  0
ARC
  8
LY_1
  6
CENTER
 62
     7
  5
79
 10
0.0
 20
0.0
 30
0.0
 40
100.0
 50
129.370408
 51
141.087573
  0
CIRCLE
  8
LY_1
  6
CONTINUOUS
 62
     7
  5
7A
 10
-70.710678
 20
70.710678
 30
0.0
 40
6.0
  0
CIRCLE
  8
LY_1
  6
CONTINUOUS
 62
   251
  5
7B
 10
70.710678
 20
70.710678
 30
0.0
 40
5.0
  0
CIRCLE
  8
LY_1
  6
CONTINUOUS
 62
     7
  5
7C
 10
70.710678
 20
70.710678
 30
0.0
 40
6.0
  0
ARC
  8
LY_1
  6
CENTER
 62
     7
  5
7D
 10
0.0
 20
0.0
 30
0.0
 40
100.0
 50
39.59939
 51
51.260489
  0
ARC
  8
LY_1
  6
CONTINUOUS
 62
   251
  5
7E
 10
0.0
 20
0.0
 30
0.0
 40
116.5
 50
130.942744
 51
139.057256
  0
ARC
  8
LY_1
  6
CONTINUOUS
 62
   251
  5
7F
 10
0.0
 20
0.0
 30
0.0
 40
116.5
 50
40.942744
 51
49.057256
  0
ARC
  8
LY_1
  6
CONTINUOUS
 62
   251
  5
80
 10
-21.589539
 20
122.440125
 30
0.0
 40
3.15
 50
9.999875
 51
189.99988
  0
ARC
  8
LY_1
  6
CONTINUOUS
 62
   251
  5
81
 10
-20.78833
 20
93.997192
 30
0.0
 40
1.0
 50
279.999879
 51
9.999916
  0
ARC
  8
LY_1
  6
CONTINUOUS
 62
   251
  5
82
 10
-23.232544
 20
95.597046
 30
0.0
 40
1.0
 50
117.667002
 51
179.999868
  0
ARC
  8
LY_1
  6
CONTINUOUS
 62
   251
  5
83
 10
-10.864807
 20
97.777771
 30
0.0
 40
1.0
 50
19.999928
 51
82.332801
  0
ARC
  8
LY_1
  6
CONTINUOUS
 62
   251
  5
84
 10
-12.614441
 20
95.438416
 30
0.0
 40
1.0
 50
189.999897
 51
279.999934
  0
ARC
  8
LY_1
  6
CONTINUOUS
 62
   251
  5
85
 10
414.956779
 20
93.201263
 30
0.0
 40
4.0
 50
126.08644
 51
188.554038
  0
ARC
  8
LY_1
  6
CONTINUOUS
 62
   251
  5
86
 10
391.043205
 20
93.201263
 30
0.0
 40
4.0
 50
351.445928
 51
53.913579
  0
ARC
  8
LY_1
  6
CONTINUOUS
 62
   251
  5
87
 10
408.440178
 20
95.606293
 30
0.0
 40
2.0
 50
10.000004
 51
89.999982
  0
ARC
  8
LY_1
  6
CONTINUOUS
 62
   251
  5
88
 10
397.559868
 20
95.606293
 30
0.0
 40
2.0
 50
92.718233
 51
170.000021
  0
ARC
  8
LY_1
  6
CONTINUOUS
 62
   251
  5
89
 10
402.999992
 20
109.606293
 30
0.0
 40
10.0
 50
290.70175
 51
236.392724
  0
ARC
  8
LY_1
  6
CONTINUOUS
 62
   251
  5
8A
 10
402.999992
 20
109.606293
 30
0.0
 40
16.299999
 50
306.086414
 51
233.913543
  0
ARC
  8
LY_1
  6
CONTINUOUS
 62
   251
  5
8B
 10
248.0
 20
0.0
 30
0.0
 40
5.0
 50
269.999997
 51
90.000003
  0
ARC
  8
LY_1
  6
CONTINUOUS
 62
   251
  5
8C
 10
323.999992
 20
69.550812
 30
0.0
 40
5.0
 50
272.999919
 51
0.0
  0
ARC
  8
LY_1
  6
CONTINUOUS
 62
   251
  5
8D
 10
286.018547
 20
-48.987
 30
0.0
 40
5.0
 50
355.000017
 51
89.999982
  0
ARC
  8
LY_1
  6
CONTINUOUS
 62
   251
  5
8E
 10
313.999992
 20
-113.000015
 30
0.0
 40
5.0
 50
270.000018
 51
0.0
  0
ARC
  8
LY_1
  6
CONTINUOUS
 62
   251
  5
8F
 10
280.418327
 20
-113.000015
 30
0.0
 40
5.0
 50
270.000018
 51
354.999989
  0
ARC
  8
LY_1
  6
CONTINUOUS
 62
   251
  5
90
 10
323.999992
 20
14.649109
 30
0.0
 40
5.0
 50
283.342301
 51
0.0
  0
ARC
  8
LY_1
  6
CONTINUOUS
 62
   251
  5
91
 10
326.999992
 20
2.0
 30
0.0
 40
8.0
 50
103.342422
 51
179.999964
  0
ARC
  8
LY_1
  6
CONTINUOUS
 62
   251
  5
92
 10
411.966423
 20
-91.000015
 30
0.0
 40
27.0
 50
211.999964
 51
270.000018
  0
ARC
  8
LY_1
  6
CONTINUOUS
 62
   251
  5
93
 10
0.0
 20
0.0
 30
0.0
 40
19.0
 50
15.257523
 51
344.742477
  0
ARC
  8
LY_1
  6
CONTINUOUS
 62
   251
  5
94
 10
33.853027
 20
-58.397095
 30
0.0
 40
5.0
 50
15.000004
 51
120.101022
  0
ARC
  8
LY_1
  6
CONTINUOUS
 62
   251
  5
95
 10
-33.853027
 20
-58.397095
 30
0.0
 40
5.0
 50
59.898915
 51
164.999994
  0
ARC
  8
LY_1
  6
CONTINUOUS
 62
   251
  5
96
 10
-52.387085
 20
-42.565674
 30
0.0
 40
5.0
 50
344.999996
 51
39.094596
  0
ARC
  8
LY_1
  6
CONTINUOUS
 62
   251
  5
97
 10
-65.812256
 20
15.0
 30
0.0
 40
5.0
 50
269.999997
 51
347.160411
  0
ARC
  8
LY_1
  6
CONTINUOUS
 62
   251
  5
98
 10
-65.812256
 20
-15.0
 30
0.0
 40
5.0
 50
12.839589
 51
90.000003
  0
ARC
  8
LY_1
  6
CONTINUOUS
 62
   251
  5
99
 10
65.812256
 20
-15.0
 30
0.0
 40
5.0
 50
90.000003
 51
167.160411
  0
ARC
  8
LY_1
  6
CONTINUOUS
 62
   251
  5
9A
 10
65.812256
 20
15.0
 30
0.0
 40
5.0
 50
192.839589
 51
269.999997
  0
ARC
  8
LY_1
  6
CONTINUOUS
 62
   251
  5
9B
 10
-53.0
 20
-139.000015
 30
0.0
 40
2.0
 50
89.999982
 51
179.999964
  0
ARC
  8
LY_1
  6
CONTINUOUS
 62
   251
  5
9C
 10
53.0
 20
-139.000015
 30
0.0
 40
2.0
 50
0.0
 51
89.999982
  0
ARC
  8
LY_1
  6
CONTINUOUS
 62
   251
  5
9D
 10
-80.377075
 20
-15.0
 30
0.0
 40
5.0
 50
89.999982
 51
171.999982
  0
ARC
  8
LY_1
  6
CONTINUOUS
 62
   251
  5
9E
 10
-94.150024
 20
-113.000015
 30
0.0
 40
5.0
 50
171.999941
 51
269.999946
  0
ARC
  8
LY_1
  6
CONTINUOUS
 62
   251
  5
9F
 10
80.377075
 20
-15.0
 30
0.0
 40
5.0
 50
7.999984
 51
89.999982
  0
ARC
  8
LY_1
  6
CONTINUOUS
 62
   251
  5
A0
 10
94.150146
 20
-113.000015
 30
0.0
 40
5.0
 50
270.000018
 51
8.000021
  0
ARC
  8
LY_1
  6
CENTER
 62
     7
  5
A1
 10
0.0
 20
0.0
 30
0.0
 40
81.0
 50
264.692913
 51
275.307054
  0
ARC
  8
LY_1
  6
CENTER
 62
     7
  5
A2
 10
0.0
 20
0.0
 30
0.0
 40
81.0
 50
204.692918
 51
215.30706
  0
ARC
  8
LY_1
  6
CENTER
 62
     7
  5
A3
 10
0.0
 20
0.0
 30
0.0
 40
81.0
 50
144.692913
 51
155.307054
  0
ARC
  8
LY_1
  6
CENTER
 62
     7
  5
A4
 10
0.0
 20
0.0
 30
0.0
 40
81.0
 50
84.692925
 51
95.307053
  0
ARC
  8
LY_1
  6
CENTER
 62
     7
  5
A5
 10
0.0
 20
0.0
 30
0.0
 40
81.0
 50
24.692934
 51
35.307054
  0
ARC
  8
LY_1
  6
CENTER
 62
     7
  5
A6
 10
0.0
 20
0.0
 30
0.0
 40
81.0
 50
324.692908
 51
335.307049
  0
ARC
  8
LY_1
  6
CONTINUOUS
 62
   251
  5
A7
 10
0.0
 20
0.0
 30
0.0
 40
92.5
 50
4.360909
 51
175.639216
  0
ARC
  8
LY_1
  6
CONTINUOUS
 62
   251
  5
A8
 10
-87.664307
 20
5.0
 30
0.0
 40
5.0
 50
89.999982
 51
171.999982
  0
ARC
  8
LY_1
  6
CONTINUOUS
 62
   251
  5
A9
 10
-71.259888
 20
-113.000015
 30
0.0
 40
5.0
 50
269.999963
 51
345.00003
  0
ARC
  8
LY_1
  6
CONTINUOUS
 62
   251
  5
AA
 10
71.26001
 20
-113.000015
 30
0.0
 40
5.0
 50
194.999951
 51
270.000018
  0
ARC
  8
LY_1
  6
CONTINUOUS
 62
   251
  5
AB
 10
87.664429
 20
5.0
 30
0.0
 40
5.0
 50
7.999984
 51
89.999982
  0
CIRCLE
  8
LY_1
  6
CONTINUOUS
 62
   251
  5
AC
 10
0.0
 20
0.0
 30
0.0
 40
47.5
  0
CIRCLE
  8
LY_1
  6
CONTINUOUS
 62
   251
  5
AD
 10
0.0
 20
0.0
 30
0.0
 40
62.5
  0
ARC
  8
LY_1
  6
CONTINUOUS
 62
   251
  5
AE
 10
52.387085
 20
-42.565735
 30
0.0
 40
5.0
 50
140.905327
 51
195.000002
  0
ARC
  8
LY_1
  6
CONTINUOUS
 62
   251
  5
AF
 10
505.999962
 20
72.5
 30
0.0
 40
5.0
 50
269.999997
 51
0.0
  0
ARC
  8
LY_1
  6
CONTINUOUS
 62
   251
  5
B0
 10
505.999962
 20
-72.499985
 30
0.0
 40
5.0
 50
0.0
 51
90.000003
  0
ARC
  8
LY_1
  6
CONTINUOUS
 62
   251
  5
B1
 10
416.999992
 20
-72.499985
 30
0.0
 40
5.0
 50
90.000003
 51
180.000005
  0
ARC
  8
LY_1
  6
CONTINUOUS
 62
   251
  5
B2
 10
416.999992
 20
72.5
 30
0.0
 40
5.0
 50
179.999991
 51
270.000001
  0
LINE
  8
LY_1
  6
CENTER
 62
     7
  5
B3
 10
-65.490189
 20
65.490189
 30
0.0
 11
-77.280019
 21
77.280019
 31
0.0
  0
LINE
  8
LY_1
  6
CENTER
 62
     7
  5
B4
 10
65.490189
 20
65.490189
 30
0.0
 11
77.280019
 21
77.280019
 31
0.0
  0
LINE
  8
LY_1
  6
CONTINUOUS
 62
   251
  5
B5
 10
28.5
 20
88.0
 30
0.0
 11
76.342976
 21
88.0
 31
0.0
  0
LINE
  8
LY_1
  6
CONTINUOUS
 62
   251
  5
B6
 10
-76.342976
 20
88.0
 30
0.0
 11
-28.5
 21
88.0
 31
0.0
  0
LINE
  8
LY_1
  6
CONTINUOUS
 62
   251
  5
B7
 10
-88.0
 20
76.342976
 30
0.0
 11
-88.0
 21
28.5
 31
0.0
  0
LINE
  8
LY_1
  6
CONTINUOUS
 62
   251
  5
B8
 10
88.0
 20
76.342976
 30
0.0
 11
88.0
 21
28.5
 31
0.0
  0
LINE
  8
LY_1
  6
CONTINUOUS
 62
   251
  5
B9
 10
245.0
 20
5.0
 30
0.0
 11
245.0
 21
-5.0
 31
0.0
  0
LINE
  8
LY_1
  6
CONTINUOUS
 62
   251
  5
BA
 10
22.0
 20
5.0
 30
0.0
 11
22.0
 21
-5.0
 31
0.0
  0
LINE
  8
LY_1
  6
CONTINUOUS
 62
   251
  5
BB
 10
21.677393
 20
94.196875
 30
0.0
 11
20.827437
 21
90.124783
 31
0.0
  0
LINE
  8
LY_1
  6
CONTINUOUS
 62
     7
  5
BC
 10
16.762258
 20
95.063531
 30
0.0
 11
13.51117
 21
102.744791
 31
0.0
  0
LINE
  8
LY_1
  6
CONTINUOUS
 62
     7
  5
BD
 10
17.97778
 20
101.957159
 30
0.0
 11
12.295652
 21
95.851119
 31
0.0
  0
LINE
  8
LY_1
  6
CONTINUOUS
 62
     7
  5
BE
 10
16.762244
 20
95.063502
 30
0.0
 11
22.444432
 21
101.16957
 31
0.0
  0
LINE
  8
LY_1
  6
CONTINUOUS
 62
   251
  5
BF
 10
21.677351
 20
94.196859
 30
0.0
 11
11.847125
 21
95.930193
 31
0.0
  0
LINE
  8
LY_1
  6
CONTINUOUS
 62
   251
  5
C0
 10
22.444423
 20
101.169589
 30
0.0
 11
13.511158
 21
102.744765
 31
0.0
  0
LINE
  8
LY_1
  6
CONTINUOUS
 62
   251
  5
C1
 10
11.847155
 20
95.930173
 30
0.0
 11
11.253115
 21
91.812956
 31
0.0
  0
LINE
  8
LY_1
  6
CONTINUOUS
 62
   251
  5
C2
 10
13.511158
 20
102.744765
 30
0.0
 11
12.29562
 21
95.851111
 31
0.0
  0
LINE
  8
LY_1
  6
CONTINUOUS
 62
   251
  5
C3
 10
22.444423
 20
101.169589
 30
0.0
 11
21.228886
 21
94.275936
 31
0.0
  0
LINE
  8
LY_1
  6
CONTINUOUS
 62
     7
  5
C4
 10
17.977801
 20
101.957195
 30
0.0
 11
21.228913
 21
94.275946
 31
0.0
  0
LINE
  8
LY_1
  6
CONTINUOUS
 62
     7
  5
C5
 10
103.530046
 20
-0.000001
 30
0.0
 11
96.530042
 21
-4.535557
 31
0.0
  0
LINE
  8
LY_1
  6
CONTINUOUS
 62
     7
  5
C6
 10
96.530037
 20
-0.000005
 30
0.0
 11
103.530055
 21
4.535529
 31
0.0
  0
LINE
  8
LY_1
  6
CONTINUOUS
 62
     7
  5
C7
 10
103.530001
 20
0.000023
 30
0.0
 11
96.530034
 21
4.535523
 31
0.0
  0
LINE
  8
LY_1
  6
CONTINUOUS
 62
     7
  5
C8
 10
96.530001
 20
0.000012
 30
0.0
 11
103.530005
 21
-4.535544
 31
0.0
  0
LINE
  8
LY_1
  6
CONTINUOUS
 62
   251
  5
C9
 10
-23.645616
 20
89.757657
 30
0.0
 11
-8.479549
 21
92.431821
 31
0.0
  0
LINE
  8
LY_1
  6
CONTINUOUS
 62
   251
  5
CA
 10
-8.479549
 20
92.431821
 30
0.0
 11
-8.826843
 21
94.401437
 31
0.0
  0
LINE
  8
LY_1
  6
CONTINUOUS
 62
   251
  5
CB
 10
-24.23256
 20
91.685016
 30
0.0
 11
-8.587132
 21
94.443704
 31
0.0
  0
LINE
  8
LY_1
  6
CONTINUOUS
 62
   251
  5
CC
 10
-23.645616
 20
89.757657
 30
0.0
 11
-23.99291
 21
91.727273
 31
0.0
  0
LINE
  8
LY_1
  6
CONTINUOUS
 62
   251
  5
CD
 10
-14.925444
 20
91.295218
 30
0.0
 11
-16.409887
 21
93.064313
 31
0.0
  0
LINE
  8
LY_1
  6
CONTINUOUS
 62
   251
  5
CE
 10
-16.440851
 20
91.078789
 30
0.0
 11
-17.888199
 21
92.803677
 31
0.0
  0
LINE
  8
LY_1
  6
CONTINUOUS
 62
   251
  5
CF
 10
365.999992
 20
92.5
 30
0.0
 11
365.999992
 21
-68.389412
 31
0.0
  0
LINE
  8
LY_1
  6
CONTINUOUS
 62
   251
  5
D0
 10
96.530029
 20
-4.990925
 30
0.0
 11
96.530029
 21
4.990948
 31
0.0
  0
LINE
  8
LY_1
  6
CONTINUOUS
 62
   251
  5
D1
 10
103.530029
 20
-4.535542
 30
0.0
 11
103.530029
 21
4.535534
 31
0.0
  0
LINE
  8
LY_1
  6
CONTINUOUS
 62
   251
  5
D2
 10
96.530004
 20
4.990931
 30
0.0
 11
92.731687
 21
4.872234
 31
0.0
  0
LINE
  8
LY_1
  6
CONTINUOUS
 62
   251
  5
D3
 10
103.530029
 20
4.535534
 30
0.0
 11
96.530029
 21
4.535534
 31
0.0
  0
LINE
  8
LY_1
  6
CONTINUOUS
 62
   251
  5
D4
 10
103.530029
 20
-4.535542
 30
0.0
 11
96.530029
 21
-4.535542
 31
0.0
  0
LINE
  8
LY_1
  6
CONTINUOUS
 62
   251
  5
D5
 10
96.530062
 20
-4.990935
 30
0.0
 11
94.107234
 21
-4.915222
 31
0.0
  0
LINE
  8
LY_1
  6
CENTER
 62
     7
  5
D6
 10
-22.814202
 20
129.385401
 30
0.0
 11
-15.378965
 21
87.217719
 31
0.0
  0
LINE
  8
LY_1
  6
CONTINUOUS
 62
   251
  5
D7
 10
-24.232544
 20
95.597046
 30
0.0
 11
-24.232544
 21
91.684998
 31
0.0
  0
LINE
  8
LY_1
  6
CONTINUOUS
 62
   251
  5
D8
 10
-20.506169
 20
98.155697
 30
0.0
 11
-23.696905
 21
96.482864
 31
0.0
  0
LINE
  8
LY_1
  6
CONTINUOUS
 62
   251
  5
D9
 10
-24.691649
 20
121.893137
 30
0.0
 11
-19.803511
 21
94.170888
 31
0.0
  0
LINE
  8
LY_1
  6
CONTINUOUS
 62
   251
  5
DA
 10
-18.487442
 20
122.987159
 30
0.0
 11
-13.599293
 21
95.26485
 31
0.0
  0
LINE
  8
LY_1
  6
CONTINUOUS
 62
   251
  5
DB
 10
-14.301901
 20
99.24952
 30
0.0
 11
-10.731268
 21
98.768832
 31
0.0
  0
LINE
  8
LY_1
  6
CONTINUOUS
 62
   251
  5
DC
 10
-9.925152
 20
98.119854
 30
0.0
 11
-8.587137
 21
94.443672
 31
0.0
  0
LINE
  8
LY_1
  6
CENTER
 62
     7
  5
DD
 10
19.101285
 20
108.328917
 30
0.0
 11
15.440831
 21
87.569454
 31
0.0
  0
LINE
  8
LY_1
  6
CONTINUOUS
 62
   251
  5
DE
 10
444.999992
 20
-118.000015
 30
0.0
 11
444.999992
 21
-140.000015
 31
0.0
  0
LINE
  8
LY_1
  6
DASHED
 62
     7
  5
E0
 10
432.499992
 20
-118.000015
 30
0.0
 11
432.499992
 21
-140.000015
 31
0.0
  0
LINE
  8
LY_1
  6
CONTINUOUS
 62
   251
  5
E1
 10
406.535027
 20
98.437555
 30
0.0
 11
409.1303
 21
97.483439
 31
0.0
  0
LINE
  8
LY_1
  6
CONTINUOUS
 62
   251
  5
E2
 10
406.535027
 20
97.606293
 30
0.0
 11
408.440178
 21
97.606293
 31
0.0
  0
LINE
  8
LY_1
  6
CENTER
 62
     7
  5
E3
 10
383.244011
 20
109.606293
 30
0.0
 11
422.751518
 21
109.606293
 31
0.0
  0
LINE
  8
LY_1
  6
CONTINUOUS
 62
   251
  5
E4
 10
410.409806
 20
95.953596
 30
0.0
 11
411.000023
 21
92.606308
 31
0.0
  0
LINE
  8
LY_1
  6
CONTINUOUS
 62
   251
  5
E5
 10
394.999985
 20
92.60631
 30
0.0
 11
395.590202
 21
95.953599
 31
0.0
  0
LINE
  8
LY_1
  6
CENTER
 62
     7
  5
E6
 10
402.999992
 20
129.519424
 30
0.0
 11
402.999992
 21
104.171903
 31
0.0
  0
LINE
  8
LY_1
  6
CONTINUOUS
 62
   251
  5
E7
 10
406.90871
 20
92.5
 30
0.0
 11
411.999992
 21
92.5
 31
0.0
  0
LINE
  8
LY_1
  6
CONTINUOUS
 62
   251
  5
E8
 10
406.989947
 20
95.058702
 30
0.0
 11
406.859949
 21
90.964178
 31
0.0
  0
LINE
  8
LY_1
  6
CONTINUOUS
 62
   251
  5
E9
 10
397.14009
 20
90.964202
 30
0.0
 11
397.010092
 21
95.058727
 31
0.0
  0
LINE
  8
LY_1
  6
CONTINUOUS
 62
     7
  5
EA
 10
402.000015
 20
94.27592
 30
0.0
 11
397.465018
 21
101.957165
 31
0.0
  0
LINE
  8
LY_1
  6
CONTINUOUS
 62
     7
  5
EB
 10
406.53502
 20
101.957164
 30
0.0
 11
402.000007
 21
94.275893
 31
0.0
  0
LINE
  8
LY_1
  6
CONTINUOUS
 62
     7
  5
EC
 10
401.999971
 20
101.169563
 30
0.0
 11
406.534976
 21
95.063494
 31
0.0
  0
LINE
  8
LY_1
  6
CONTINUOUS
 62
     7
  5
ED
 10
397.464989
 20
95.063473
 30
0.0
 11
402.000004
 21
101.169554
 31
0.0
  0
LINE
  8
LY_1
  6
CONTINUOUS
 62
   251
  5
EE
 10
402.000032
 20
94.275903
 30
0.0
 11
397.46501
 21
95.0635
 31
0.0
  0
LINE
  8
LY_1
  6
CONTINUOUS
 62
   251
  5
EF
 10
406.53501
 20
95.063495
 30
0.0
 11
401.999988
 21
94.275898
 31
0.0
  0
LINE
  8
LY_1
  6
CONTINUOUS
 62
   251
  5
F0
 10
402.000016
 20
102.74473
 30
0.0
 11
397.46499
 21
101.957149
 31
0.0
  0
LINE
  8
LY_1
  6
CONTINUOUS
 62
   251
  5
F1
 10
406.534996
 20
101.957143
 30
0.0
 11
402.000031
 21
102.744713
 31
0.0
  0
LINE
  8
LY_1
  6
CONTINUOUS
 62
   251
  5
F2
 10
402.000017
 20
101.169553
 30
0.0
 11
406.535039
 21
101.957153
 31
0.0
  0
LINE
  8
LY_1
  6
CONTINUOUS
 62
   251
  5
F3
 10
397.464979
 20
101.957156
 30
0.0
 11
402.0
 21
101.169556
 31
0.0
  0
LINE
  8
LY_1
  6
CONTINUOUS
 62
   251
  5
F4
 10
406.535027
 20
101.957153
 30
0.0
 11
406.535027
 21
95.063507
 31
0.0
  0
LINE
  8
LY_1
  6
CONTINUOUS
 62
   251
  5
F5
 10
397.465019
 20
101.957153
 30
0.0
 11
397.465019
 21
95.063507
 31
0.0
  0
LINE
  8
LY_1
  6
CENTER
 62
     7
  5
F6
 10
401.999992
 20
104.554604
 30
0.0
 11
401.999992
 21
87.071808
 31
0.0
  0
LINE
  8
LY_1
  6
DASHED
 62
     7
  5
F7
 10
308.949755
 20
-68.433321
 30
0.0
 11
303.000006
 21
-76.433324
 31
0.0
  0
LINE
  8
LY_1
  6
DASHED
 62
     7
  5
F8
 10
303.00001
 20
-68.433334
 30
0.0
 11
308.949754
 21
-76.43333
 31
0.0
  0
LINE
  8
LY_1
  6
DASHED
 62
     7
  5
F9
 10
303.000008
 20
-76.433326
 30
0.0
 11
297.050264
 21
-68.43333
 31
0.0
  0
LINE
  8
LY_1
  6
DASHED
 62
     7
  5
FA
 10
297.050256
 20
-76.433325
 30
0.0
 11
303.000005
 21
-68.433323
 31
0.0
  0
LINE
  8
LY_1
  6
DASHED
 62
     7
  5
FB
 10
308.949745
 20
-76.433334
 30
0.0
 11
308.949745
 21
-68.433319
 31
0.0
  0
LINE
  8
LY_1
  6
DASHED
 62
     7
  5
FC
 10
297.050255
 20
-76.433334
 30
0.0
 11
297.050255
 21
-68.433319
 31
0.0
  0
LINE
  8
LY_1
  6
DASHED
 62
     7
  5
FD
 10
309.735923
 20
-68.43331
 30
0.0
 11
309.590779
 21
-63.788712
 31
0.0
  0
LINE
  8
LY_1
  6
DASHED
 62
     7
  5
FE
 10
296.264059
 20
-68.433322
 30
0.0
 11
296.430755
 21
-63.099043
 31
0.0
  0
LINE
  8
LY_1
  6
DASHED
 62
     7
  5
FF
 10
296.264061
 20
-68.433319
 30
0.0
 11
309.735939
 21
-68.433319
 31
0.0
  0
LINE
  8
LY_1
  6
DASHED
 62
     7
  5
100
 10
297.050255
 20
-76.433334
 30
0.0
 11
308.949745
 21
-76.433334
 31
0.0
  0
LINE
  8
LY_1
  6
CONTINUOUS
 62
     7
  5
101
 10
5.949744
 20
-67.489954
 30
0.0
 11
-0.000009
 21
-75.489963
 31
0.0
  0
LINE
  8
LY_1
  6
CONTINUOUS
 62
     7
  5
102
 10
0.000005
 20
-67.489997
 30
0.0
 11
5.949749
 21
-75.489993
 31
0.0
  0
LINE
  8
LY_1
  6
CONTINUOUS
 62
     7
  5
103
 10
0.000012
 20
-75.489982
 30
0.0
 11
-5.949732
 21
-67.489986
 31
0.0
  0
LINE
  8
LY_1
  6
CONTINUOUS
 62
     7
  5
104
 10
-5.949746
 20
-75.489974
 30
0.0
 11
0.000007
 21
-67.489965
 31
0.0
  0
LINE
  8
LY_1
  6
CENTER
 62
     7
  5
105
 10
0.0
 20
-75.490005
 30
0.0
 11
0.0
 21
-67.490005
 31
0.0
  0
LINE
  8
LY_1
  6
CONTINUOUS
 62
   251
  5
106
 10
5.949738
 20
-75.490005
 30
0.0
 11
5.949738
 21
-67.490005
 31
0.0
  0
LINE
  8
LY_1
  6
CONTINUOUS
 62
   251
  5
107
 10
-5.949738
 20
-75.490005
 30
0.0
 11
-5.949738
 21
-67.490005
 31
0.0
  0
LINE
  8
LY_1
  6
CONTINUOUS
 62
   251
  5
108
 10
6.735924
 20
-67.489999
 30
0.0
 11
6.569169
 21
-62.153813
 31
0.0
  0
LINE
  8
LY_1
  6
CONTINUOUS
 62
   251
  5
109
 10
-6.735925
 20
-67.489995
 30
0.0
 11
-6.569169
 21
-62.153801
 31
0.0
  0
LINE
  8
LY_1
  6
CONTINUOUS
 62
   251
  5
10A
 10
-6.735931
 20
-67.490005
 30
0.0
 11
6.735931
 21
-67.490005
 31
0.0
  0
LINE
  8
LY_1
  6
CONTINUOUS
 62
   251
  5
10B
 10
-5.949738
 20
-75.490005
 30
0.0
 11
5.949738
 21
-75.490005
 31
0.0
  0
LINE
  8
LY_1
  6
CONTINUOUS
 62
   251
  5
10C
 10
200.0
 20
5.0
 30
0.0
 11
248.0
 21
5.0
 31
0.0
  0
LINE
  8
LY_1
  6
CONTINUOUS
 62
   251
  5
10D
 10
200.0
 20
-5.0
 30
0.0
 11
248.0
 21
-5.0
 31
0.0
  0
LINE
  8
LY_1
  6
CONTINUOUS
 62
   251
  5
10E
 10
255.0
 20
22.5
 30
0.0
 11
260.0
 21
22.5
 31
0.0
  0
LINE
  8
LY_1
  6
CONTINUOUS
 62
   251
  5
10F
 10
255.0
 20
-22.5
 30
0.0
 11
260.0
 21
-22.5
 31
0.0
  0
LINE
  8
LY_1
  6
CONTINUOUS
 62
   251
  5
110
 10
255.0
 20
22.5
 30
0.0
 11
255.0
 21
-22.5
 31
0.0
  0
LINE
  8
LY_1
  6
CONTINUOUS
 62
   251
  5
111
 10
200.0
 20
-19.0
 30
0.0
 11
255.0
 21
-19.0
 31
0.0
  0
LINE
  8
LY_1
  6
CONTINUOUS
 62
   251
  5
112
 10
200.0
 20
19.0
 30
0.0
 11
255.0
 21
19.0
 31
0.0
  0
LINE
  8
LY_1
  6
CONTINUOUS
 62
   251
  5
113
 10
200.0
 20
19.0
 30
0.0
 11
200.0
 21
-19.0
 31
0.0
  0
LINE
  8
LY_1
  6
CONTINUOUS
 62
   251
  5
114
 10
411.966423
 20
-118.000015
 30
0.0
 11
444.999992
 21
-118.000015
 31
0.0
  0
LINE
  8
LY_1
  6
CENTER
 62
     7
  5
115
 10
424.999992
 20
-111.857559
 30
0.0
 11
424.999992
 21
-145.368607
 31
0.0
  0
LINE
  8
LY_1
  6
DASHED
 62
     7
  5
116
 10
417.499992
 20
-118.000015
 30
0.0
 11
417.499992
 21
-140.000015
 31
0.0
  0
LINE
  8
LY_1
  6
CONTINUOUS
 62
   251
  5
117
 10
262.999992
 20
-50.500366
 30
0.0
 11
262.999992
 21
-62.5
 31
0.0
  0
LINE
  8
LY_1
  6
CONTINUOUS
 62
   251
  5
118
 10
285.00007
 20
62.500168
 30
0.0
 11
324.261742
 21
64.557785
 31
0.0
  0
LINE
  8
LY_1
  6
DASHED
 62
     7
  5
119
 10
287.499992
 20
-118.000015
 30
0.0
 11
287.499992
 21
-140.000015
 31
0.0
  0
LINE
  8
LY_1
  6
DASHED
 62
     7
  5
11A
 10
302.499992
 20
-118.000015
 30
0.0
 11
302.499992
 21
-140.000015
 31
0.0
  0
LINE
  8
LY_1
  6
CONTINUOUS
 62
   251
  5
11B
 10
318.999992
 20
2.0
 30
0.0
 11
318.999992
 21
-113.000015
 31
0.0
  0
LINE
  8
LY_1
  6
CONTINUOUS
 62
   251
  5
11C
 10
343.999992
 20
92.500031
 30
0.0
 11
343.999992
 21
-33.182251
 31
0.0
  0
LINE
  8
LY_1
  6
CONTINUOUS
 62
   251
  5
11D
 10
259.999924
 20
-47.50015
 30
0.0
 11
262.999949
 21
-50.500175
 31
0.0
  0
LINE
  8
LY_1
  6
CONTINUOUS
 62
   251
  5
11E
 10
260.00007
 20
47.500071
 30
0.0
 11
263.000044
 21
50.50006
 31
0.0
  0
LINE
  8
LY_1
  6
CONTINUOUS
 62
   251
  5
11F
 10
284.999996
 20
-62.499841
 30
0.0
 11
289.833207
 21
-62.753139
 31
0.0
  0
LINE
  8
LY_1
  6
CONTINUOUS
 62
   251
  5
120
 10
262.999992
 20
62.500031
 30
0.0
 11
262.999992
 21
-54.064218
 31
0.0
  0
LINE
  8
LY_1
  6
CONTINUOUS
 62
   251
  5
121
 10
262.999992
 20
62.500031
 30
0.0
 11
284.999992
 21
62.500031
 31
0.0
  0
LINE
  8
LY_1
  6
CONTINUOUS
 62
   251
  5
122
 10
262.999992
 20
-62.5
 30
0.0
 11
284.999992
 21
-62.5
 31
0.0
  0
LINE
  8
LY_1
  6
CONTINUOUS
 62
   251
  5
123
 10
260.0
 20
47.500031
 30
0.0
 11
260.0
 21
-47.5
 31
0.0
  0
LINE
  8
LY_1
  6
CONTINUOUS
 62
   251
  5
124
 10
328.999992
 20
92.500031
 30
0.0
 11
328.999992
 21
14.649109
 31
0.0
  0
LINE
  8
LY_1
  6
CONTINUOUS
 62
   251
  5
125
 10
328.999992
 20
92.500031
 30
0.0
 11
397.091329
 21
92.500031
 31
0.0
  0
LINE
  8
LY_1
  6
CONTINUOUS
 62
   251
  5
126
 10
389.069155
 20
-105.307787
 30
0.0
 11
344.000095
 21
-33.182194
 31
0.0
  0
LINE
  8
LY_1
  6
CENTER
 62
     7
  5
127
 10
294.999992
 20
-111.857559
 30
0.0
 11
294.999992
 21
-145.368607
 31
0.0
  0
LINE
  8
LY_1
  6
CONTINUOUS
 62
   251
  5
128
 10
285.399176
 20
-113.435718
 30
0.0
 11
290.99959
 21
-49.42273
 31
0.0
  0
LINE
  8
LY_1
  6
CONTINUOUS
 62
   251
  5
129
 10
274.999992
 20
-118.000015
 30
0.0
 11
313.999992
 21
-118.000015
 31
0.0
  0
LINE
  8
LY_1
  6
CONTINUOUS
 62
   251
  5
12A
 10
274.999992
 20
-118.000015
 30
0.0
 11
274.999992
 21
-140.000015
 31
0.0
  0
LINE
  8
LY_1
  6
CONTINUOUS
 62
   251
  5
12B
 10
274.999992
 20
-140.000015
 30
0.0
 11
444.999992
 21
-140.000015
 31
0.0
  0
LINE
  8
LY_1
  6
CONTINUOUS
 62
   251
  5
12C
 10
22.0
 20
-5.0
 30
0.0
 11
14.0
 21
-5.0
 31
0.0
  0
LINE
  8
LY_1
  6
CONTINUOUS
 62
   251
  5
12D
 10
22.0
 20
5.0
 30
0.0
 11
14.0
 21
5.0
 31
0.0
  0
LINE
  8
LY_1
  6
CONTINUOUS
 62
   251
  5
12E
 10
14.0
 20
5.0
 30
0.0
 11
14.0
 21
-5.0
 31
0.0
  0
LINE
  8
LY_1
  6
DASHED
 62
     7
  5
12F
 10
97.5
 20
-118.000015
 30
0.0
 11
97.5
 21
-140.000015
 31
0.0
  0
LINE
  8
LY_1
  6
DASHED
 62
     7
  5
130
 10
82.5
 20
-118.000015
 30
0.0
 11
82.5
 21
-140.000015
 31
0.0
  0
LINE
  8
LY_1
  6
DASHED
 62
     7
  5
131
 10
-82.5
 20
-118.000015
 30
0.0
 11
-82.5
 21
-140.000015
 31
0.0
  0
LINE
  8
LY_1
  6
DASHED
 62
     7
  5
132
 10
-97.5
 20
-118.000015
 30
0.0
 11
-97.5
 21
-140.000015
 31
0.0
  0
LINE
  8
LY_1
  6
CONTINUOUS
 62
   251
  5
133
 10
-65.812256
 20
-10.0
 30
0.0
 11
-80.377075
 21
-10.0
 31
0.0
  0
LINE
  8
LY_1
  6
CONTINUOUS
 62
   251
  5
134
 10
-99.10132
 20
-112.304139
 30
0.0
 11
-85.328325
 21
-14.304166
 31
0.0
  0
LINE
  8
LY_1
  6
CONTINUOUS
 62
   251
  5
135
 10
65.812256
 20
-10.0
 30
0.0
 11
80.377075
 21
-10.0
 31
0.0
  0
LINE
  8
LY_1
  6
CONTINUOUS
 62
   251
  5
136
 10
99.10146
 20
-112.304116
 30
0.0
 11
85.328457
 21
-14.304093
 31
0.0
  0
LINE
  8
LY_1
  6
CENTER
 62
     7
  5
137
 10
-90.0
 20
-111.102615
 30
0.0
 11
-90.0
 21
-146.975723
 31
0.0
  0
LINE
  8
LY_1
  6
CENTER
 62
     7
  5
138
 10
90.0
 20
-111.102615
 30
0.0
 11
90.0
 21
-146.975723
 31
0.0
  0
LINE
  8
LY_1
  6
CENTER
 62
     7
  5
139
 10
-63.652911
 20
-36.749896
 30
0.0
 11
-76.643293
 21
-44.249895
 31
0.0
  0
LINE
  8
LY_1
  6
CENTER
 62
     7
  5
13A
 10
-63.652851
 20
36.750032
 30
0.0
 11
-76.643232
 21
44.250033
 31
0.0
  0
LINE
  8
LY_1
  6
CENTER
 62
     7
  5
13B
 10
63.652936
 20
36.749948
 30
0.0
 11
76.643291
 21
44.249932
 31
0.0
  0
LINE
  8
LY_1
  6
CENTER
 62
     7
  5
13C
 10
63.652831
 20
-36.750089
 30
0.0
 11
76.643225
 21
-44.250097
 31
0.0
  0
LINE
  8
LY_1
  6
CONTINUOUS
 62
   251
  5
13D
 10
-66.430297
 20
-114.294099
 30
0.0
 11
-47.557485
 21
-43.859822
 31
0.0
  0
LINE
  8
LY_1
  6
CONTINUOUS
 62
   251
  5
13E
 10
-65.812256
 20
10.0
 30
0.0
 11
-87.664307
 21
10.0
 31
0.0
  0
LINE
  8
LY_1
  6
CONTINUOUS
 62
   251
  5
13F
 10
53.0
 20
-137.000015
 30
0.0
 11
-53.0
 21
-137.000015
 31
0.0
  0
LINE
  8
LY_1
  6
CONTINUOUS
 62
   251
  5
140
 10
-54.99997
 20
-117.999977
 30
0.0
 11
-38.682665
 21
-57.102979
 31
0.0
  0
LINE
  8
LY_1
  6
CONTINUOUS
 62
   251
  5
141
 10
-55.0
 20
-118.000015
 30
0.0
 11
-55.0
 21
-140.000015
 31
0.0
  0
LINE
  8
LY_1
  6
CONTINUOUS
 62
   251
  5
142
 10
-109.999973
 20
-117.999998
 30
0.0
 11
-92.615647
 21
5.695932
 31
0.0
  0
LINE
  8
LY_1
  6
CONTINUOUS
 62
   251
  5
143
 10
-110.0
 20
-118.000015
 30
0.0
 11
-110.0
 21
-140.000015
 31
0.0
  0
LINE
  8
LY_1
  6
CONTINUOUS
 62
   251
  5
144
 10
-55.0
 20
-118.000015
 30
0.0
 11
-110.0
 21
-118.000015
 31
0.0
  0
LINE
  8
LY_1
  6
CONTINUOUS
 62
   251
  5
145
 10
-55.0
 20
-140.000015
 30
0.0
 11
-110.0
 21
-140.000015
 31
0.0
  0
LINE
  8
LY_1
  6
CONTINUOUS
 62
   251
  5
146
 10
66.430335
 20
-114.294163
 30
0.0
 11
47.557519
 21
-43.859873
 31
0.0
  0
LINE
  8
LY_1
  6
CONTINUOUS
 62
   251
  5
147
 10
55.000008
 20
-118.000041
 30
0.0
 11
38.682699
 21
-57.10303
 31
0.0
  0
LINE
  8
LY_1
  6
CONTINUOUS
 62
   251
  5
148
 10
55.0
 20
-118.000015
 30
0.0
 11
55.0
 21
-140.000015
 31
0.0
  0
LINE
  8
LY_1
  6
CONTINUOUS
 62
   251
  5
149
 10
110.000234
 20
-117.999958
 30
0.0
 11
92.615918
 21
5.695894
 31
0.0
  0
LINE
  8
LY_1
  6
CONTINUOUS
 62
   251
  5
14A
 10
65.812256
 20
10.0
 30
0.0
 11
87.664429
 21
10.0
 31
0.0
  0
LINE
  8
LY_1
  6
CONTINUOUS
 62
   251
  5
14B
 10
110.0
 20
-118.000015
 30
0.0
 11
110.0
 21
-140.000015
 31
0.0
  0
LINE
  8
LY_1
  6
CONTINUOUS
 62
   251
  5
14C
 10
55.0
 20
-118.000015
 30
0.0
 11
110.0
 21
-118.000015
 31
0.0
  0
LINE
  8
LY_1
  6
CONTINUOUS
 62
   251
  5
14D
 10
55.0
 20
-140.000015
 30
0.0
 11
110.0
 21
-140.000015
 31
0.0
  0
LINE
  8
LY_1
  6
CENTER
 62
     7
  5
14E
 10
0.0
 20
-149.000015
 30
0.0
 11
0.0
 21
155.843465
 31
0.0
  0
LINE
  8
LY_1
  6
CENTER
 62
     7
  5
14F
 10
-105.416158
 20
0.0
 30
0.0
 11
115.476685
 21
0.0
 31
0.0
  0
LINE
  8
LY_1
  6
CENTER
 62
     7
  5
150
 10
302.999992
 20
-59.765213
 30
0.0
 11
302.999992
 21
-81.136429
 31
0.0
  0
LINE
  8
LY_1
  6
DASHED
 62
     7
  5
151
 10
287.656194
 20
-62.639184
 30
0.0
 11
313.546034
 21
-63.996013
 31
0.0
  0
LINE
  8
LY_1
  6
CONTINUOUS
 62
   251
  5
152
 10
416.999992
 20
-67.499985
 30
0.0
 11
505.999962
 21
-67.499985
 31
0.0
  0
LINE
  8
LY_1
  6
CONTINUOUS
 62
   251
  5
153
 10
510.999962
 20
-87.999985
 30
0.0
 11
528.999992
 21
-87.999985
 31
0.0
  0
LINE
  8
LY_1
  6
CONTINUOUS
 62
   251
  5
154
 10
416.999992
 20
67.5
 30
0.0
 11
505.999962
 21
67.5
 31
0.0
  0
LINE
  8
LY_1
  6
CONTINUOUS
 62
   251
  5
155
 10
510.999962
 20
88.000004
 30
0.0
 11
510.999962
 21
-87.999985
 31
0.0
  0
LINE
  8
LY_1
  6
CONTINUOUS
 62
   251
  5
156
 10
510.999962
 20
88.000004
 30
0.0
 11
528.999992
 21
88.000004
 31
0.0
  0
LINE
  8
LY_1
  6
CONTINUOUS
 62
   251
  5
157
 10
528.999992
 20
88.000004
 30
0.0
 11
528.999992
 21
-87.999985
 31
0.0
  0
LINE
  8
LY_1
  6
CONTINUOUS
 62
   251
  5
158
 10
381.065941
 20
-92.499985
 30
0.0
 11
411.999992
 21
-92.499985
 31
0.0
  0
LINE
  8
LY_1
  6
CONTINUOUS
 62
   251
  5
159
 10
411.999992
 20
92.5
 30
0.0
 11
411.999992
 21
-92.499985
 31
0.0
  0
LINE
  8
LY_1
  6
CENTER
 62
     7
  5
15A
 10
189.195684
 20
0.0
 30
0.0
 11
735.575204
 21
0.0
 31
0.0
  0
LINE
  8
LY_1
  6
CONTINUOUS
 62
   251
  5
15B
 10
393.999992
 20
92.5
 30
0.0
 11
393.999992
 21
-92.5
 31
0.0
  0
ENDSEC
  0
EOF
